ISO-10303-21;
HEADER;
FILE_DESCRIPTION (( 'STEP AP214' ),
    '1' );
FILE_NAME ('03-1720.STEP',
    '2021-10-01T05:49:42',
    ( 'USER' ),
    ( '' ),
    'SwSTEP 2.0',
    'SolidWorks 2018',
    '' );
FILE_SCHEMA (( 'AUTOMOTIVE_DESIGN' ));
ENDSEC;

DATA;
#1 = CARTESIAN_POINT ( 'NONE',  ( -3.490243377569957540E-16, 5.700000000000001066, 0.0000000000000000000 ) ) ;
#2 =( GEOMETRIC_REPRESENTATION_CONTEXT ( 3 ) GLOBAL_UNCERTAINTY_ASSIGNED_CONTEXT ( ( #65 ) ) GLOBAL_UNIT_ASSIGNED_CONTEXT ( ( #46, #172, #73 ) ) REPRESENTATION_CONTEXT ( 'NONE', 'WORKASPACE' ) );
#3 = CONICAL_SURFACE ( 'NONE', #132, 4.560000000000008491, 0.7853981633974437271 ) ;
#4 =( GEOMETRIC_REPRESENTATION_CONTEXT ( 3 ) GLOBAL_UNCERTAINTY_ASSIGNED_CONTEXT ( ( #155 ) ) GLOBAL_UNIT_ASSIGNED_CONTEXT ( ( #103, #183, #158 ) ) REPRESENTATION_CONTEXT ( 'NONE', 'WORKASPACE' ) );
#5 = DIRECTION ( 'NONE',  ( 0.0000000000000000000, 0.0000000000000000000, -1.000000000000000000 ) ) ;
#6 = EDGE_LOOP ( 'NONE', ( #34 ) ) ;
#7 =( GEOMETRIC_REPRESENTATION_CONTEXT ( 3 ) GLOBAL_UNCERTAINTY_ASSIGNED_CONTEXT ( ( #47 ) ) GLOBAL_UNIT_ASSIGNED_CONTEXT ( ( #58, #30, #136 ) ) REPRESENTATION_CONTEXT ( 'NONE', 'WORKASPACE' ) );
#8 = DIRECTION ( 'NONE',  ( 0.0000000000000000000, 0.0000000000000000000, -1.000000000000000000 ) ) ;
#9 = ADVANCED_BREP_SHAPE_REPRESENTATION ( '03-1720', ( #82, #11, #26 ), #7 ) ;
#10 = DIRECTION ( 'NONE',  ( 0.0000000000000000000, 0.0000000000000000000, -1.000000000000000000 ) ) ;
#11 = MANIFOLD_SOLID_BREP ( 'ºÐÇÒ2[2]', #193 ) ;
#12 = STYLED_ITEM ( 'NONE', ( #53 ), #11 ) ;
#13 = PRODUCT_RELATED_PRODUCT_CATEGORY ( 'part', '', ( #133 ) ) ;
#14 = EDGE_LOOP ( 'NONE', ( #95 ) ) ;
#15 = VERTEX_POINT ( 'NONE', #197 ) ;
#16 = DIRECTION ( 'NONE',  ( 1.000000000000000000, 0.0000000000000000000, 0.0000000000000000000 ) ) ;
#17 = STYLED_ITEM ( 'NONE', ( #74 ), #93 ) ;
#18 = DIRECTION ( 'NONE',  ( 0.0000000000000000000, 0.0000000000000000000, 1.000000000000000000 ) ) ;
#19 = FILL_AREA_STYLE_COLOUR ( '', #179 ) ;
#20 = AXIS2_PLACEMENT_3D ( 'NONE', #67, #79, #176 ) ;
#21 = DIRECTION ( 'NONE',  ( 0.0000000000000000000, 0.0000000000000000000, -1.000000000000000000 ) ) ;
#22 = FACE_BOUND ( 'NONE', #164, .T. ) ;
#23 = DIRECTION ( 'NONE',  ( 0.0000000000000000000, 0.0000000000000000000, -1.000000000000000000 ) ) ;
#24 =( NAMED_UNIT ( * ) SI_UNIT ( $, .STERADIAN. ) SOLID_ANGLE_UNIT ( ) );
#25 = PRESENTATION_LAYER_ASSIGNMENT (  '', '', ( #12 ) ) ;
#26 = AXIS2_PLACEMENT_3D ( 'NONE', #104, #108, #16 ) ;
#27 = DIRECTION ( 'NONE',  ( 1.000000000000000000, 0.0000000000000000000, 0.0000000000000000000 ) ) ;
#28 = PRODUCT_DEFINITION ( 'UNKNOWN', '', #76, #210 ) ;
#29 = MECHANICAL_DESIGN_GEOMETRIC_PRESENTATION_REPRESENTATION (  '', ( #91 ), #192 ) ;
#30 =( NAMED_UNIT ( * ) PLANE_ANGLE_UNIT ( ) SI_UNIT ( $, .RADIAN. ) );
#31 = AXIS2_PLACEMENT_3D ( 'NONE', #113, #37, #54 ) ;
#32 = ADVANCED_FACE ( 'NONE', ( #114 ), #50, .F. ) ;
#33 = SURFACE_SIDE_STYLE ('',( #195 ) ) ;
#34 = ORIENTED_EDGE ( 'NONE', *, *, #109, .F. ) ;
#35 = ORIENTED_EDGE ( 'NONE', *, *, #130, .T. ) ;
#36 = FACE_OUTER_BOUND ( 'NONE', #169, .T. ) ;
#37 = DIRECTION ( 'NONE',  ( -1.000000000000000000, -0.0000000000000000000, -0.0000000000000000000 ) ) ;
#38 = MECHANICAL_DESIGN_GEOMETRIC_PRESENTATION_REPRESENTATION (  '', ( #62 ), #203 ) ;
#39 = EDGE_LOOP ( 'NONE', ( #211 ) ) ;
#40 = CARTESIAN_POINT ( 'NONE',  ( 47.99999999999998579, 0.0000000000000000000, -5.700000000000009059 ) ) ;
#41 =( NAMED_UNIT ( * ) PLANE_ANGLE_UNIT ( ) SI_UNIT ( $, .RADIAN. ) );
#42 = ORIENTED_EDGE ( 'NONE', *, *, #120, .F. ) ;
#43 = ADVANCED_FACE ( 'NONE', ( #209 ), #131, .T. ) ;
#44 = AXIS2_PLACEMENT_3D ( 'NONE', #86, #201, #149 ) ;
#45 = AXIS2_PLACEMENT_3D ( 'NONE', #141, #187, #10 ) ;
#46 =( LENGTH_UNIT ( ) NAMED_UNIT ( * ) SI_UNIT ( .MILLI., .METRE. ) );
#47 = UNCERTAINTY_MEASURE_WITH_UNIT (LENGTH_MEASURE( 1.000000000000000082E-05 ), #58, 'distance_accuracy_value', 'NONE');
#48 =( LENGTH_UNIT ( ) NAMED_UNIT ( * ) SI_UNIT ( .MILLI., .METRE. ) );
#49 = VERTEX_POINT ( 'NONE', #199 ) ;
#50 = PLANE ( 'NONE',  #45 ) ;
#51 = SURFACE_STYLE_USAGE ( .BOTH. , #83 ) ;
#52 = CYLINDRICAL_SURFACE ( 'NONE', #20, 5.700000000000009059 ) ;
#53 = PRESENTATION_STYLE_ASSIGNMENT (( #161 ) ) ;
#54 = DIRECTION ( 'NONE',  ( 0.0000000000000000000, 0.0000000000000000000, 1.000000000000000000 ) ) ;
#55 = FILL_AREA_STYLE_COLOUR ( '', #75 ) ;
#56 =( NAMED_UNIT ( * ) PLANE_ANGLE_UNIT ( ) SI_UNIT ( $, .RADIAN. ) );
#57 = VERTEX_POINT ( 'NONE', #81 ) ;
#58 =( LENGTH_UNIT ( ) NAMED_UNIT ( * ) SI_UNIT ( .MILLI., .METRE. ) );
#59 = PRESENTATION_LAYER_ASSIGNMENT (  '', '', ( #17 ) ) ;
#60 = AXIS2_PLACEMENT_3D ( 'NONE', #63, #194, #64 ) ;
#61 = FILL_AREA_STYLE ('',( #55 ) ) ;
#62 = STYLED_ITEM ( 'NONE', ( #191 ), #152 ) ;
#63 = CARTESIAN_POINT ( 'NONE',  ( 1.140000000000010338, 0.0000000000000000000, 0.0000000000000000000 ) ) ;
#64 = DIRECTION ( 'NONE',  ( 0.0000000000000000000, 0.0000000000000000000, -1.000000000000000000 ) ) ;
#65 = UNCERTAINTY_MEASURE_WITH_UNIT (LENGTH_MEASURE( 1.000000000000000082E-05 ), #46, 'distance_accuracy_value', 'NONE');
#66 = CIRCLE ( 'NONE', #153, 5.700000000000009059 ) ;
#67 = CARTESIAN_POINT ( 'NONE',  ( 0.0000000000000000000, 0.0000000000000000000, 0.0000000000000000000 ) ) ;
#68 = PRESENTATION_LAYER_ASSIGNMENT (  '', '', ( #91 ) ) ;
#69 = MECHANICAL_DESIGN_GEOMETRIC_PRESENTATION_REPRESENTATION (  '', ( #17 ), #4 ) ;
#70 = PLANE ( 'NONE',  #184 ) ;
#71 = SURFACE_SIDE_STYLE ('',( #112 ) ) ;
#72 = ORIENTED_EDGE ( 'NONE', *, *, #101, .T. ) ;
#73 =( NAMED_UNIT ( * ) SI_UNIT ( $, .STERADIAN. ) SOLID_ANGLE_UNIT ( ) );
#74 = PRESENTATION_STYLE_ASSIGNMENT (( #148 ) ) ;
#75 = COLOUR_RGB ( '',0.7921568627450980005, 0.8196078431372548767, 0.9333333333333333481 ) ;
#76 = PRODUCT_DEFINITION_FORMATION_WITH_SPECIFIED_SOURCE ( 'ANY', '', #133, .NOT_KNOWN. ) ;
#77 = ORIENTED_EDGE ( 'NONE', *, *, #109, .T. ) ;
#78 = DIRECTION ( 'NONE',  ( -1.000000000000000000, -0.0000000000000000000, -0.0000000000000000000 ) ) ;
#79 = DIRECTION ( 'NONE',  ( -1.000000000000000000, -0.0000000000000000000, -0.0000000000000000000 ) ) ;
#80 = DIRECTION ( 'NONE',  ( 1.000000000000000000, 0.0000000000000000000, 0.0000000000000000000 ) ) ;
#81 = CARTESIAN_POINT ( 'NONE',  ( 139.6389826944732988, 0.0000000000000000000, 5.700000000000017941 ) ) ;
#82 = MANIFOLD_SOLID_BREP ( 'ºÐÇÒ2[1]', #150 ) ;
#83 = SURFACE_SIDE_STYLE ('',( #117 ) ) ;
#84 = EDGE_LOOP ( 'NONE', ( #77 ) ) ;
#85 = AXIS2_PLACEMENT_3D ( 'NONE', #146, #182, #5 ) ;
#86 = CARTESIAN_POINT ( 'NONE',  ( 47.99999999999998579, 0.0000000000000000000, 0.0000000000000000000 ) ) ;
#87 = FACE_OUTER_BOUND ( 'NONE', #88, .T. ) ;
#88 = EDGE_LOOP ( 'NONE', ( #35 ) ) ;
#89 = PRODUCT_DEFINITION_SHAPE ( 'NONE', 'NONE',  #28 ) ;
#90 = ORIENTED_EDGE ( 'NONE', *, *, #213, .F. ) ;
#91 = STYLED_ITEM ( 'NONE', ( #205 ), #82 ) ;
#92 = CARTESIAN_POINT ( 'NONE',  ( 47.99999999999998579, 0.0000000000000000000, 0.0000000000000000000 ) ) ;
#93 = ADVANCED_FACE ( 'NONE', ( #36 ), #157, .T. ) ;
#94 = FACE_OUTER_BOUND ( 'NONE', #39, .T. ) ;
#95 = ORIENTED_EDGE ( 'NONE', *, *, #120, .T. ) ;
#96 = VERTEX_POINT ( 'NONE', #40 ) ;
#97 = FILL_AREA_STYLE_COLOUR ( '', #98 ) ;
#98 = COLOUR_RGB ( '',1.000000000000000000, 1.000000000000000000, 0.0000000000000000000 ) ;
#99 = ORIENTED_EDGE ( 'NONE', *, *, #130, .F. ) ;
#100 =( LENGTH_UNIT ( ) NAMED_UNIT ( * ) SI_UNIT ( .MILLI., .METRE. ) );
#101 = EDGE_CURVE ( 'NONE', #49, #49, #66, .T. ) ;
#102 = DIRECTION ( 'NONE',  ( 0.0000000000000000000, 0.0000000000000000000, 1.000000000000000000 ) ) ;
#103 =( LENGTH_UNIT ( ) NAMED_UNIT ( * ) SI_UNIT ( .MILLI., .METRE. ) );
#104 = CARTESIAN_POINT ( 'NONE',  ( 0.0000000000000000000, 0.0000000000000000000, 0.0000000000000000000 ) ) ;
#105 = CIRCLE ( 'NONE', #85, 4.560000000000008491 ) ;
#106 = ADVANCED_FACE ( 'NONE', ( #140, #22 ), #3, .T. ) ;
#107 = AXIS2_PLACEMENT_3D ( 'NONE', #92, #180, #23 ) ;
#108 = DIRECTION ( 'NONE',  ( 0.0000000000000000000, 0.0000000000000000000, 1.000000000000000000 ) ) ;
#109 = EDGE_CURVE ( 'NONE', #15, #15, #188, .T. ) ;
#110 = PRESENTATION_STYLE_ASSIGNMENT (( #137 ) ) ;
#111 = FILL_AREA_STYLE_COLOUR ( '', #208 ) ;
#112 = SURFACE_STYLE_FILL_AREA ( #165 ) ;
#113 = CARTESIAN_POINT ( 'NONE',  ( -858.0000000000000000, 0.0000000000000000000, 0.0000000000000000000 ) ) ;
#114 = FACE_OUTER_BOUND ( 'NONE', #198, .T. ) ;
#115 =( NAMED_UNIT ( * ) PLANE_ANGLE_UNIT ( ) SI_UNIT ( $, .RADIAN. ) );
#116 = APPLICATION_CONTEXT ( 'automotive_design' ) ;
#117 = SURFACE_STYLE_FILL_AREA ( #200 ) ;
#118 = APPLICATION_CONTEXT ( 'automotive_design' ) ;
#119 = UNCERTAINTY_MEASURE_WITH_UNIT (LENGTH_MEASURE( 1.000000000000000082E-05 ), #162, 'distance_accuracy_value', 'NONE');
#120 = EDGE_CURVE ( 'NONE', #57, #57, #178, .T. ) ;
#121 = ORIENTED_EDGE ( 'NONE', *, *, #213, .T. ) ;
#122 = PRODUCT_CONTEXT ( 'NONE', #116, 'mechanical' ) ;
#123 = EDGE_LOOP ( 'NONE', ( #121 ) ) ;
#124 = CARTESIAN_POINT ( 'NONE',  ( 0.0000000000000000000, 0.0000000000000000000, 0.0000000000000000000 ) ) ;
#125 =( GEOMETRIC_REPRESENTATION_CONTEXT ( 3 ) GLOBAL_UNCERTAINTY_ASSIGNED_CONTEXT ( ( #139 ) ) GLOBAL_UNIT_ASSIGNED_CONTEXT ( ( #100, #41, #189 ) ) REPRESENTATION_CONTEXT ( 'NONE', 'WORKASPACE' ) );
#126 = FACE_OUTER_BOUND ( 'NONE', #123, .T. ) ;
#127 = APPLICATION_PROTOCOL_DEFINITION ( 'draft international standard', 'automotive_design', 1998, #116 ) ;
#128 = SURFACE_SIDE_STYLE ('',( #156 ) ) ;
#129 = SURFACE_STYLE_FILL_AREA ( #202 ) ;
#130 = EDGE_CURVE ( 'NONE', #138, #138, #105, .T. ) ;
#131 = PLANE ( 'NONE',  #107 ) ;
#132 = AXIS2_PLACEMENT_3D ( 'NONE', #142, #212, #8 ) ;
#133 = PRODUCT ( '03-1720', '03-1720', '', ( #122 ) ) ;
#134 = CIRCLE ( 'NONE', #44, 5.700000000000009059 ) ;
#135 = CARTESIAN_POINT ( 'NONE',  ( -3.490243377569957540E-16, 0.0000000000000000000, -4.560000000000008491 ) ) ;
#136 =( NAMED_UNIT ( * ) SI_UNIT ( $, .STERADIAN. ) SOLID_ANGLE_UNIT ( ) );
#137 = SURFACE_STYLE_USAGE ( .BOTH. , #33 ) ;
#138 = VERTEX_POINT ( 'NONE', #135 ) ;
#139 = UNCERTAINTY_MEASURE_WITH_UNIT (LENGTH_MEASURE( 1.000000000000000082E-05 ), #100, 'distance_accuracy_value', 'NONE');
#140 = FACE_OUTER_BOUND ( 'NONE', #6, .T. ) ;
#141 = CARTESIAN_POINT ( 'NONE',  ( 47.99999999999998579, 0.0000000000000000000, 0.0000000000000000000 ) ) ;
#142 = CARTESIAN_POINT ( 'NONE',  ( -3.490243377569957540E-16, 0.0000000000000000000, 0.0000000000000000000 ) ) ;
#143 = DIRECTION ( 'NONE',  ( -1.000000000000000000, -0.0000000000000000000, -0.0000000000000000000 ) ) ;
#144 = AXIS2_PLACEMENT_3D ( 'NONE', #145, #143, #18 ) ;
#145 = CARTESIAN_POINT ( 'NONE',  ( 139.6389826944732988, 0.0000000000000000000, 0.0000000000000000000 ) ) ;
#146 = CARTESIAN_POINT ( 'NONE',  ( -3.490243377569957540E-16, 0.0000000000000000000, 0.0000000000000000000 ) ) ;
#147 = SURFACE_SIDE_STYLE ('',( #129 ) ) ;
#148 = SURFACE_STYLE_USAGE ( .BOTH. , #71 ) ;
#149 = DIRECTION ( 'NONE',  ( 0.0000000000000000000, 0.0000000000000000000, -1.000000000000000000 ) ) ;
#150 = CLOSED_SHELL ( 'NONE', ( #186, #170, #106, #43 ) ) ;
#151 = FILL_AREA_STYLE_COLOUR ( '', #175 ) ;
#152 = ADVANCED_FACE ( 'NONE', ( #126, #204 ), #173, .T. ) ;
#153 = AXIS2_PLACEMENT_3D ( 'NONE', #166, #80, #21 ) ;
#154 = PRESENTATION_LAYER_ASSIGNMENT (  '', '', ( #167 ) ) ;
#155 = UNCERTAINTY_MEASURE_WITH_UNIT (LENGTH_MEASURE( 1.000000000000000082E-05 ), #103, 'distance_accuracy_value', 'NONE');
#156 = SURFACE_STYLE_FILL_AREA ( #61 ) ;
#157 = CONICAL_SURFACE ( 'NONE', #31, 2414.213562373062814, 1.178097245096167756 ) ;
#158 =( NAMED_UNIT ( * ) SI_UNIT ( $, .STERADIAN. ) SOLID_ANGLE_UNIT ( ) );
#159 = APPLICATION_PROTOCOL_DEFINITION ( 'draft international standard', 'automotive_design', 1998, #118 ) ;
#160 = SURFACE_STYLE_USAGE ( .BOTH. , #128 ) ;
#161 = SURFACE_STYLE_USAGE ( .BOTH. , #147 ) ;
#162 =( LENGTH_UNIT ( ) NAMED_UNIT ( * ) SI_UNIT ( .MILLI., .METRE. ) );
#163 = DIRECTION ( 'NONE',  ( 0.0000000000000000000, 0.0000000000000000000, -1.000000000000000000 ) ) ;
#164 = EDGE_LOOP ( 'NONE', ( #99 ) ) ;
#165 = FILL_AREA_STYLE ('',( #97 ) ) ;
#166 = CARTESIAN_POINT ( 'NONE',  ( 47.99999999999998579, 0.0000000000000000000, 0.0000000000000000000 ) ) ;
#167 = STYLED_ITEM ( 'NONE', ( #110 ), #9 ) ;
#168 = FACE_OUTER_BOUND ( 'NONE', #84, .T. ) ;
#169 = EDGE_LOOP ( 'NONE', ( #42 ) ) ;
#170 = ADVANCED_FACE ( 'NONE', ( #87 ), #70, .F. ) ;
#171 = MECHANICAL_DESIGN_GEOMETRIC_PRESENTATION_REPRESENTATION (  '', ( #12 ), #125 ) ;
#172 =( NAMED_UNIT ( * ) PLANE_ANGLE_UNIT ( ) SI_UNIT ( $, .RADIAN. ) );
#173 = CYLINDRICAL_SURFACE ( 'NONE', #196, 5.700000000000009059 ) ;
#174 = UNCERTAINTY_MEASURE_WITH_UNIT (LENGTH_MEASURE( 1.000000000000000082E-05 ), #48, 'distance_accuracy_value', 'NONE');
#175 = COLOUR_RGB ( '',0.7921568627450980005, 0.8196078431372548767, 0.9333333333333333481 ) ;
#176 = DIRECTION ( 'NONE',  ( 0.0000000000000000000, 0.0000000000000000000, 1.000000000000000000 ) ) ;
#177 = PRESENTATION_LAYER_ASSIGNMENT (  '', '', ( #62 ) ) ;
#178 = CIRCLE ( 'NONE', #144, 5.700000000000017941 ) ;
#179 = COLOUR_RGB ( '',0.7921568627450980005, 0.8196078431372548767, 0.9333333333333333481 ) ;
#180 = DIRECTION ( 'NONE',  ( 1.000000000000000000, 0.0000000000000000000, 0.0000000000000000000 ) ) ;
#181 =( NAMED_UNIT ( * ) SI_UNIT ( $, .STERADIAN. ) SOLID_ANGLE_UNIT ( ) );
#182 = DIRECTION ( 'NONE',  ( -1.000000000000000000, -0.0000000000000000000, -0.0000000000000000000 ) ) ;
#183 =( NAMED_UNIT ( * ) PLANE_ANGLE_UNIT ( ) SI_UNIT ( $, .RADIAN. ) );
#184 = AXIS2_PLACEMENT_3D ( 'NONE', #1, #27, #163 ) ;
#185 = SHAPE_DEFINITION_REPRESENTATION ( #89, #9 ) ;
#186 = ADVANCED_FACE ( 'NONE', ( #168, #94 ), #52, .T. ) ;
#187 = DIRECTION ( 'NONE',  ( 1.000000000000000000, 0.0000000000000000000, 0.0000000000000000000 ) ) ;
#188 = CIRCLE ( 'NONE', #60, 5.700000000000009059 ) ;
#189 =( NAMED_UNIT ( * ) SI_UNIT ( $, .STERADIAN. ) SOLID_ANGLE_UNIT ( ) );
#190 = MECHANICAL_DESIGN_GEOMETRIC_PRESENTATION_REPRESENTATION (  '', ( #167 ), #2 ) ;
#191 = PRESENTATION_STYLE_ASSIGNMENT (( #51 ) ) ;
#192 =( GEOMETRIC_REPRESENTATION_CONTEXT ( 3 ) GLOBAL_UNCERTAINTY_ASSIGNED_CONTEXT ( ( #174 ) ) GLOBAL_UNIT_ASSIGNED_CONTEXT ( ( #48, #56, #181 ) ) REPRESENTATION_CONTEXT ( 'NONE', 'WORKASPACE' ) );
#193 = CLOSED_SHELL ( 'NONE', ( #32, #152, #93 ) ) ;
#194 = DIRECTION ( 'NONE',  ( 1.000000000000000000, 0.0000000000000000000, 0.0000000000000000000 ) ) ;
#195 = SURFACE_STYLE_FILL_AREA ( #207 ) ;
#196 = AXIS2_PLACEMENT_3D ( 'NONE', #124, #78, #102 ) ;
#197 = CARTESIAN_POINT ( 'NONE',  ( 1.140000000000010338, 0.0000000000000000000, -5.700000000000009059 ) ) ;
#198 = EDGE_LOOP ( 'NONE', ( #90 ) ) ;
#199 = CARTESIAN_POINT ( 'NONE',  ( 47.99999999999998579, 0.0000000000000000000, -5.700000000000009059 ) ) ;
#200 = FILL_AREA_STYLE ('',( #111 ) ) ;
#201 = DIRECTION ( 'NONE',  ( 1.000000000000000000, 0.0000000000000000000, 0.0000000000000000000 ) ) ;
#202 = FILL_AREA_STYLE ('',( #151 ) ) ;
#203 =( GEOMETRIC_REPRESENTATION_CONTEXT ( 3 ) GLOBAL_UNCERTAINTY_ASSIGNED_CONTEXT ( ( #119 ) ) GLOBAL_UNIT_ASSIGNED_CONTEXT ( ( #162, #115, #24 ) ) REPRESENTATION_CONTEXT ( 'NONE', 'WORKASPACE' ) );
#204 = FACE_OUTER_BOUND ( 'NONE', #14, .T. ) ;
#205 = PRESENTATION_STYLE_ASSIGNMENT (( #160 ) ) ;
#206 = EDGE_LOOP ( 'NONE', ( #72 ) ) ;
#207 = FILL_AREA_STYLE ('',( #19 ) ) ;
#208 = COLOUR_RGB ( '',1.000000000000000000, 1.000000000000000000, 0.0000000000000000000 ) ;
#209 = FACE_OUTER_BOUND ( 'NONE', #206, .T. ) ;
#210 = PRODUCT_DEFINITION_CONTEXT ( 'detailed design', #118, 'design' ) ;
#211 = ORIENTED_EDGE ( 'NONE', *, *, #101, .F. ) ;
#212 = DIRECTION ( 'NONE',  ( 1.000000000000000000, 0.0000000000000000000, 0.0000000000000000000 ) ) ;
#213 = EDGE_CURVE ( 'NONE', #96, #96, #134, .T. ) ;
ENDSEC;
END-ISO-10303-21;
