ISO-10303-21;
HEADER;
FILE_DESCRIPTION (( 'STEP AP214' ),
    '1' );
FILE_NAME ('03-1721.STEP',
    '2021-10-01T05:50:00',
    ( 'USER' ),
    ( '' ),
    'SwSTEP 2.0',
    'SolidWorks 2018',
    '' );
FILE_SCHEMA (( 'AUTOMOTIVE_DESIGN' ));
ENDSEC;

DATA;
#1 = FILL_AREA_STYLE_COLOUR ( '', #44 ) ;
#2 = EDGE_LOOP ( 'NONE', ( #34 ) ) ;
#3 = ORIENTED_EDGE ( 'NONE', *, *, #21, .F. ) ;
#4 = FACE_OUTER_BOUND ( 'NONE', #134, .T. ) ;
#5 = ORIENTED_EDGE ( 'NONE', *, *, #167, .T. ) ;
#6 = PRESENTATION_LAYER_ASSIGNMENT (  '', '', ( #114 ) ) ;
#7 =( NAMED_UNIT ( * ) SI_UNIT ( $, .STERADIAN. ) SOLID_ANGLE_UNIT ( ) );
#8 = EDGE_LOOP ( 'NONE', ( #213 ) ) ;
#9 = EDGE_LOOP ( 'NONE', ( #5 ) ) ;
#10 = MANIFOLD_SOLID_BREP ( 'ºÐÇÒ2[1]', #68 ) ;
#11 = CARTESIAN_POINT ( 'NONE',  ( 0.0000000000000000000, 0.0000000000000000000, 0.0000000000000000000 ) ) ;
#12 = AXIS2_PLACEMENT_3D ( 'NONE', #83, #59, #140 ) ;
#13 = DIRECTION ( 'NONE',  ( 0.0000000000000000000, 0.0000000000000000000, 1.000000000000000000 ) ) ;
#14 = CYLINDRICAL_SURFACE ( 'NONE', #209, 5.750000000000008882 ) ;
#15 = AXIS2_PLACEMENT_3D ( 'NONE', #152, #124, #121 ) ;
#16 = CARTESIAN_POINT ( 'NONE',  ( -858.0000000000000000, 0.0000000000000000000, 0.0000000000000000000 ) ) ;
#17 = SHAPE_DEFINITION_REPRESENTATION ( #174, #210 ) ;
#18 = ADVANCED_FACE ( 'NONE', ( #136 ), #37, .T. ) ;
#19 = FILL_AREA_STYLE ('',( #158 ) ) ;
#20 = SURFACE_STYLE_FILL_AREA ( #113 ) ;
#21 = EDGE_CURVE ( 'NONE', #76, #76, #166, .T. ) ;
#22 = DIRECTION ( 'NONE',  ( -1.000000000000000000, -0.0000000000000000000, -0.0000000000000000000 ) ) ;
#23 = DIRECTION ( 'NONE',  ( 1.000000000000000000, 0.0000000000000000000, 0.0000000000000000000 ) ) ;
#24 = MECHANICAL_DESIGN_GEOMETRIC_PRESENTATION_REPRESENTATION (  '', ( #203 ), #53 ) ;
#25 =( NAMED_UNIT ( * ) PLANE_ANGLE_UNIT ( ) SI_UNIT ( $, .RADIAN. ) );
#26 = CARTESIAN_POINT ( 'NONE',  ( 47.99999999999998579, 0.0000000000000000000, 0.0000000000000000000 ) ) ;
#27 = DIRECTION ( 'NONE',  ( 0.0000000000000000000, 0.0000000000000000000, -1.000000000000000000 ) ) ;
#28 = STYLED_ITEM ( 'NONE', ( #181 ), #139 ) ;
#29 = FACE_BOUND ( 'NONE', #199, .T. ) ;
#30 =( NAMED_UNIT ( * ) PLANE_ANGLE_UNIT ( ) SI_UNIT ( $, .RADIAN. ) );
#31 = EDGE_LOOP ( 'NONE', ( #125 ) ) ;
#32 = STYLED_ITEM ( 'NONE', ( #105 ), #10 ) ;
#33 = PRODUCT_RELATED_PRODUCT_CATEGORY ( 'part', '', ( #173 ) ) ;
#34 = ORIENTED_EDGE ( 'NONE', *, *, #163, .F. ) ;
#35 =( NAMED_UNIT ( * ) SI_UNIT ( $, .STERADIAN. ) SOLID_ANGLE_UNIT ( ) );
#36 = SURFACE_STYLE_USAGE ( .BOTH. , #211 ) ;
#37 = PLANE ( 'NONE',  #74 ) ;
#38 = ADVANCED_FACE ( 'NONE', ( #157 ), #205, .T. ) ;
#39 = APPLICATION_PROTOCOL_DEFINITION ( 'draft international standard', 'automotive_design', 1998, #202 ) ;
#40 =( LENGTH_UNIT ( ) NAMED_UNIT ( * ) SI_UNIT ( .MILLI., .METRE. ) );
#41 = FILL_AREA_STYLE ('',( #88 ) ) ;
#42 = DIRECTION ( 'NONE',  ( 0.0000000000000000000, 0.0000000000000000000, -1.000000000000000000 ) ) ;
#43 = SURFACE_SIDE_STYLE ('',( #162 ) ) ;
#44 = COLOUR_RGB ( '',1.000000000000000000, 1.000000000000000000, 0.0000000000000000000 ) ;
#45 = PRESENTATION_LAYER_ASSIGNMENT (  '', '', ( #32 ) ) ;
#46 = AXIS2_PLACEMENT_3D ( 'NONE', #11, #72, #145 ) ;
#47 = MECHANICAL_DESIGN_GEOMETRIC_PRESENTATION_REPRESENTATION (  '', ( #135 ), #101 ) ;
#48 = FACE_OUTER_BOUND ( 'NONE', #9, .T. ) ;
#49 = VERTEX_POINT ( 'NONE', #176 ) ;
#50 = PRESENTATION_STYLE_ASSIGNMENT (( #36 ) ) ;
#51 = CARTESIAN_POINT ( 'NONE',  ( 0.0000000000000000000, 0.0000000000000000000, 0.0000000000000000000 ) ) ;
#52 =( NAMED_UNIT ( * ) PLANE_ANGLE_UNIT ( ) SI_UNIT ( $, .RADIAN. ) );
#53 =( GEOMETRIC_REPRESENTATION_CONTEXT ( 3 ) GLOBAL_UNCERTAINTY_ASSIGNED_CONTEXT ( ( #185 ) ) GLOBAL_UNIT_ASSIGNED_CONTEXT ( ( #91, #153, #183 ) ) REPRESENTATION_CONTEXT ( 'NONE', 'WORKASPACE' ) );
#54 =( NAMED_UNIT ( * ) SI_UNIT ( $, .STERADIAN. ) SOLID_ANGLE_UNIT ( ) );
#55 = SURFACE_STYLE_USAGE ( .BOTH. , #43 ) ;
#56 = AXIS2_PLACEMENT_3D ( 'NONE', #89, #71, #69 ) ;
#57 = CARTESIAN_POINT ( 'NONE',  ( -3.520859547548640440E-16, 5.749999999999999112, 0.0000000000000000000 ) ) ;
#58 = CARTESIAN_POINT ( 'NONE',  ( 139.6182720163546662, 0.0000000000000000000, 5.750000000000016875 ) ) ;
#59 = DIRECTION ( 'NONE',  ( 1.000000000000000000, 0.0000000000000000000, 0.0000000000000000000 ) ) ;
#60 = VERTEX_POINT ( 'NONE', #149 ) ;
#61 = DIRECTION ( 'NONE',  ( 0.0000000000000000000, 0.0000000000000000000, 1.000000000000000000 ) ) ;
#62 =( LENGTH_UNIT ( ) NAMED_UNIT ( * ) SI_UNIT ( .MILLI., .METRE. ) );
#63 =( NAMED_UNIT ( * ) SI_UNIT ( $, .STERADIAN. ) SOLID_ANGLE_UNIT ( ) );
#64 =( GEOMETRIC_REPRESENTATION_CONTEXT ( 3 ) GLOBAL_UNCERTAINTY_ASSIGNED_CONTEXT ( ( #84 ) ) GLOBAL_UNIT_ASSIGNED_CONTEXT ( ( #187, #30, #141 ) ) REPRESENTATION_CONTEXT ( 'NONE', 'WORKASPACE' ) );
#65 = FILL_AREA_STYLE_COLOUR ( '', #175 ) ;
#66 = EDGE_LOOP ( 'NONE', ( #160 ) ) ;
#67 =( NAMED_UNIT ( * ) PLANE_ANGLE_UNIT ( ) SI_UNIT ( $, .RADIAN. ) );
#68 = CLOSED_SHELL ( 'NONE', ( #129, #172, #208, #18 ) ) ;
#69 = DIRECTION ( 'NONE',  ( 0.0000000000000000000, 0.0000000000000000000, 1.000000000000000000 ) ) ;
#70 = CARTESIAN_POINT ( 'NONE',  ( -3.520859547548640440E-16, 0.0000000000000000000, 0.0000000000000000000 ) ) ;
#71 = DIRECTION ( 'NONE',  ( -1.000000000000000000, -0.0000000000000000000, -0.0000000000000000000 ) ) ;
#72 = DIRECTION ( 'NONE',  ( 0.0000000000000000000, 0.0000000000000000000, 1.000000000000000000 ) ) ;
#73 = CARTESIAN_POINT ( 'NONE',  ( 1.150000000000038547, 0.0000000000000000000, 0.0000000000000000000 ) ) ;
#74 = AXIS2_PLACEMENT_3D ( 'NONE', #26, #191, #196 ) ;
#75 = DIRECTION ( 'NONE',  ( -1.000000000000000000, -0.0000000000000000000, -0.0000000000000000000 ) ) ;
#76 = VERTEX_POINT ( 'NONE', #126 ) ;
#77 = SURFACE_SIDE_STYLE ('',( #98 ) ) ;
#78 = CYLINDRICAL_SURFACE ( 'NONE', #56, 5.750000000000008882 ) ;
#79 = VERTEX_POINT ( 'NONE', #58 ) ;
#80 = AXIS2_PLACEMENT_3D ( 'NONE', #57, #119, #117 ) ;
#81 = PRODUCT_DEFINITION ( 'UNKNOWN', '', #130, #96 ) ;
#82 = CARTESIAN_POINT ( 'NONE',  ( 47.99999999999998579, 0.0000000000000000000, 0.0000000000000000000 ) ) ;
#83 = CARTESIAN_POINT ( 'NONE',  ( 47.99999999999998579, 0.0000000000000000000, 0.0000000000000000000 ) ) ;
#84 = UNCERTAINTY_MEASURE_WITH_UNIT (LENGTH_MEASURE( 1.000000000000000082E-05 ), #187, 'distance_accuracy_value', 'NONE');
#85 = DIRECTION ( 'NONE',  ( 0.0000000000000000000, 0.0000000000000000000, -1.000000000000000000 ) ) ;
#86 = DIRECTION ( 'NONE',  ( 1.000000000000000000, 0.0000000000000000000, 0.0000000000000000000 ) ) ;
#87 = VERTEX_POINT ( 'NONE', #165 ) ;
#88 = FILL_AREA_STYLE_COLOUR ( '', #184 ) ;
#89 = CARTESIAN_POINT ( 'NONE',  ( 0.0000000000000000000, 0.0000000000000000000, 0.0000000000000000000 ) ) ;
#90 = SURFACE_SIDE_STYLE ('',( #120 ) ) ;
#91 =( LENGTH_UNIT ( ) NAMED_UNIT ( * ) SI_UNIT ( .MILLI., .METRE. ) );
#92 = FILL_AREA_STYLE ('',( #65 ) ) ;
#93 = CIRCLE ( 'NONE', #15, 5.750000000000016875 ) ;
#94 = CARTESIAN_POINT ( 'NONE',  ( 47.99999999999998579, 0.0000000000000000000, 0.0000000000000000000 ) ) ;
#95 =( LENGTH_UNIT ( ) NAMED_UNIT ( * ) SI_UNIT ( .MILLI., .METRE. ) );
#96 = PRODUCT_DEFINITION_CONTEXT ( 'detailed design', #159, 'design' ) ;
#97 = SURFACE_STYLE_USAGE ( .BOTH. , #112 ) ;
#98 = SURFACE_STYLE_FILL_AREA ( #19 ) ;
#99 = CLOSED_SHELL ( 'NONE', ( #111, #164, #38 ) ) ;
#100 = DIRECTION ( 'NONE',  ( 1.000000000000000000, 0.0000000000000000000, 0.0000000000000000000 ) ) ;
#101 =( GEOMETRIC_REPRESENTATION_CONTEXT ( 3 ) GLOBAL_UNCERTAINTY_ASSIGNED_CONTEXT ( ( #109 ) ) GLOBAL_UNIT_ASSIGNED_CONTEXT ( ( #40, #25, #7 ) ) REPRESENTATION_CONTEXT ( 'NONE', 'WORKASPACE' ) );
#102 = FACE_OUTER_BOUND ( 'NONE', #8, .T. ) ;
#103 = PRESENTATION_LAYER_ASSIGNMENT (  '', '', ( #28 ) ) ;
#104 = UNCERTAINTY_MEASURE_WITH_UNIT (LENGTH_MEASURE( 1.000000000000000082E-05 ), #204, 'distance_accuracy_value', 'NONE');
#105 = PRESENTATION_STYLE_ASSIGNMENT (( #193 ) ) ;
#106 = ORIENTED_EDGE ( 'NONE', *, *, #163, .T. ) ;
#107 = AXIS2_PLACEMENT_3D ( 'NONE', #70, #142, #27 ) ;
#108 = PRODUCT_CONTEXT ( 'NONE', #202, 'mechanical' ) ;
#109 = UNCERTAINTY_MEASURE_WITH_UNIT (LENGTH_MEASURE( 1.000000000000000082E-05 ), #40, 'distance_accuracy_value', 'NONE');
#110 = DIRECTION ( 'NONE',  ( 0.0000000000000000000, 0.0000000000000000000, -1.000000000000000000 ) ) ;
#111 = ADVANCED_FACE ( 'NONE', ( #4 ), #169, .F. ) ;
#112 = SURFACE_SIDE_STYLE ('',( #20 ) ) ;
#113 = FILL_AREA_STYLE ('',( #156 ) ) ;
#114 = STYLED_ITEM ( 'NONE', ( #201 ), #164 ) ;
#115 = COLOUR_RGB ( '',0.7921568627450980005, 0.8196078431372548767, 0.9333333333333333481 ) ;
#116 = EDGE_LOOP ( 'NONE', ( #189 ) ) ;
#117 = DIRECTION ( 'NONE',  ( 0.0000000000000000000, 0.0000000000000000000, -1.000000000000000000 ) ) ;
#118 = FACE_OUTER_BOUND ( 'NONE', #31, .T. ) ;
#119 = DIRECTION ( 'NONE',  ( 1.000000000000000000, 0.0000000000000000000, 0.0000000000000000000 ) ) ;
#120 = SURFACE_STYLE_FILL_AREA ( #92 ) ;
#121 = DIRECTION ( 'NONE',  ( 0.0000000000000000000, 0.0000000000000000000, 1.000000000000000000 ) ) ;
#122 = AXIS2_PLACEMENT_3D ( 'NONE', #82, #23, #42 ) ;
#123 = FACE_OUTER_BOUND ( 'NONE', #143, .T. ) ;
#124 = DIRECTION ( 'NONE',  ( -1.000000000000000000, -0.0000000000000000000, -0.0000000000000000000 ) ) ;
#125 = ORIENTED_EDGE ( 'NONE', *, *, #21, .T. ) ;
#126 = CARTESIAN_POINT ( 'NONE',  ( 47.99999999999998579, 0.0000000000000000000, -5.750000000000008882 ) ) ;
#127 = PRESENTATION_STYLE_ASSIGNMENT (( #170 ) ) ;
#128 = PLANE ( 'NONE',  #80 ) ;
#129 = ADVANCED_FACE ( 'NONE', ( #192, #123 ), #78, .T. ) ;
#130 = PRODUCT_DEFINITION_FORMATION_WITH_SPECIFIED_SOURCE ( 'ANY', '', #173, .NOT_KNOWN. ) ;
#131 = ORIENTED_EDGE ( 'NONE', *, *, #147, .F. ) ;
#132 =( NAMED_UNIT ( * ) PLANE_ANGLE_UNIT ( ) SI_UNIT ( $, .RADIAN. ) );
#133 = ORIENTED_EDGE ( 'NONE', *, *, #154, .F. ) ;
#134 = EDGE_LOOP ( 'NONE', ( #3 ) ) ;
#135 = STYLED_ITEM ( 'NONE', ( #50 ), #38 ) ;
#136 = FACE_OUTER_BOUND ( 'NONE', #116, .T. ) ;
#137 = APPLICATION_PROTOCOL_DEFINITION ( 'draft international standard', 'automotive_design', 1998, #159 ) ;
#138 = CONICAL_SURFACE ( 'NONE', #200, 4.599999999999979217, 0.7853981633974441712 ) ;
#139 = MANIFOLD_SOLID_BREP ( 'ºÐÇÒ2[2]', #99 ) ;
#140 = DIRECTION ( 'NONE',  ( 0.0000000000000000000, 0.0000000000000000000, -1.000000000000000000 ) ) ;
#141 =( NAMED_UNIT ( * ) SI_UNIT ( $, .STERADIAN. ) SOLID_ANGLE_UNIT ( ) );
#142 = DIRECTION ( 'NONE',  ( -1.000000000000000000, -0.0000000000000000000, -0.0000000000000000000 ) ) ;
#143 = EDGE_LOOP ( 'NONE', ( #133 ) ) ;
#144 = FILL_AREA_STYLE ('',( #1 ) ) ;
#145 = DIRECTION ( 'NONE',  ( 1.000000000000000000, 0.0000000000000000000, 0.0000000000000000000 ) ) ;
#146 = CIRCLE ( 'NONE', #182, 5.750000000000008882 ) ;
#147 = EDGE_CURVE ( 'NONE', #60, #60, #148, .T. ) ;
#148 = CIRCLE ( 'NONE', #107, 4.599999999999979217 ) ;
#149 = CARTESIAN_POINT ( 'NONE',  ( -3.520859547548640440E-16, 0.0000000000000000000, -4.599999999999979217 ) ) ;
#150 = PRESENTATION_LAYER_ASSIGNMENT (  '', '', ( #135 ) ) ;
#151 = FACE_OUTER_BOUND ( 'NONE', #2, .T. ) ;
#152 = CARTESIAN_POINT ( 'NONE',  ( 139.6182720163546662, 0.0000000000000000000, 0.0000000000000000000 ) ) ;
#153 =( NAMED_UNIT ( * ) PLANE_ANGLE_UNIT ( ) SI_UNIT ( $, .RADIAN. ) );
#154 = EDGE_CURVE ( 'NONE', #49, #49, #146, .T. ) ;
#155 = CARTESIAN_POINT ( 'NONE',  ( -3.520859547548640440E-16, 0.0000000000000000000, 0.0000000000000000000 ) ) ;
#156 = FILL_AREA_STYLE_COLOUR ( '', #188 ) ;
#157 = FACE_OUTER_BOUND ( 'NONE', #66, .T. ) ;
#158 = FILL_AREA_STYLE_COLOUR ( '', #115 ) ;
#159 = APPLICATION_CONTEXT ( 'automotive_design' ) ;
#160 = ORIENTED_EDGE ( 'NONE', *, *, #167, .F. ) ;
#161 =( GEOMETRIC_REPRESENTATION_CONTEXT ( 3 ) GLOBAL_UNCERTAINTY_ASSIGNED_CONTEXT ( ( #104 ) ) GLOBAL_UNIT_ASSIGNED_CONTEXT ( ( #204, #132, #35 ) ) REPRESENTATION_CONTEXT ( 'NONE', 'WORKASPACE' ) );
#162 = SURFACE_STYLE_FILL_AREA ( #41 ) ;
#163 = EDGE_CURVE ( 'NONE', #87, #87, #212, .T. ) ;
#164 = ADVANCED_FACE ( 'NONE', ( #118, #48 ), #14, .T. ) ;
#165 = CARTESIAN_POINT ( 'NONE',  ( 1.150000000000038547, 0.0000000000000000000, -5.750000000000008882 ) ) ;
#166 = CIRCLE ( 'NONE', #12, 5.750000000000008882 ) ;
#167 = EDGE_CURVE ( 'NONE', #79, #79, #93, .T. ) ;
#168 =( GEOMETRIC_REPRESENTATION_CONTEXT ( 3 ) GLOBAL_UNCERTAINTY_ASSIGNED_CONTEXT ( ( #197 ) ) GLOBAL_UNIT_ASSIGNED_CONTEXT ( ( #62, #52, #54 ) ) REPRESENTATION_CONTEXT ( 'NONE', 'WORKASPACE' ) );
#169 = PLANE ( 'NONE',  #122 ) ;
#170 = SURFACE_STYLE_USAGE ( .BOTH. , #90 ) ;
#171 = AXIS2_PLACEMENT_3D ( 'NONE', #73, #100, #110 ) ;
#172 = ADVANCED_FACE ( 'NONE', ( #102 ), #128, .F. ) ;
#173 = PRODUCT ( '03-1721', '03-1721', '', ( #108 ) ) ;
#174 = PRODUCT_DEFINITION_SHAPE ( 'NONE', 'NONE',  #81 ) ;
#175 = COLOUR_RGB ( '',0.7921568627450980005, 0.8196078431372548767, 0.9333333333333333481 ) ;
#176 = CARTESIAN_POINT ( 'NONE',  ( 47.99999999999998579, 0.0000000000000000000, -5.750000000000008882 ) ) ;
#177 = EDGE_LOOP ( 'NONE', ( #106 ) ) ;
#178 = MECHANICAL_DESIGN_GEOMETRIC_PRESENTATION_REPRESENTATION (  '', ( #114 ), #186 ) ;
#179 = DIRECTION ( 'NONE',  ( 1.000000000000000000, 0.0000000000000000000, 0.0000000000000000000 ) ) ;
#180 = UNCERTAINTY_MEASURE_WITH_UNIT (LENGTH_MEASURE( 1.000000000000000082E-05 ), #95, 'distance_accuracy_value', 'NONE');
#181 = PRESENTATION_STYLE_ASSIGNMENT (( #55 ) ) ;
#182 = AXIS2_PLACEMENT_3D ( 'NONE', #94, #86, #85 ) ;
#183 =( NAMED_UNIT ( * ) SI_UNIT ( $, .STERADIAN. ) SOLID_ANGLE_UNIT ( ) );
#184 = COLOUR_RGB ( '',0.7921568627450980005, 0.8196078431372548767, 0.9333333333333333481 ) ;
#185 = UNCERTAINTY_MEASURE_WITH_UNIT (LENGTH_MEASURE( 1.000000000000000082E-05 ), #91, 'distance_accuracy_value', 'NONE');
#186 =( GEOMETRIC_REPRESENTATION_CONTEXT ( 3 ) GLOBAL_UNCERTAINTY_ASSIGNED_CONTEXT ( ( #180 ) ) GLOBAL_UNIT_ASSIGNED_CONTEXT ( ( #95, #67, #63 ) ) REPRESENTATION_CONTEXT ( 'NONE', 'WORKASPACE' ) );
#187 =( LENGTH_UNIT ( ) NAMED_UNIT ( * ) SI_UNIT ( .MILLI., .METRE. ) );
#188 = COLOUR_RGB ( '',1.000000000000000000, 1.000000000000000000, 0.0000000000000000000 ) ;
#189 = ORIENTED_EDGE ( 'NONE', *, *, #154, .T. ) ;
#190 = MECHANICAL_DESIGN_GEOMETRIC_PRESENTATION_REPRESENTATION (  '', ( #32 ), #161 ) ;
#191 = DIRECTION ( 'NONE',  ( 1.000000000000000000, 0.0000000000000000000, 0.0000000000000000000 ) ) ;
#192 = FACE_OUTER_BOUND ( 'NONE', #177, .T. ) ;
#193 = SURFACE_STYLE_USAGE ( .BOTH. , #77 ) ;
#194 = SURFACE_STYLE_FILL_AREA ( #144 ) ;
#195 = PRESENTATION_LAYER_ASSIGNMENT (  '', '', ( #203 ) ) ;
#196 = DIRECTION ( 'NONE',  ( 0.0000000000000000000, 0.0000000000000000000, -1.000000000000000000 ) ) ;
#197 = UNCERTAINTY_MEASURE_WITH_UNIT (LENGTH_MEASURE( 1.000000000000000082E-05 ), #62, 'distance_accuracy_value', 'NONE');
#198 = MECHANICAL_DESIGN_GEOMETRIC_PRESENTATION_REPRESENTATION (  '', ( #28 ), #168 ) ;
#199 = EDGE_LOOP ( 'NONE', ( #131 ) ) ;
#200 = AXIS2_PLACEMENT_3D ( 'NONE', #155, #179, #207 ) ;
#201 = PRESENTATION_STYLE_ASSIGNMENT (( #97 ) ) ;
#202 = APPLICATION_CONTEXT ( 'automotive_design' ) ;
#203 = STYLED_ITEM ( 'NONE', ( #127 ), #210 ) ;
#204 =( LENGTH_UNIT ( ) NAMED_UNIT ( * ) SI_UNIT ( .MILLI., .METRE. ) );
#205 = CONICAL_SURFACE ( 'NONE', #206, 2414.213562373065542, 1.178097245096168200 ) ;
#206 = AXIS2_PLACEMENT_3D ( 'NONE', #16, #22, #13 ) ;
#207 = DIRECTION ( 'NONE',  ( 0.0000000000000000000, 0.0000000000000000000, -1.000000000000000000 ) ) ;
#208 = ADVANCED_FACE ( 'NONE', ( #151, #29 ), #138, .T. ) ;
#209 = AXIS2_PLACEMENT_3D ( 'NONE', #51, #75, #61 ) ;
#210 = ADVANCED_BREP_SHAPE_REPRESENTATION ( '03-1721', ( #10, #139, #46 ), #64 ) ;
#211 = SURFACE_SIDE_STYLE ('',( #194 ) ) ;
#212 = CIRCLE ( 'NONE', #171, 5.750000000000008882 ) ;
#213 = ORIENTED_EDGE ( 'NONE', *, *, #147, .T. ) ;
ENDSEC;
END-ISO-10303-21;
