ISO-10303-21;
HEADER;
FILE_DESCRIPTION (( 'STEP AP214' ),
    '1' );
FILE_NAME ('03-1722.STEP',
    '2021-10-01T05:50:19',
    ( 'USER' ),
    ( '' ),
    'SwSTEP 2.0',
    'SolidWorks 2018',
    '' );
FILE_SCHEMA (( 'AUTOMOTIVE_DESIGN' ));
ENDSEC;

DATA;
#1 = ADVANCED_FACE ( 'NONE', ( #10 ), #35, .F. ) ;
#2 = CARTESIAN_POINT ( 'NONE',  ( -3.551475717527324818E-16, 0.0000000000000000000, 0.0000000000000000000 ) ) ;
#3 = ORIENTED_EDGE ( 'NONE', *, *, #34, .F. ) ;
#4 = MECHANICAL_DESIGN_GEOMETRIC_PRESENTATION_REPRESENTATION (  '', ( #201 ), #36 ) ;
#5 = VERTEX_POINT ( 'NONE', #140 ) ;
#6 = CIRCLE ( 'NONE', #61, 5.800000000000008704 ) ;
#7 = AXIS2_PLACEMENT_3D ( 'NONE', #163, #22, #158 ) ;
#8 = SHAPE_DEFINITION_REPRESENTATION ( #174, #154 ) ;
#9 = UNCERTAINTY_MEASURE_WITH_UNIT (LENGTH_MEASURE( 1.000000000000000082E-05 ), #184, 'distance_accuracy_value', 'NONE');
#10 = FACE_OUTER_BOUND ( 'NONE', #183, .T. ) ;
#11 = VERTEX_POINT ( 'NONE', #47 ) ;
#12 = MECHANICAL_DESIGN_GEOMETRIC_PRESENTATION_REPRESENTATION (  '', ( #46 ), #213 ) ;
#13 = SURFACE_SIDE_STYLE ('',( #153 ) ) ;
#14 = COLOUR_RGB ( '',0.7921568627450980005, 0.8196078431372548767, 0.9333333333333333481 ) ;
#15 = PRODUCT ( '03-1722', '03-1722', '', ( #119 ) ) ;
#16 = FACE_OUTER_BOUND ( 'NONE', #31, .T. ) ;
#17 = EDGE_LOOP ( 'NONE', ( #134 ) ) ;
#18 = DIRECTION ( 'NONE',  ( 0.0000000000000000000, 0.0000000000000000000, 1.000000000000000000 ) ) ;
#19 = FILL_AREA_STYLE_COLOUR ( '', #14 ) ;
#20 =( GEOMETRIC_REPRESENTATION_CONTEXT ( 3 ) GLOBAL_UNCERTAINTY_ASSIGNED_CONTEXT ( ( #90 ) ) GLOBAL_UNIT_ASSIGNED_CONTEXT ( ( #171, #104, #181 ) ) REPRESENTATION_CONTEXT ( 'NONE', 'WORKASPACE' ) );
#21 =( NAMED_UNIT ( * ) PLANE_ANGLE_UNIT ( ) SI_UNIT ( $, .RADIAN. ) );
#22 = DIRECTION ( 'NONE',  ( 1.000000000000000000, 0.0000000000000000000, 0.0000000000000000000 ) ) ;
#23 = MECHANICAL_DESIGN_GEOMETRIC_PRESENTATION_REPRESENTATION (  '', ( #155 ), #92 ) ;
#24 = FILL_AREA_STYLE_COLOUR ( '', #76 ) ;
#25 = CARTESIAN_POINT ( 'NONE',  ( 139.5975613382360052, 0.0000000000000000000, 0.0000000000000000000 ) ) ;
#26 = VERTEX_POINT ( 'NONE', #89 ) ;
#27 = EDGE_LOOP ( 'NONE', ( #146 ) ) ;
#28 = DIRECTION ( 'NONE',  ( -1.000000000000000000, -0.0000000000000000000, -0.0000000000000000000 ) ) ;
#29 = PRESENTATION_LAYER_ASSIGNMENT (  '', '', ( #46 ) ) ;
#30 = DIRECTION ( 'NONE',  ( 1.000000000000000000, 0.0000000000000000000, 0.0000000000000000000 ) ) ;
#31 = EDGE_LOOP ( 'NONE', ( #68 ) ) ;
#32 = COLOUR_RGB ( '',1.000000000000000000, 1.000000000000000000, 0.0000000000000000000 ) ;
#33 = CIRCLE ( 'NONE', #69, 5.800000000000008704 ) ;
#34 = EDGE_CURVE ( 'NONE', #5, #5, #6, .T. ) ;
#35 = PLANE ( 'NONE',  #207 ) ;
#36 =( GEOMETRIC_REPRESENTATION_CONTEXT ( 3 ) GLOBAL_UNCERTAINTY_ASSIGNED_CONTEXT ( ( #80 ) ) GLOBAL_UNIT_ASSIGNED_CONTEXT ( ( #190, #41, #102 ) ) REPRESENTATION_CONTEXT ( 'NONE', 'WORKASPACE' ) );
#37 = DIRECTION ( 'NONE',  ( 0.0000000000000000000, 0.0000000000000000000, -1.000000000000000000 ) ) ;
#38 = VERTEX_POINT ( 'NONE', #60 ) ;
#39 = APPLICATION_PROTOCOL_DEFINITION ( 'draft international standard', 'automotive_design', 1998, #170 ) ;
#40 = AXIS2_PLACEMENT_3D ( 'NONE', #182, #88, #78 ) ;
#41 =( NAMED_UNIT ( * ) PLANE_ANGLE_UNIT ( ) SI_UNIT ( $, .RADIAN. ) );
#42 = PRESENTATION_STYLE_ASSIGNMENT (( #75 ) ) ;
#43 = CLOSED_SHELL ( 'NONE', ( #1, #195, #136 ) ) ;
#44 = DIRECTION ( 'NONE',  ( 0.0000000000000000000, 0.0000000000000000000, -1.000000000000000000 ) ) ;
#45 =( NAMED_UNIT ( * ) SI_UNIT ( $, .STERADIAN. ) SOLID_ANGLE_UNIT ( ) );
#46 = STYLED_ITEM ( 'NONE', ( #98 ), #195 ) ;
#47 = CARTESIAN_POINT ( 'NONE',  ( 47.99999999999998579, 0.0000000000000000000, -5.800000000000008704 ) ) ;
#48 = SURFACE_STYLE_FILL_AREA ( #208 ) ;
#49 = DIRECTION ( 'NONE',  ( 1.000000000000000000, 0.0000000000000000000, 0.0000000000000000000 ) ) ;
#50 =( NAMED_UNIT ( * ) SI_UNIT ( $, .STERADIAN. ) SOLID_ANGLE_UNIT ( ) );
#51 = PRODUCT_RELATED_PRODUCT_CATEGORY ( 'part', '', ( #15 ) ) ;
#52 = DIRECTION ( 'NONE',  ( -1.000000000000000000, -0.0000000000000000000, -0.0000000000000000000 ) ) ;
#53 = CARTESIAN_POINT ( 'NONE',  ( -3.551475717527324818E-16, 0.0000000000000000000, 0.0000000000000000000 ) ) ;
#54 = ORIENTED_EDGE ( 'NONE', *, *, #148, .T. ) ;
#55 = DIRECTION ( 'NONE',  ( 1.000000000000000000, 0.0000000000000000000, 0.0000000000000000000 ) ) ;
#56 = MECHANICAL_DESIGN_GEOMETRIC_PRESENTATION_REPRESENTATION (  '', ( #144 ), #106 ) ;
#57 = ORIENTED_EDGE ( 'NONE', *, *, #148, .F. ) ;
#58 = MANIFOLD_SOLID_BREP ( 'ºÐÇÒ2[1]', #86 ) ;
#59 =( LENGTH_UNIT ( ) NAMED_UNIT ( * ) SI_UNIT ( .MILLI., .METRE. ) );
#60 = CARTESIAN_POINT ( 'NONE',  ( 139.5975613382360052, 0.0000000000000000000, 5.800000000000016698 ) ) ;
#61 = AXIS2_PLACEMENT_3D ( 'NONE', #101, #55, #44 ) ;
#62 = UNCERTAINTY_MEASURE_WITH_UNIT (LENGTH_MEASURE( 1.000000000000000082E-05 ), #65, 'distance_accuracy_value', 'NONE');
#63 = AXIS2_PLACEMENT_3D ( 'NONE', #83, #180, #115 ) ;
#64 = APPLICATION_CONTEXT ( 'automotive_design' ) ;
#65 =( LENGTH_UNIT ( ) NAMED_UNIT ( * ) SI_UNIT ( .MILLI., .METRE. ) );
#66 = AXIS2_PLACEMENT_3D ( 'NONE', #196, #117, #18 ) ;
#67 = FILL_AREA_STYLE ('',( #129 ) ) ;
#68 = ORIENTED_EDGE ( 'NONE', *, *, #169, .T. ) ;
#69 = AXIS2_PLACEMENT_3D ( 'NONE', #105, #187, #142 ) ;
#70 = DIRECTION ( 'NONE',  ( 1.000000000000000000, 0.0000000000000000000, 0.0000000000000000000 ) ) ;
#71 = SURFACE_SIDE_STYLE ('',( #179 ) ) ;
#72 = CARTESIAN_POINT ( 'NONE',  ( 0.0000000000000000000, 0.0000000000000000000, 0.0000000000000000000 ) ) ;
#73 =( GEOMETRIC_REPRESENTATION_CONTEXT ( 3 ) GLOBAL_UNCERTAINTY_ASSIGNED_CONTEXT ( ( #62 ) ) GLOBAL_UNIT_ASSIGNED_CONTEXT ( ( #65, #21, #130 ) ) REPRESENTATION_CONTEXT ( 'NONE', 'WORKASPACE' ) );
#74 = EDGE_LOOP ( 'NONE', ( #135 ) ) ;
#75 = SURFACE_STYLE_USAGE ( .BOTH. , #193 ) ;
#76 = COLOUR_RGB ( '',0.7921568627450980005, 0.8196078431372548767, 0.9333333333333333481 ) ;
#77 = CARTESIAN_POINT ( 'NONE',  ( 47.99999999999998579, 0.0000000000000000000, 0.0000000000000000000 ) ) ;
#78 = DIRECTION ( 'NONE',  ( 0.0000000000000000000, 0.0000000000000000000, 1.000000000000000000 ) ) ;
#79 = CYLINDRICAL_SURFACE ( 'NONE', #66, 5.800000000000008704 ) ;
#80 = UNCERTAINTY_MEASURE_WITH_UNIT (LENGTH_MEASURE( 1.000000000000000082E-05 ), #190, 'distance_accuracy_value', 'NONE');
#81 = MECHANICAL_DESIGN_GEOMETRIC_PRESENTATION_REPRESENTATION (  '', ( #108 ), #20 ) ;
#82 = CIRCLE ( 'NONE', #192, 5.800000000000008704 ) ;
#83 = CARTESIAN_POINT ( 'NONE',  ( 0.0000000000000000000, 0.0000000000000000000, 0.0000000000000000000 ) ) ;
#84 = FILL_AREA_STYLE ('',( #145 ) ) ;
#85 = CIRCLE ( 'NONE', #107, 4.640000000000018332 ) ;
#86 = CLOSED_SHELL ( 'NONE', ( #100, #125, #95, #150 ) ) ;
#87 = FACE_OUTER_BOUND ( 'NONE', #128, .T. ) ;
#88 = DIRECTION ( 'NONE',  ( -1.000000000000000000, -0.0000000000000000000, -0.0000000000000000000 ) ) ;
#89 = CARTESIAN_POINT ( 'NONE',  ( 1.159999999999999254, 0.0000000000000000000, -5.800000000000008704 ) ) ;
#90 = UNCERTAINTY_MEASURE_WITH_UNIT (LENGTH_MEASURE( 1.000000000000000082E-05 ), #171, 'distance_accuracy_value', 'NONE');
#91 = FILL_AREA_STYLE ('',( #133 ) ) ;
#92 =( GEOMETRIC_REPRESENTATION_CONTEXT ( 3 ) GLOBAL_UNCERTAINTY_ASSIGNED_CONTEXT ( ( #189 ) ) GLOBAL_UNIT_ASSIGNED_CONTEXT ( ( #59, #126, #45 ) ) REPRESENTATION_CONTEXT ( 'NONE', 'WORKASPACE' ) );
#93 = DIRECTION ( 'NONE',  ( 0.0000000000000000000, 0.0000000000000000000, -1.000000000000000000 ) ) ;
#94 = DIRECTION ( 'NONE',  ( 0.0000000000000000000, 0.0000000000000000000, -1.000000000000000000 ) ) ;
#95 = ADVANCED_FACE ( 'NONE', ( #198, #121 ), #147, .T. ) ;
#96 = SURFACE_SIDE_STYLE ('',( #156 ) ) ;
#97 =( NAMED_UNIT ( * ) PLANE_ANGLE_UNIT ( ) SI_UNIT ( $, .RADIAN. ) );
#98 = PRESENTATION_STYLE_ASSIGNMENT (( #167 ) ) ;
#99 = PRODUCT_DEFINITION_CONTEXT ( 'detailed design', #64, 'design' ) ;
#100 = ADVANCED_FACE ( 'NONE', ( #87, #204 ), #79, .T. ) ;
#101 = CARTESIAN_POINT ( 'NONE',  ( 47.99999999999998579, 0.0000000000000000000, 0.0000000000000000000 ) ) ;
#102 =( NAMED_UNIT ( * ) SI_UNIT ( $, .STERADIAN. ) SOLID_ANGLE_UNIT ( ) );
#103 = CARTESIAN_POINT ( 'NONE',  ( 47.99999999999998579, 0.0000000000000000000, 0.0000000000000000000 ) ) ;
#104 =( NAMED_UNIT ( * ) PLANE_ANGLE_UNIT ( ) SI_UNIT ( $, .RADIAN. ) );
#105 = CARTESIAN_POINT ( 'NONE',  ( 47.99999999999998579, 0.0000000000000000000, 0.0000000000000000000 ) ) ;
#106 =( GEOMETRIC_REPRESENTATION_CONTEXT ( 3 ) GLOBAL_UNCERTAINTY_ASSIGNED_CONTEXT ( ( #9 ) ) GLOBAL_UNIT_ASSIGNED_CONTEXT ( ( #184, #97, #50 ) ) REPRESENTATION_CONTEXT ( 'NONE', 'WORKASPACE' ) );
#107 = AXIS2_PLACEMENT_3D ( 'NONE', #2, #28, #93 ) ;
#108 = STYLED_ITEM ( 'NONE', ( #197 ), #173 ) ;
#109 =( NAMED_UNIT ( * ) PLANE_ANGLE_UNIT ( ) SI_UNIT ( $, .RADIAN. ) );
#110 = EDGE_LOOP ( 'NONE', ( #57 ) ) ;
#111 = EDGE_LOOP ( 'NONE', ( #149 ) ) ;
#112 = EDGE_LOOP ( 'NONE', ( #168 ) ) ;
#113 = PRESENTATION_LAYER_ASSIGNMENT (  '', '', ( #144 ) ) ;
#114 = ORIENTED_EDGE ( 'NONE', *, *, #161, .T. ) ;
#115 = DIRECTION ( 'NONE',  ( 1.000000000000000000, 0.0000000000000000000, 0.0000000000000000000 ) ) ;
#116 = PRODUCT_DEFINITION ( 'UNKNOWN', '', #123, #99 ) ;
#117 = DIRECTION ( 'NONE',  ( -1.000000000000000000, -0.0000000000000000000, -0.0000000000000000000 ) ) ;
#118 = PLANE ( 'NONE',  #178 ) ;
#119 = PRODUCT_CONTEXT ( 'NONE', #170, 'mechanical' ) ;
#120 = COLOUR_RGB ( '',1.000000000000000000, 1.000000000000000000, 0.0000000000000000000 ) ;
#121 = FACE_BOUND ( 'NONE', #27, .T. ) ;
#122 = SURFACE_SIDE_STYLE ('',( #48 ) ) ;
#123 = PRODUCT_DEFINITION_FORMATION_WITH_SPECIFIED_SOURCE ( 'ANY', '', #15, .NOT_KNOWN. ) ;
#124 = CYLINDRICAL_SURFACE ( 'NONE', #202, 5.800000000000008704 ) ;
#125 = ADVANCED_FACE ( 'NONE', ( #194 ), #141, .F. ) ;
#126 =( NAMED_UNIT ( * ) PLANE_ANGLE_UNIT ( ) SI_UNIT ( $, .RADIAN. ) );
#127 = FACE_OUTER_BOUND ( 'NONE', #17, .T. ) ;
#128 = EDGE_LOOP ( 'NONE', ( #54 ) ) ;
#129 = FILL_AREA_STYLE_COLOUR ( '', #32 ) ;
#130 =( NAMED_UNIT ( * ) SI_UNIT ( $, .STERADIAN. ) SOLID_ANGLE_UNIT ( ) );
#131 = AXIS2_PLACEMENT_3D ( 'NONE', #53, #151, #94 ) ;
#132 = DIRECTION ( 'NONE',  ( -1.000000000000000000, -0.0000000000000000000, -0.0000000000000000000 ) ) ;
#133 = FILL_AREA_STYLE_COLOUR ( '', #120 ) ;
#134 = ORIENTED_EDGE ( 'NONE', *, *, #169, .F. ) ;
#135 = ORIENTED_EDGE ( 'NONE', *, *, #139, .F. ) ;
#136 = ADVANCED_FACE ( 'NONE', ( #127 ), #152, .T. ) ;
#137 = FACE_OUTER_BOUND ( 'NONE', #111, .T. ) ;
#138 = EDGE_LOOP ( 'NONE', ( #114 ) ) ;
#139 = EDGE_CURVE ( 'NONE', #11, #11, #33, .T. ) ;
#140 = CARTESIAN_POINT ( 'NONE',  ( 47.99999999999998579, 0.0000000000000000000, -5.800000000000008704 ) ) ;
#141 = PLANE ( 'NONE',  #7 ) ;
#142 = DIRECTION ( 'NONE',  ( 0.0000000000000000000, 0.0000000000000000000, -1.000000000000000000 ) ) ;
#143 =( LENGTH_UNIT ( ) NAMED_UNIT ( * ) SI_UNIT ( .MILLI., .METRE. ) );
#144 = STYLED_ITEM ( 'NONE', ( #42 ), #136 ) ;
#145 = FILL_AREA_STYLE_COLOUR ( '', #164 ) ;
#146 = ORIENTED_EDGE ( 'NONE', *, *, #161, .F. ) ;
#147 = CONICAL_SURFACE ( 'NONE', #131, 4.640000000000018332, 0.7853981633974441712 ) ;
#148 = EDGE_CURVE ( 'NONE', #26, #26, #82, .T. ) ;
#149 = ORIENTED_EDGE ( 'NONE', *, *, #34, .T. ) ;
#150 = ADVANCED_FACE ( 'NONE', ( #162 ), #118, .T. ) ;
#151 = DIRECTION ( 'NONE',  ( 1.000000000000000000, 0.0000000000000000000, 0.0000000000000000000 ) ) ;
#152 = CONICAL_SURFACE ( 'NONE', #40, 2414.213562373069180, 1.178097245096168644 ) ;
#153 = SURFACE_STYLE_FILL_AREA ( #84 ) ;
#154 = ADVANCED_BREP_SHAPE_REPRESENTATION ( '03-1722', ( #58, #173, #63 ), #73 ) ;
#155 = STYLED_ITEM ( 'NONE', ( #186 ), #58 ) ;
#156 = SURFACE_STYLE_FILL_AREA ( #206 ) ;
#157 = DIRECTION ( 'NONE',  ( 0.0000000000000000000, 0.0000000000000000000, 1.000000000000000000 ) ) ;
#158 = DIRECTION ( 'NONE',  ( 0.0000000000000000000, 0.0000000000000000000, -1.000000000000000000 ) ) ;
#159 = AXIS2_PLACEMENT_3D ( 'NONE', #25, #132, #157 ) ;
#160 = CARTESIAN_POINT ( 'NONE',  ( 1.159999999999999254, 0.0000000000000000000, 0.0000000000000000000 ) ) ;
#161 = EDGE_CURVE ( 'NONE', #199, #199, #85, .T. ) ;
#162 = FACE_OUTER_BOUND ( 'NONE', #112, .T. ) ;
#163 = CARTESIAN_POINT ( 'NONE',  ( -3.551475717527324818E-16, 5.800000000000000711, 0.0000000000000000000 ) ) ;
#164 = COLOUR_RGB ( '',0.7921568627450980005, 0.8196078431372548767, 0.9333333333333333481 ) ;
#165 = PRESENTATION_STYLE_ASSIGNMENT (( #176 ) ) ;
#166 = SURFACE_STYLE_FILL_AREA ( #67 ) ;
#167 = SURFACE_STYLE_USAGE ( .BOTH. , #71 ) ;
#168 = ORIENTED_EDGE ( 'NONE', *, *, #139, .T. ) ;
#169 = EDGE_CURVE ( 'NONE', #38, #38, #177, .T. ) ;
#170 = APPLICATION_CONTEXT ( 'automotive_design' ) ;
#171 =( LENGTH_UNIT ( ) NAMED_UNIT ( * ) SI_UNIT ( .MILLI., .METRE. ) );
#172 = DIRECTION ( 'NONE',  ( 0.0000000000000000000, 0.0000000000000000000, -1.000000000000000000 ) ) ;
#173 = MANIFOLD_SOLID_BREP ( 'ºÐÇÒ2[2]', #43 ) ;
#174 = PRODUCT_DEFINITION_SHAPE ( 'NONE', 'NONE',  #116 ) ;
#175 = PRESENTATION_LAYER_ASSIGNMENT (  '', '', ( #155 ) ) ;
#176 = SURFACE_STYLE_USAGE ( .BOTH. , #122 ) ;
#177 = CIRCLE ( 'NONE', #159, 5.800000000000016698 ) ;
#178 = AXIS2_PLACEMENT_3D ( 'NONE', #103, #70, #188 ) ;
#179 = SURFACE_STYLE_FILL_AREA ( #91 ) ;
#180 = DIRECTION ( 'NONE',  ( 0.0000000000000000000, 0.0000000000000000000, 1.000000000000000000 ) ) ;
#181 =( NAMED_UNIT ( * ) SI_UNIT ( $, .STERADIAN. ) SOLID_ANGLE_UNIT ( ) );
#182 = CARTESIAN_POINT ( 'NONE',  ( -858.0000000000000000, 0.0000000000000000000, 0.0000000000000000000 ) ) ;
#183 = EDGE_LOOP ( 'NONE', ( #3 ) ) ;
#184 =( LENGTH_UNIT ( ) NAMED_UNIT ( * ) SI_UNIT ( .MILLI., .METRE. ) );
#185 = SURFACE_STYLE_USAGE ( .BOTH. , #96 ) ;
#186 = PRESENTATION_STYLE_ASSIGNMENT (( #205 ) ) ;
#187 = DIRECTION ( 'NONE',  ( 1.000000000000000000, 0.0000000000000000000, 0.0000000000000000000 ) ) ;
#188 = DIRECTION ( 'NONE',  ( 0.0000000000000000000, 0.0000000000000000000, -1.000000000000000000 ) ) ;
#189 = UNCERTAINTY_MEASURE_WITH_UNIT (LENGTH_MEASURE( 1.000000000000000082E-05 ), #59, 'distance_accuracy_value', 'NONE');
#190 =( LENGTH_UNIT ( ) NAMED_UNIT ( * ) SI_UNIT ( .MILLI., .METRE. ) );
#191 = PRESENTATION_LAYER_ASSIGNMENT (  '', '', ( #201 ) ) ;
#192 = AXIS2_PLACEMENT_3D ( 'NONE', #160, #49, #172 ) ;
#193 = SURFACE_SIDE_STYLE ('',( #166 ) ) ;
#194 = FACE_OUTER_BOUND ( 'NONE', #138, .T. ) ;
#195 = ADVANCED_FACE ( 'NONE', ( #137, #16 ), #124, .T. ) ;
#196 = CARTESIAN_POINT ( 'NONE',  ( 0.0000000000000000000, 0.0000000000000000000, 0.0000000000000000000 ) ) ;
#197 = PRESENTATION_STYLE_ASSIGNMENT (( #185 ) ) ;
#198 = FACE_OUTER_BOUND ( 'NONE', #110, .T. ) ;
#199 = VERTEX_POINT ( 'NONE', #211 ) ;
#200 = APPLICATION_PROTOCOL_DEFINITION ( 'draft international standard', 'automotive_design', 1998, #64 ) ;
#201 = STYLED_ITEM ( 'NONE', ( #165 ), #154 ) ;
#202 = AXIS2_PLACEMENT_3D ( 'NONE', #72, #52, #212 ) ;
#203 =( NAMED_UNIT ( * ) SI_UNIT ( $, .STERADIAN. ) SOLID_ANGLE_UNIT ( ) );
#204 = FACE_OUTER_BOUND ( 'NONE', #74, .T. ) ;
#205 = SURFACE_STYLE_USAGE ( .BOTH. , #13 ) ;
#206 = FILL_AREA_STYLE ('',( #24 ) ) ;
#207 = AXIS2_PLACEMENT_3D ( 'NONE', #77, #30, #37 ) ;
#208 = FILL_AREA_STYLE ('',( #19 ) ) ;
#209 = UNCERTAINTY_MEASURE_WITH_UNIT (LENGTH_MEASURE( 1.000000000000000082E-05 ), #143, 'distance_accuracy_value', 'NONE');
#210 = PRESENTATION_LAYER_ASSIGNMENT (  '', '', ( #108 ) ) ;
#211 = CARTESIAN_POINT ( 'NONE',  ( -3.551475717527324818E-16, 0.0000000000000000000, -4.640000000000018332 ) ) ;
#212 = DIRECTION ( 'NONE',  ( 0.0000000000000000000, 0.0000000000000000000, 1.000000000000000000 ) ) ;
#213 =( GEOMETRIC_REPRESENTATION_CONTEXT ( 3 ) GLOBAL_UNCERTAINTY_ASSIGNED_CONTEXT ( ( #209 ) ) GLOBAL_UNIT_ASSIGNED_CONTEXT ( ( #143, #109, #203 ) ) REPRESENTATION_CONTEXT ( 'NONE', 'WORKASPACE' ) );
ENDSEC;
END-ISO-10303-21;
