ISO-10303-21;
HEADER;
FILE_DESCRIPTION (( 'STEP AP214' ),
    '1' );
FILE_NAME ('03-1723.STEP',
    '2021-10-01T05:50:38',
    ( 'USER' ),
    ( '' ),
    'SwSTEP 2.0',
    'SolidWorks 2018',
    '' );
FILE_SCHEMA (( 'AUTOMOTIVE_DESIGN' ));
ENDSEC;

DATA;
#1 =( NAMED_UNIT ( * ) SI_UNIT ( $, .STERADIAN. ) SOLID_ANGLE_UNIT ( ) );
#2 = FACE_OUTER_BOUND ( 'NONE', #156, .T. ) ;
#3 = ORIENTED_EDGE ( 'NONE', *, *, #172, .T. ) ;
#4 = PRODUCT_RELATED_PRODUCT_CATEGORY ( 'part', '', ( #213 ) ) ;
#5 = CARTESIAN_POINT ( 'NONE',  ( 47.99999999999998579, 0.0000000000000000000, 0.0000000000000000000 ) ) ;
#6 = APPLICATION_PROTOCOL_DEFINITION ( 'draft international standard', 'automotive_design', 1998, #13 ) ;
#7 =( NAMED_UNIT ( * ) PLANE_ANGLE_UNIT ( ) SI_UNIT ( $, .RADIAN. ) );
#8 = SURFACE_STYLE_USAGE ( .BOTH. , #37 ) ;
#9 = PRESENTATION_LAYER_ASSIGNMENT (  '', '', ( #25 ) ) ;
#10 = ORIENTED_EDGE ( 'NONE', *, *, #64, .F. ) ;
#11 = DIRECTION ( 'NONE',  ( 0.0000000000000000000, 0.0000000000000000000, 1.000000000000000000 ) ) ;
#12 = CARTESIAN_POINT ( 'NONE',  ( -3.582091887506007718E-16, 0.0000000000000000000, -4.680000000000018368 ) ) ;
#13 = APPLICATION_CONTEXT ( 'automotive_design' ) ;
#14 = FILL_AREA_STYLE ('',( #197 ) ) ;
#15 = DIRECTION ( 'NONE',  ( 1.000000000000000000, 0.0000000000000000000, 0.0000000000000000000 ) ) ;
#16 = FILL_AREA_STYLE_COLOUR ( '', #20 ) ;
#17 = EDGE_LOOP ( 'NONE', ( #69 ) ) ;
#18 = VERTEX_POINT ( 'NONE', #23 ) ;
#19 = FILL_AREA_STYLE ('',( #16 ) ) ;
#20 = COLOUR_RGB ( '',0.7921568627450980005, 0.8196078431372548767, 0.9333333333333333481 ) ;
#21 = SURFACE_SIDE_STYLE ('',( #54 ) ) ;
#22 = SURFACE_STYLE_USAGE ( .BOTH. , #21 ) ;
#23 = CARTESIAN_POINT ( 'NONE',  ( 47.99999999999998579, 0.0000000000000000000, -5.850000000000007638 ) ) ;
#24 = FACE_OUTER_BOUND ( 'NONE', #86, .T. ) ;
#25 = STYLED_ITEM ( 'NONE', ( #49 ), #38 ) ;
#26 = VERTEX_POINT ( 'NONE', #12 ) ;
#27 = CARTESIAN_POINT ( 'NONE',  ( 1.170000000000013474, 0.0000000000000000000, -5.850000000000007638 ) ) ;
#28 = CLOSED_SHELL ( 'NONE', ( #212, #166, #102 ) ) ;
#29 = STYLED_ITEM ( 'NONE', ( #140 ), #166 ) ;
#30 =( LENGTH_UNIT ( ) NAMED_UNIT ( * ) SI_UNIT ( .MILLI., .METRE. ) );
#31 = DIRECTION ( 'NONE',  ( 1.000000000000000000, 0.0000000000000000000, 0.0000000000000000000 ) ) ;
#32 =( LENGTH_UNIT ( ) NAMED_UNIT ( * ) SI_UNIT ( .MILLI., .METRE. ) );
#33 =( NAMED_UNIT ( * ) SI_UNIT ( $, .STERADIAN. ) SOLID_ANGLE_UNIT ( ) );
#34 = ORIENTED_EDGE ( 'NONE', *, *, #178, .F. ) ;
#35 =( GEOMETRIC_REPRESENTATION_CONTEXT ( 3 ) GLOBAL_UNCERTAINTY_ASSIGNED_CONTEXT ( ( #138 ) ) GLOBAL_UNIT_ASSIGNED_CONTEXT ( ( #30, #7, #33 ) ) REPRESENTATION_CONTEXT ( 'NONE', 'WORKASPACE' ) );
#36 = FILL_AREA_STYLE_COLOUR ( '', #192 ) ;
#37 = SURFACE_SIDE_STYLE ('',( #79 ) ) ;
#38 = ADVANCED_BREP_SHAPE_REPRESENTATION ( '03-1723', ( #205, #202, #60 ), #118 ) ;
#39 = PRODUCT_DEFINITION_CONTEXT ( 'detailed design', #184, 'design' ) ;
#40 = PRESENTATION_STYLE_ASSIGNMENT (( #8 ) ) ;
#41 =( NAMED_UNIT ( * ) PLANE_ANGLE_UNIT ( ) SI_UNIT ( $, .RADIAN. ) );
#42 = CARTESIAN_POINT ( 'NONE',  ( 0.0000000000000000000, 0.0000000000000000000, 0.0000000000000000000 ) ) ;
#43 = CARTESIAN_POINT ( 'NONE',  ( 47.99999999999998579, 0.0000000000000000000, -5.850000000000007638 ) ) ;
#44 = CONICAL_SURFACE ( 'NONE', #97, 2414.213562373071909, 1.178097245096169088 ) ;
#45 = DIRECTION ( 'NONE',  ( 1.000000000000000000, 0.0000000000000000000, 0.0000000000000000000 ) ) ;
#46 = MECHANICAL_DESIGN_GEOMETRIC_PRESENTATION_REPRESENTATION (  '', ( #170 ), #200 ) ;
#47 = FILL_AREA_STYLE ('',( #164 ) ) ;
#48 = EDGE_LOOP ( 'NONE', ( #10 ) ) ;
#49 = PRESENTATION_STYLE_ASSIGNMENT (( #22 ) ) ;
#50 = ADVANCED_FACE ( 'NONE', ( #134, #159 ), #117, .T. ) ;
#51 = STYLED_ITEM ( 'NONE', ( #98 ), #102 ) ;
#52 = SURFACE_SIDE_STYLE ('',( #105 ) ) ;
#53 = SURFACE_STYLE_USAGE ( .BOTH. , #52 ) ;
#54 = SURFACE_STYLE_FILL_AREA ( #19 ) ;
#55 = FILL_AREA_STYLE_COLOUR ( '', #120 ) ;
#56 = FILL_AREA_STYLE ('',( #36 ) ) ;
#57 = MECHANICAL_DESIGN_GEOMETRIC_PRESENTATION_REPRESENTATION (  '', ( #208 ), #35 ) ;
#58 = CARTESIAN_POINT ( 'NONE',  ( 47.99999999999998579, 0.0000000000000000000, 0.0000000000000000000 ) ) ;
#59 = EDGE_LOOP ( 'NONE', ( #182 ) ) ;
#60 = AXIS2_PLACEMENT_3D ( 'NONE', #96, #191, #31 ) ;
#61 = ORIENTED_EDGE ( 'NONE', *, *, #183, .F. ) ;
#62 = CARTESIAN_POINT ( 'NONE',  ( -3.582091887506007718E-16, 0.0000000000000000000, 0.0000000000000000000 ) ) ;
#63 =( LENGTH_UNIT ( ) NAMED_UNIT ( * ) SI_UNIT ( .MILLI., .METRE. ) );
#64 = EDGE_CURVE ( 'NONE', #18, #18, #143, .T. ) ;
#65 =( NAMED_UNIT ( * ) PLANE_ANGLE_UNIT ( ) SI_UNIT ( $, .RADIAN. ) );
#66 = MECHANICAL_DESIGN_GEOMETRIC_PRESENTATION_REPRESENTATION (  '', ( #25 ), #122 ) ;
#67 =( LENGTH_UNIT ( ) NAMED_UNIT ( * ) SI_UNIT ( .MILLI., .METRE. ) );
#68 = CIRCLE ( 'NONE', #194, 5.850000000000016520 ) ;
#69 = ORIENTED_EDGE ( 'NONE', *, *, #183, .T. ) ;
#70 =( NAMED_UNIT ( * ) SI_UNIT ( $, .STERADIAN. ) SOLID_ANGLE_UNIT ( ) );
#71 = FACE_OUTER_BOUND ( 'NONE', #103, .T. ) ;
#72 = CARTESIAN_POINT ( 'NONE',  ( -858.0000000000000000, 0.0000000000000000000, 0.0000000000000000000 ) ) ;
#73 = AXIS2_PLACEMENT_3D ( 'NONE', #5, #45, #186 ) ;
#74 = VERTEX_POINT ( 'NONE', #43 ) ;
#75 = DIRECTION ( 'NONE',  ( -1.000000000000000000, -0.0000000000000000000, -0.0000000000000000000 ) ) ;
#76 = CARTESIAN_POINT ( 'NONE',  ( -3.582091887506007718E-16, 0.0000000000000000000, 0.0000000000000000000 ) ) ;
#77 = PRESENTATION_LAYER_ASSIGNMENT (  '', '', ( #208 ) ) ;
#78 =( LENGTH_UNIT ( ) NAMED_UNIT ( * ) SI_UNIT ( .MILLI., .METRE. ) );
#79 = SURFACE_STYLE_FILL_AREA ( #14 ) ;
#80 =( NAMED_UNIT ( * ) PLANE_ANGLE_UNIT ( ) SI_UNIT ( $, .RADIAN. ) );
#81 = PRODUCT_DEFINITION ( 'UNKNOWN', '', #151, #39 ) ;
#82 = PLANE ( 'NONE',  #175 ) ;
#83 = CARTESIAN_POINT ( 'NONE',  ( 1.170000000000013474, 0.0000000000000000000, 0.0000000000000000000 ) ) ;
#84 = DIRECTION ( 'NONE',  ( 0.0000000000000000000, 0.0000000000000000000, 1.000000000000000000 ) ) ;
#85 = AXIS2_PLACEMENT_3D ( 'NONE', #62, #177, #119 ) ;
#86 = EDGE_LOOP ( 'NONE', ( #149 ) ) ;
#87 = ADVANCED_FACE ( 'NONE', ( #71 ), #82, .T. ) ;
#88 = PRESENTATION_LAYER_ASSIGNMENT (  '', '', ( #29 ) ) ;
#89 = DIRECTION ( 'NONE',  ( 1.000000000000000000, 0.0000000000000000000, 0.0000000000000000000 ) ) ;
#90 = CIRCLE ( 'NONE', #136, 5.850000000000007638 ) ;
#91 = DIRECTION ( 'NONE',  ( -1.000000000000000000, -0.0000000000000000000, -0.0000000000000000000 ) ) ;
#92 =( NAMED_UNIT ( * ) SI_UNIT ( $, .STERADIAN. ) SOLID_ANGLE_UNIT ( ) );
#93 = FACE_OUTER_BOUND ( 'NONE', #161, .T. ) ;
#94 = DIRECTION ( 'NONE',  ( -1.000000000000000000, -0.0000000000000000000, -0.0000000000000000000 ) ) ;
#95 = AXIS2_PLACEMENT_3D ( 'NONE', #163, #89, #157 ) ;
#96 = CARTESIAN_POINT ( 'NONE',  ( 0.0000000000000000000, 0.0000000000000000000, 0.0000000000000000000 ) ) ;
#97 = AXIS2_PLACEMENT_3D ( 'NONE', #72, #91, #112 ) ;
#98 = PRESENTATION_STYLE_ASSIGNMENT (( #146 ) ) ;
#99 = SURFACE_STYLE_FILL_AREA ( #56 ) ;
#100 = ADVANCED_FACE ( 'NONE', ( #24, #93 ), #188, .T. ) ;
#101 =( NAMED_UNIT ( * ) PLANE_ANGLE_UNIT ( ) SI_UNIT ( $, .RADIAN. ) );
#102 = ADVANCED_FACE ( 'NONE', ( #189 ), #44, .T. ) ;
#103 = EDGE_LOOP ( 'NONE', ( #3 ) ) ;
#104 = SHAPE_DEFINITION_REPRESENTATION ( #150, #38 ) ;
#105 = SURFACE_STYLE_FILL_AREA ( #47 ) ;
#106 = DIRECTION ( 'NONE',  ( 1.000000000000000000, 0.0000000000000000000, 0.0000000000000000000 ) ) ;
#107 = AXIS2_PLACEMENT_3D ( 'NONE', #58, #15, #193 ) ;
#108 = CARTESIAN_POINT ( 'NONE',  ( -3.582091887506007718E-16, 5.849999999999998757, 0.0000000000000000000 ) ) ;
#109 = DIRECTION ( 'NONE',  ( 0.0000000000000000000, 0.0000000000000000000, -1.000000000000000000 ) ) ;
#110 = PRODUCT_CONTEXT ( 'NONE', #13, 'mechanical' ) ;
#111 = AXIS2_PLACEMENT_3D ( 'NONE', #42, #169, #84 ) ;
#112 = DIRECTION ( 'NONE',  ( 0.0000000000000000000, 0.0000000000000000000, 1.000000000000000000 ) ) ;
#113 = ORIENTED_EDGE ( 'NONE', *, *, #64, .T. ) ;
#114 = VERTEX_POINT ( 'NONE', #27 ) ;
#115 = DIRECTION ( 'NONE',  ( 0.0000000000000000000, 0.0000000000000000000, -1.000000000000000000 ) ) ;
#116 = DIRECTION ( 'NONE',  ( 1.000000000000000000, 0.0000000000000000000, 0.0000000000000000000 ) ) ;
#117 = CONICAL_SURFACE ( 'NONE', #85, 4.680000000000018368, 0.7853981633974380649 ) ;
#118 =( GEOMETRIC_REPRESENTATION_CONTEXT ( 3 ) GLOBAL_UNCERTAINTY_ASSIGNED_CONTEXT ( ( #125 ) ) GLOBAL_UNIT_ASSIGNED_CONTEXT ( ( #32, #101, #70 ) ) REPRESENTATION_CONTEXT ( 'NONE', 'WORKASPACE' ) );
#119 = DIRECTION ( 'NONE',  ( 0.0000000000000000000, 0.0000000000000000000, -1.000000000000000000 ) ) ;
#120 = COLOUR_RGB ( '',0.7921568627450980005, 0.8196078431372548767, 0.9333333333333333481 ) ;
#121 = EDGE_LOOP ( 'NONE', ( #34 ) ) ;
#122 =( GEOMETRIC_REPRESENTATION_CONTEXT ( 3 ) GLOBAL_UNCERTAINTY_ASSIGNED_CONTEXT ( ( #128 ) ) GLOBAL_UNIT_ASSIGNED_CONTEXT ( ( #78, #65, #206 ) ) REPRESENTATION_CONTEXT ( 'NONE', 'WORKASPACE' ) );
#123 = PRESENTATION_STYLE_ASSIGNMENT (( #135 ) ) ;
#124 = FACE_OUTER_BOUND ( 'NONE', #160, .T. ) ;
#125 = UNCERTAINTY_MEASURE_WITH_UNIT (LENGTH_MEASURE( 1.000000000000000082E-05 ), #32, 'distance_accuracy_value', 'NONE');
#126 = COLOUR_RGB ( '',0.7921568627450980005, 0.8196078431372548767, 0.9333333333333333481 ) ;
#127 = CARTESIAN_POINT ( 'NONE',  ( 47.99999999999998579, 0.0000000000000000000, 0.0000000000000000000 ) ) ;
#128 = UNCERTAINTY_MEASURE_WITH_UNIT (LENGTH_MEASURE( 1.000000000000000082E-05 ), #78, 'distance_accuracy_value', 'NONE');
#129 = FACE_OUTER_BOUND ( 'NONE', #17, .T. ) ;
#130 = APPLICATION_PROTOCOL_DEFINITION ( 'draft international standard', 'automotive_design', 1998, #184 ) ;
#131 = DIRECTION ( 'NONE',  ( 0.0000000000000000000, 0.0000000000000000000, 1.000000000000000000 ) ) ;
#132 = DIRECTION ( 'NONE',  ( 1.000000000000000000, 0.0000000000000000000, 0.0000000000000000000 ) ) ;
#133 = MECHANICAL_DESIGN_GEOMETRIC_PRESENTATION_REPRESENTATION (  '', ( #29 ), #144 ) ;
#134 = FACE_OUTER_BOUND ( 'NONE', #59, .T. ) ;
#135 = SURFACE_STYLE_USAGE ( .BOTH. , #173 ) ;
#136 = AXIS2_PLACEMENT_3D ( 'NONE', #83, #106, #115 ) ;
#137 = AXIS2_PLACEMENT_3D ( 'NONE', #76, #147, #109 ) ;
#138 = UNCERTAINTY_MEASURE_WITH_UNIT (LENGTH_MEASURE( 1.000000000000000082E-05 ), #30, 'distance_accuracy_value', 'NONE');
#139 = PRESENTATION_LAYER_ASSIGNMENT (  '', '', ( #170 ) ) ;
#140 = PRESENTATION_STYLE_ASSIGNMENT (( #53 ) ) ;
#141 =( NAMED_UNIT ( * ) SI_UNIT ( $, .STERADIAN. ) SOLID_ANGLE_UNIT ( ) );
#142 = DIRECTION ( 'NONE',  ( 0.0000000000000000000, 0.0000000000000000000, -1.000000000000000000 ) ) ;
#143 = CIRCLE ( 'NONE', #95, 5.850000000000007638 ) ;
#144 =( GEOMETRIC_REPRESENTATION_CONTEXT ( 3 ) GLOBAL_UNCERTAINTY_ASSIGNED_CONTEXT ( ( #154 ) ) GLOBAL_UNIT_ASSIGNED_CONTEXT ( ( #63, #195, #1 ) ) REPRESENTATION_CONTEXT ( 'NONE', 'WORKASPACE' ) );
#145 = VERTEX_POINT ( 'NONE', #176 ) ;
#146 = SURFACE_STYLE_USAGE ( .BOTH. , #207 ) ;
#147 = DIRECTION ( 'NONE',  ( -1.000000000000000000, -0.0000000000000000000, -0.0000000000000000000 ) ) ;
#148 = UNCERTAINTY_MEASURE_WITH_UNIT (LENGTH_MEASURE( 1.000000000000000082E-05 ), #67, 'distance_accuracy_value', 'NONE');
#149 = ORIENTED_EDGE ( 'NONE', *, *, #162, .T. ) ;
#150 = PRODUCT_DEFINITION_SHAPE ( 'NONE', 'NONE',  #81 ) ;
#151 = PRODUCT_DEFINITION_FORMATION_WITH_SPECIFIED_SOURCE ( 'ANY', '', #213, .NOT_KNOWN. ) ;
#152 =( LENGTH_UNIT ( ) NAMED_UNIT ( * ) SI_UNIT ( .MILLI., .METRE. ) );
#153 = CLOSED_SHELL ( 'NONE', ( #100, #167, #50, #87 ) ) ;
#154 = UNCERTAINTY_MEASURE_WITH_UNIT (LENGTH_MEASURE( 1.000000000000000082E-05 ), #63, 'distance_accuracy_value', 'NONE');
#155 = CIRCLE ( 'NONE', #73, 5.850000000000007638 ) ;
#156 = EDGE_LOOP ( 'NONE', ( #181 ) ) ;
#157 = DIRECTION ( 'NONE',  ( 0.0000000000000000000, 0.0000000000000000000, -1.000000000000000000 ) ) ;
#158 = MECHANICAL_DESIGN_GEOMETRIC_PRESENTATION_REPRESENTATION (  '', ( #51 ), #168 ) ;
#159 = FACE_BOUND ( 'NONE', #121, .T. ) ;
#160 = EDGE_LOOP ( 'NONE', ( #113 ) ) ;
#161 = EDGE_LOOP ( 'NONE', ( #204 ) ) ;
#162 = EDGE_CURVE ( 'NONE', #114, #114, #90, .T. ) ;
#163 = CARTESIAN_POINT ( 'NONE',  ( 47.99999999999998579, 0.0000000000000000000, 0.0000000000000000000 ) ) ;
#164 = FILL_AREA_STYLE_COLOUR ( '', #199 ) ;
#165 = CARTESIAN_POINT ( 'NONE',  ( 139.5768506601173442, 0.0000000000000000000, 0.0000000000000000000 ) ) ;
#166 = ADVANCED_FACE ( 'NONE', ( #124, #129 ), #209, .T. ) ;
#167 = ADVANCED_FACE ( 'NONE', ( #2 ), #196, .F. ) ;
#168 =( GEOMETRIC_REPRESENTATION_CONTEXT ( 3 ) GLOBAL_UNCERTAINTY_ASSIGNED_CONTEXT ( ( #148 ) ) GLOBAL_UNIT_ASSIGNED_CONTEXT ( ( #67, #80, #92 ) ) REPRESENTATION_CONTEXT ( 'NONE', 'WORKASPACE' ) );
#169 = DIRECTION ( 'NONE',  ( -1.000000000000000000, -0.0000000000000000000, -0.0000000000000000000 ) ) ;
#170 = STYLED_ITEM ( 'NONE', ( #123 ), #202 ) ;
#171 = UNCERTAINTY_MEASURE_WITH_UNIT (LENGTH_MEASURE( 1.000000000000000082E-05 ), #152, 'distance_accuracy_value', 'NONE');
#172 = EDGE_CURVE ( 'NONE', #74, #74, #155, .T. ) ;
#173 = SURFACE_SIDE_STYLE ('',( #190 ) ) ;
#174 = DIRECTION ( 'NONE',  ( 0.0000000000000000000, 0.0000000000000000000, -1.000000000000000000 ) ) ;
#175 = AXIS2_PLACEMENT_3D ( 'NONE', #127, #132, #142 ) ;
#176 = CARTESIAN_POINT ( 'NONE',  ( 139.5768506601173442, 0.0000000000000000000, 5.850000000000016520 ) ) ;
#177 = DIRECTION ( 'NONE',  ( 1.000000000000000000, 0.0000000000000000000, 0.0000000000000000000 ) ) ;
#178 = EDGE_CURVE ( 'NONE', #26, #26, #180, .T. ) ;
#179 = PRESENTATION_LAYER_ASSIGNMENT (  '', '', ( #51 ) ) ;
#180 = CIRCLE ( 'NONE', #137, 4.680000000000018368 ) ;
#181 = ORIENTED_EDGE ( 'NONE', *, *, #178, .T. ) ;
#182 = ORIENTED_EDGE ( 'NONE', *, *, #162, .F. ) ;
#183 = EDGE_CURVE ( 'NONE', #145, #145, #68, .T. ) ;
#184 = APPLICATION_CONTEXT ( 'automotive_design' ) ;
#185 = FACE_OUTER_BOUND ( 'NONE', #48, .T. ) ;
#186 = DIRECTION ( 'NONE',  ( 0.0000000000000000000, 0.0000000000000000000, -1.000000000000000000 ) ) ;
#187 = AXIS2_PLACEMENT_3D ( 'NONE', #108, #116, #174 ) ;
#188 = CYLINDRICAL_SURFACE ( 'NONE', #111, 5.850000000000007638 ) ;
#189 = FACE_OUTER_BOUND ( 'NONE', #210, .T. ) ;
#190 = SURFACE_STYLE_FILL_AREA ( #198 ) ;
#191 = DIRECTION ( 'NONE',  ( 0.0000000000000000000, 0.0000000000000000000, 1.000000000000000000 ) ) ;
#192 = COLOUR_RGB ( '',1.000000000000000000, 1.000000000000000000, 0.0000000000000000000 ) ;
#193 = DIRECTION ( 'NONE',  ( 0.0000000000000000000, 0.0000000000000000000, -1.000000000000000000 ) ) ;
#194 = AXIS2_PLACEMENT_3D ( 'NONE', #165, #94, #131 ) ;
#195 =( NAMED_UNIT ( * ) PLANE_ANGLE_UNIT ( ) SI_UNIT ( $, .RADIAN. ) );
#196 = PLANE ( 'NONE',  #187 ) ;
#197 = FILL_AREA_STYLE_COLOUR ( '', #126 ) ;
#198 = FILL_AREA_STYLE ('',( #55 ) ) ;
#199 = COLOUR_RGB ( '',1.000000000000000000, 1.000000000000000000, 0.0000000000000000000 ) ;
#200 =( GEOMETRIC_REPRESENTATION_CONTEXT ( 3 ) GLOBAL_UNCERTAINTY_ASSIGNED_CONTEXT ( ( #171 ) ) GLOBAL_UNIT_ASSIGNED_CONTEXT ( ( #152, #41, #141 ) ) REPRESENTATION_CONTEXT ( 'NONE', 'WORKASPACE' ) );
#201 = AXIS2_PLACEMENT_3D ( 'NONE', #211, #75, #11 ) ;
#202 = MANIFOLD_SOLID_BREP ( 'ºÐÇÒ2[2]', #28 ) ;
#203 = PLANE ( 'NONE',  #107 ) ;
#204 = ORIENTED_EDGE ( 'NONE', *, *, #172, .F. ) ;
#205 = MANIFOLD_SOLID_BREP ( 'ºÐÇÒ2[1]', #153 ) ;
#206 =( NAMED_UNIT ( * ) SI_UNIT ( $, .STERADIAN. ) SOLID_ANGLE_UNIT ( ) );
#207 = SURFACE_SIDE_STYLE ('',( #99 ) ) ;
#208 = STYLED_ITEM ( 'NONE', ( #40 ), #205 ) ;
#209 = CYLINDRICAL_SURFACE ( 'NONE', #201, 5.850000000000007638 ) ;
#210 = EDGE_LOOP ( 'NONE', ( #61 ) ) ;
#211 = CARTESIAN_POINT ( 'NONE',  ( 0.0000000000000000000, 0.0000000000000000000, 0.0000000000000000000 ) ) ;
#212 = ADVANCED_FACE ( 'NONE', ( #185 ), #203, .F. ) ;
#213 = PRODUCT ( '03-1723', '03-1723', '', ( #110 ) ) ;
ENDSEC;
END-ISO-10303-21;
