ISO-10303-21;
HEADER;
FILE_DESCRIPTION (( 'STEP AP214' ),
    '1' );
FILE_NAME ('03-1725.STEP',
    '2021-10-01T05:51:15',
    ( 'USER' ),
    ( '' ),
    'SwSTEP 2.0',
    'SolidWorks 2018',
    '' );
FILE_SCHEMA (( 'AUTOMOTIVE_DESIGN' ));
ENDSEC;

DATA;
#1 = ADVANCED_FACE ( 'NONE', ( #179 ), #184, .F. ) ;
#2 =( NAMED_UNIT ( * ) SI_UNIT ( $, .STERADIAN. ) SOLID_ANGLE_UNIT ( ) );
#3 = VERTEX_POINT ( 'NONE', #120 ) ;
#4 = DIRECTION ( 'NONE',  ( 0.0000000000000000000, 0.0000000000000000000, 1.000000000000000000 ) ) ;
#5 = ADVANCED_BREP_SHAPE_REPRESENTATION ( '03-1725', ( #10, #176, #39 ), #156 ) ;
#6 = CARTESIAN_POINT ( 'NONE',  ( 0.0000000000000000000, 0.0000000000000000000, 0.0000000000000000000 ) ) ;
#7 = CIRCLE ( 'NONE', #193, 5.950000000000009059 ) ;
#8 = CARTESIAN_POINT ( 'NONE',  ( -849.0000000000000000, 0.0000000000000000000, 0.0000000000000000000 ) ) ;
#9 = AXIS2_PLACEMENT_3D ( 'NONE', #164, #188, #17 ) ;
#10 = MANIFOLD_SOLID_BREP ( 'ºÐÇÒ2[1]', #150 ) ;
#11 = VERTEX_POINT ( 'NONE', #145 ) ;
#12 = FACE_OUTER_BOUND ( 'NONE', #96, .T. ) ;
#13 = EDGE_LOOP ( 'NONE', ( #56 ) ) ;
#14 =( GEOMETRIC_REPRESENTATION_CONTEXT ( 3 ) GLOBAL_UNCERTAINTY_ASSIGNED_CONTEXT ( ( #118 ) ) GLOBAL_UNIT_ASSIGNED_CONTEXT ( ( #119, #194, #129 ) ) REPRESENTATION_CONTEXT ( 'NONE', 'WORKASPACE' ) );
#15 = APPLICATION_CONTEXT ( 'automotive_design' ) ;
#16 = CARTESIAN_POINT ( 'NONE',  ( -3.643324227463375982E-16, 0.0000000000000000000, -4.760000000000029097 ) ) ;
#17 = DIRECTION ( 'NONE',  ( 0.0000000000000000000, 0.0000000000000000000, 1.000000000000000000 ) ) ;
#18 = VERTEX_POINT ( 'NONE', #78 ) ;
#19 = AXIS2_PLACEMENT_3D ( 'NONE', #87, #139, #45 ) ;
#20 =( NAMED_UNIT ( * ) PLANE_ANGLE_UNIT ( ) SI_UNIT ( $, .RADIAN. ) );
#21 = SURFACE_STYLE_USAGE ( .BOTH. , #123 ) ;
#22 = CARTESIAN_POINT ( 'NONE',  ( 49.99999999999998579, 0.0000000000000000000, 0.0000000000000000000 ) ) ;
#23 = UNCERTAINTY_MEASURE_WITH_UNIT (LENGTH_MEASURE( 1.000000000000000082E-05 ), #98, 'distance_accuracy_value', 'NONE');
#24 = FILL_AREA_STYLE_COLOUR ( '', #46 ) ;
#25 = EDGE_LOOP ( 'NONE', ( #143 ) ) ;
#26 = DIRECTION ( 'NONE',  ( 1.000000000000000000, 0.0000000000000000000, 0.0000000000000000000 ) ) ;
#27 = APPLICATION_PROTOCOL_DEFINITION ( 'draft international standard', 'automotive_design', 1998, #68 ) ;
#28 = MECHANICAL_DESIGN_GEOMETRIC_PRESENTATION_REPRESENTATION (  '', ( #122 ), #14 ) ;
#29 = DIRECTION ( 'NONE',  ( 0.0000000000000000000, 0.0000000000000000000, 1.000000000000000000 ) ) ;
#30 = MECHANICAL_DESIGN_GEOMETRIC_PRESENTATION_REPRESENTATION (  '', ( #211 ), #213 ) ;
#31 = FILL_AREA_STYLE ('',( #90 ) ) ;
#32 = AXIS2_PLACEMENT_3D ( 'NONE', #100, #196, #85 ) ;
#33 = VERTEX_POINT ( 'NONE', #16 ) ;
#34 =( LENGTH_UNIT ( ) NAMED_UNIT ( * ) SI_UNIT ( .MILLI., .METRE. ) );
#35 = PRODUCT_RELATED_PRODUCT_CATEGORY ( 'part', '', ( #41 ) ) ;
#36 = CYLINDRICAL_SURFACE ( 'NONE', #209, 5.950000000000009059 ) ;
#37 = UNCERTAINTY_MEASURE_WITH_UNIT (LENGTH_MEASURE( 1.000000000000000082E-05 ), #131, 'distance_accuracy_value', 'NONE');
#38 =( LENGTH_UNIT ( ) NAMED_UNIT ( * ) SI_UNIT ( .MILLI., .METRE. ) );
#39 = AXIS2_PLACEMENT_3D ( 'NONE', #130, #4, #109 ) ;
#40 = PRESENTATION_STYLE_ASSIGNMENT (( #94 ) ) ;
#41 = PRODUCT ( '03-1725', '03-1725', '', ( #43 ) ) ;
#42 = FILL_AREA_STYLE ('',( #137 ) ) ;
#43 = PRODUCT_CONTEXT ( 'NONE', #68, 'mechanical' ) ;
#44 = ORIENTED_EDGE ( 'NONE', *, *, #88, .F. ) ;
#45 = DIRECTION ( 'NONE',  ( 0.0000000000000000000, 0.0000000000000000000, 1.000000000000000000 ) ) ;
#46 = COLOUR_RGB ( '',0.7921568627450980005, 0.8196078431372548767, 0.9333333333333333481 ) ;
#47 = APPLICATION_PROTOCOL_DEFINITION ( 'draft international standard', 'automotive_design', 1998, #15 ) ;
#48 = PRESENTATION_STYLE_ASSIGNMENT (( #21 ) ) ;
#49 = SURFACE_STYLE_USAGE ( .BOTH. , #167 ) ;
#50 = PLANE ( 'NONE',  #114 ) ;
#51 = PRESENTATION_LAYER_ASSIGNMENT (  '', '', ( #122 ) ) ;
#52 = STYLED_ITEM ( 'NONE', ( #97 ), #66 ) ;
#53 = SURFACE_STYLE_USAGE ( .BOTH. , #106 ) ;
#54 = FACE_OUTER_BOUND ( 'NONE', #174, .T. ) ;
#55 = ORIENTED_EDGE ( 'NONE', *, *, #99, .T. ) ;
#56 = ORIENTED_EDGE ( 'NONE', *, *, #74, .T. ) ;
#57 = SURFACE_STYLE_FILL_AREA ( #31 ) ;
#58 = FILL_AREA_STYLE_COLOUR ( '', #140 ) ;
#59 = PRESENTATION_LAYER_ASSIGNMENT (  '', '', ( #52 ) ) ;
#60 =( LENGTH_UNIT ( ) NAMED_UNIT ( * ) SI_UNIT ( .MILLI., .METRE. ) );
#61 = DIRECTION ( 'NONE',  ( 1.000000000000000000, 0.0000000000000000000, 0.0000000000000000000 ) ) ;
#62 = DIRECTION ( 'NONE',  ( -1.000000000000000000, -0.0000000000000000000, -0.0000000000000000000 ) ) ;
#63 = DIRECTION ( 'NONE',  ( 0.0000000000000000000, 0.0000000000000000000, -1.000000000000000000 ) ) ;
#64 = ORIENTED_EDGE ( 'NONE', *, *, #110, .T. ) ;
#65 = SURFACE_SIDE_STYLE ('',( #82 ) ) ;
#66 = ADVANCED_FACE ( 'NONE', ( #72 ), #149, .T. ) ;
#67 = DIRECTION ( 'NONE',  ( 0.0000000000000000000, 0.0000000000000000000, -1.000000000000000000 ) ) ;
#68 = APPLICATION_CONTEXT ( 'automotive_design' ) ;
#69 = EDGE_LOOP ( 'NONE', ( #125 ) ) ;
#70 =( NAMED_UNIT ( * ) SI_UNIT ( $, .STERADIAN. ) SOLID_ANGLE_UNIT ( ) );
#71 = PRODUCT_DEFINITION_SHAPE ( 'NONE', 'NONE',  #203 ) ;
#72 = FACE_OUTER_BOUND ( 'NONE', #69, .T. ) ;
#73 = DIRECTION ( 'NONE',  ( 1.000000000000000000, 0.0000000000000000000, 0.0000000000000000000 ) ) ;
#74 = EDGE_CURVE ( 'NONE', #144, #144, #77, .T. ) ;
#75 = EDGE_LOOP ( 'NONE', ( #64 ) ) ;
#76 = COLOUR_RGB ( '',0.7921568627450980005, 0.8196078431372548767, 0.9333333333333333481 ) ;
#77 = CIRCLE ( 'NONE', #19, 5.950000000000019718 ) ;
#78 = CARTESIAN_POINT ( 'NONE',  ( 49.99999999999998579, 0.0000000000000000000, -5.950000000000009059 ) ) ;
#79 = CLOSED_SHELL ( 'NONE', ( #1, #187, #66 ) ) ;
#80 = FILL_AREA_STYLE_COLOUR ( '', #189 ) ;
#81 =( NAMED_UNIT ( * ) SI_UNIT ( $, .STERADIAN. ) SOLID_ANGLE_UNIT ( ) );
#82 = SURFACE_STYLE_FILL_AREA ( #142 ) ;
#83 = MECHANICAL_DESIGN_GEOMETRIC_PRESENTATION_REPRESENTATION (  '', ( #52 ), #127 ) ;
#84 = PRODUCT_DEFINITION_FORMATION_WITH_SPECIFIED_SOURCE ( 'ANY', '', #41, .NOT_KNOWN. ) ;
#85 = DIRECTION ( 'NONE',  ( 0.0000000000000000000, 0.0000000000000000000, -1.000000000000000000 ) ) ;
#86 = FACE_BOUND ( 'NONE', #25, .T. ) ;
#87 = CARTESIAN_POINT ( 'NONE',  ( 148.5354293038800222, 0.0000000000000000000, 0.0000000000000000000 ) ) ;
#88 = EDGE_CURVE ( 'NONE', #11, #11, #175, .T. ) ;
#89 = ADVANCED_FACE ( 'NONE', ( #12, #86 ), #138, .T. ) ;
#90 = FILL_AREA_STYLE_COLOUR ( '', #202 ) ;
#91 = UNCERTAINTY_MEASURE_WITH_UNIT (LENGTH_MEASURE( 1.000000000000000082E-05 ), #60, 'distance_accuracy_value', 'NONE');
#92 = PRESENTATION_LAYER_ASSIGNMENT (  '', '', ( #126 ) ) ;
#93 = DIRECTION ( 'NONE',  ( 1.000000000000000000, 0.0000000000000000000, 0.0000000000000000000 ) ) ;
#94 = SURFACE_STYLE_USAGE ( .BOTH. , #208 ) ;
#95 = FILL_AREA_STYLE ('',( #80 ) ) ;
#96 = EDGE_LOOP ( 'NONE', ( #44 ) ) ;
#97 = PRESENTATION_STYLE_ASSIGNMENT (( #49 ) ) ;
#98 =( LENGTH_UNIT ( ) NAMED_UNIT ( * ) SI_UNIT ( .MILLI., .METRE. ) );
#99 = EDGE_CURVE ( 'NONE', #3, #3, #111, .T. ) ;
#100 = CARTESIAN_POINT ( 'NONE',  ( 49.99999999999998579, 0.0000000000000000000, 0.0000000000000000000 ) ) ;
#101 =( NAMED_UNIT ( * ) PLANE_ANGLE_UNIT ( ) SI_UNIT ( $, .RADIAN. ) );
#102 =( NAMED_UNIT ( * ) PLANE_ANGLE_UNIT ( ) SI_UNIT ( $, .RADIAN. ) );
#103 = EDGE_CURVE ( 'NONE', #33, #33, #158, .T. ) ;
#104 = CARTESIAN_POINT ( 'NONE',  ( -3.643324227463375982E-16, 5.949999999999999289, 0.0000000000000000000 ) ) ;
#105 = ORIENTED_EDGE ( 'NONE', *, *, #110, .F. ) ;
#106 = SURFACE_SIDE_STYLE ('',( #204 ) ) ;
#107 = MECHANICAL_DESIGN_GEOMETRIC_PRESENTATION_REPRESENTATION (  '', ( #126 ), #161 ) ;
#108 = SURFACE_STYLE_FILL_AREA ( #95 ) ;
#109 = DIRECTION ( 'NONE',  ( 1.000000000000000000, 0.0000000000000000000, 0.0000000000000000000 ) ) ;
#110 = EDGE_CURVE ( 'NONE', #18, #18, #7, .T. ) ;
#111 = CIRCLE ( 'NONE', #32, 5.950000000000009059 ) ;
#112 = FACE_OUTER_BOUND ( 'NONE', #181, .T. ) ;
#113 = CARTESIAN_POINT ( 'NONE',  ( 49.99999999999998579, 0.0000000000000000000, 0.0000000000000000000 ) ) ;
#114 = AXIS2_PLACEMENT_3D ( 'NONE', #104, #183, #159 ) ;
#115 = DIRECTION ( 'NONE',  ( 0.0000000000000000000, 0.0000000000000000000, -1.000000000000000000 ) ) ;
#116 = DIRECTION ( 'NONE',  ( 1.000000000000000000, 0.0000000000000000000, 0.0000000000000000000 ) ) ;
#117 = CARTESIAN_POINT ( 'NONE',  ( 49.99999999999998579, 0.0000000000000000000, 0.0000000000000000000 ) ) ;
#118 = UNCERTAINTY_MEASURE_WITH_UNIT (LENGTH_MEASURE( 1.000000000000000082E-05 ), #119, 'distance_accuracy_value', 'NONE');
#119 =( LENGTH_UNIT ( ) NAMED_UNIT ( * ) SI_UNIT ( .MILLI., .METRE. ) );
#120 = CARTESIAN_POINT ( 'NONE',  ( 49.99999999999998579, 0.0000000000000000000, -5.950000000000009059 ) ) ;
#121 = EDGE_LOOP ( 'NONE', ( #128 ) ) ;
#122 = STYLED_ITEM ( 'NONE', ( #141 ), #176 ) ;
#123 = SURFACE_SIDE_STYLE ('',( #157 ) ) ;
#124 = ADVANCED_FACE ( 'NONE', ( #112, #185 ), #134, .T. ) ;
#125 = ORIENTED_EDGE ( 'NONE', *, *, #74, .F. ) ;
#126 = STYLED_ITEM ( 'NONE', ( #166 ), #10 ) ;
#127 =( GEOMETRIC_REPRESENTATION_CONTEXT ( 3 ) GLOBAL_UNCERTAINTY_ASSIGNED_CONTEXT ( ( #168 ) ) GLOBAL_UNIT_ASSIGNED_CONTEXT ( ( #38, #101, #70 ) ) REPRESENTATION_CONTEXT ( 'NONE', 'WORKASPACE' ) );
#128 = ORIENTED_EDGE ( 'NONE', *, *, #103, .T. ) ;
#129 =( NAMED_UNIT ( * ) SI_UNIT ( $, .STERADIAN. ) SOLID_ANGLE_UNIT ( ) );
#130 = CARTESIAN_POINT ( 'NONE',  ( 0.0000000000000000000, 0.0000000000000000000, 0.0000000000000000000 ) ) ;
#131 =( LENGTH_UNIT ( ) NAMED_UNIT ( * ) SI_UNIT ( .MILLI., .METRE. ) );
#132 = AXIS2_PLACEMENT_3D ( 'NONE', #113, #26, #67 ) ;
#133 = SURFACE_STYLE_USAGE ( .BOTH. , #65 ) ;
#134 = CYLINDRICAL_SURFACE ( 'NONE', #9, 5.950000000000009059 ) ;
#135 = EDGE_LOOP ( 'NONE', ( #169 ) ) ;
#136 = ADVANCED_FACE ( 'NONE', ( #201 ), #50, .F. ) ;
#137 = FILL_AREA_STYLE_COLOUR ( '', #76 ) ;
#138 = CONICAL_SURFACE ( 'NONE', #154, 4.760000000000029097, 0.7853981633974442822 ) ;
#139 = DIRECTION ( 'NONE',  ( -1.000000000000000000, -0.0000000000000000000, -0.0000000000000000000 ) ) ;
#140 = COLOUR_RGB ( '',0.7921568627450980005, 0.8196078431372548767, 0.9333333333333333481 ) ;
#141 = PRESENTATION_STYLE_ASSIGNMENT (( #53 ) ) ;
#142 = FILL_AREA_STYLE ('',( #24 ) ) ;
#143 = ORIENTED_EDGE ( 'NONE', *, *, #103, .F. ) ;
#144 = VERTEX_POINT ( 'NONE', #207 ) ;
#145 = CARTESIAN_POINT ( 'NONE',  ( 1.189999999999989289, 0.0000000000000000000, -5.950000000000009059 ) ) ;
#146 = SHAPE_DEFINITION_REPRESENTATION ( #71, #5 ) ;
#147 = AXIS2_PLACEMENT_3D ( 'NONE', #8, #62, #29 ) ;
#148 = UNCERTAINTY_MEASURE_WITH_UNIT (LENGTH_MEASURE( 1.000000000000000082E-05 ), #34, 'distance_accuracy_value', 'NONE');
#149 = CONICAL_SURFACE ( 'NONE', #147, 2414.213562373053719, 1.178097245096166423 ) ;
#150 = CLOSED_SHELL ( 'NONE', ( #124, #136, #89, #199 ) ) ;
#151 =( NAMED_UNIT ( * ) SI_UNIT ( $, .STERADIAN. ) SOLID_ANGLE_UNIT ( ) );
#152 = AXIS2_PLACEMENT_3D ( 'NONE', #22, #61, #206 ) ;
#153 = FACE_OUTER_BOUND ( 'NONE', #75, .T. ) ;
#154 = AXIS2_PLACEMENT_3D ( 'NONE', #155, #116, #115 ) ;
#155 = CARTESIAN_POINT ( 'NONE',  ( -3.643324227463375982E-16, 0.0000000000000000000, 0.0000000000000000000 ) ) ;
#156 =( GEOMETRIC_REPRESENTATION_CONTEXT ( 3 ) GLOBAL_UNCERTAINTY_ASSIGNED_CONTEXT ( ( #23 ) ) GLOBAL_UNIT_ASSIGNED_CONTEXT ( ( #98, #170, #2 ) ) REPRESENTATION_CONTEXT ( 'NONE', 'WORKASPACE' ) );
#157 = SURFACE_STYLE_FILL_AREA ( #42 ) ;
#158 = CIRCLE ( 'NONE', #173, 4.760000000000029097 ) ;
#159 = DIRECTION ( 'NONE',  ( 0.0000000000000000000, 0.0000000000000000000, -1.000000000000000000 ) ) ;
#160 =( NAMED_UNIT ( * ) SI_UNIT ( $, .STERADIAN. ) SOLID_ANGLE_UNIT ( ) );
#161 =( GEOMETRIC_REPRESENTATION_CONTEXT ( 3 ) GLOBAL_UNCERTAINTY_ASSIGNED_CONTEXT ( ( #37 ) ) GLOBAL_UNIT_ASSIGNED_CONTEXT ( ( #131, #102, #151 ) ) REPRESENTATION_CONTEXT ( 'NONE', 'WORKASPACE' ) );
#162 = FILL_AREA_STYLE ('',( #58 ) ) ;
#163 = PLANE ( 'NONE',  #152 ) ;
#164 = CARTESIAN_POINT ( 'NONE',  ( 0.0000000000000000000, 0.0000000000000000000, 0.0000000000000000000 ) ) ;
#165 =( GEOMETRIC_REPRESENTATION_CONTEXT ( 3 ) GLOBAL_UNCERTAINTY_ASSIGNED_CONTEXT ( ( #91 ) ) GLOBAL_UNIT_ASSIGNED_CONTEXT ( ( #60, #20, #160 ) ) REPRESENTATION_CONTEXT ( 'NONE', 'WORKASPACE' ) );
#166 = PRESENTATION_STYLE_ASSIGNMENT (( #133 ) ) ;
#167 = SURFACE_SIDE_STYLE ('',( #57 ) ) ;
#168 = UNCERTAINTY_MEASURE_WITH_UNIT (LENGTH_MEASURE( 1.000000000000000082E-05 ), #38, 'distance_accuracy_value', 'NONE');
#169 = ORIENTED_EDGE ( 'NONE', *, *, #99, .F. ) ;
#170 =( NAMED_UNIT ( * ) PLANE_ANGLE_UNIT ( ) SI_UNIT ( $, .RADIAN. ) );
#171 = CARTESIAN_POINT ( 'NONE',  ( 1.189999999999989289, 0.0000000000000000000, 0.0000000000000000000 ) ) ;
#172 = DIRECTION ( 'NONE',  ( 0.0000000000000000000, 0.0000000000000000000, -1.000000000000000000 ) ) ;
#173 = AXIS2_PLACEMENT_3D ( 'NONE', #198, #212, #63 ) ;
#174 = EDGE_LOOP ( 'NONE', ( #55 ) ) ;
#175 = CIRCLE ( 'NONE', #186, 5.950000000000009059 ) ;
#176 = MANIFOLD_SOLID_BREP ( 'ºÐÇÒ2[2]', #79 ) ;
#177 = MECHANICAL_DESIGN_GEOMETRIC_PRESENTATION_REPRESENTATION (  '', ( #182 ), #165 ) ;
#178 = PRODUCT_DEFINITION_CONTEXT ( 'detailed design', #15, 'design' ) ;
#179 = FACE_OUTER_BOUND ( 'NONE', #135, .T. ) ;
#180 =( NAMED_UNIT ( * ) PLANE_ANGLE_UNIT ( ) SI_UNIT ( $, .RADIAN. ) );
#181 = EDGE_LOOP ( 'NONE', ( #197 ) ) ;
#182 = STYLED_ITEM ( 'NONE', ( #40 ), #187 ) ;
#183 = DIRECTION ( 'NONE',  ( 1.000000000000000000, 0.0000000000000000000, 0.0000000000000000000 ) ) ;
#184 = PLANE ( 'NONE',  #132 ) ;
#185 = FACE_OUTER_BOUND ( 'NONE', #210, .T. ) ;
#186 = AXIS2_PLACEMENT_3D ( 'NONE', #171, #73, #190 ) ;
#187 = ADVANCED_FACE ( 'NONE', ( #54, #192 ), #36, .T. ) ;
#188 = DIRECTION ( 'NONE',  ( -1.000000000000000000, -0.0000000000000000000, -0.0000000000000000000 ) ) ;
#189 = COLOUR_RGB ( '',1.000000000000000000, 1.000000000000000000, 0.0000000000000000000 ) ;
#190 = DIRECTION ( 'NONE',  ( 0.0000000000000000000, 0.0000000000000000000, -1.000000000000000000 ) ) ;
#191 = PRESENTATION_LAYER_ASSIGNMENT (  '', '', ( #182 ) ) ;
#192 = FACE_OUTER_BOUND ( 'NONE', #13, .T. ) ;
#193 = AXIS2_PLACEMENT_3D ( 'NONE', #117, #93, #172 ) ;
#194 =( NAMED_UNIT ( * ) PLANE_ANGLE_UNIT ( ) SI_UNIT ( $, .RADIAN. ) );
#195 = DIRECTION ( 'NONE',  ( -1.000000000000000000, -0.0000000000000000000, -0.0000000000000000000 ) ) ;
#196 = DIRECTION ( 'NONE',  ( 1.000000000000000000, 0.0000000000000000000, 0.0000000000000000000 ) ) ;
#197 = ORIENTED_EDGE ( 'NONE', *, *, #88, .T. ) ;
#198 = CARTESIAN_POINT ( 'NONE',  ( -3.643324227463375982E-16, 0.0000000000000000000, 0.0000000000000000000 ) ) ;
#199 = ADVANCED_FACE ( 'NONE', ( #153 ), #163, .T. ) ;
#200 = PRESENTATION_LAYER_ASSIGNMENT (  '', '', ( #211 ) ) ;
#201 = FACE_OUTER_BOUND ( 'NONE', #121, .T. ) ;
#202 = COLOUR_RGB ( '',1.000000000000000000, 1.000000000000000000, 0.0000000000000000000 ) ;
#203 = PRODUCT_DEFINITION ( 'UNKNOWN', '', #84, #178 ) ;
#204 = SURFACE_STYLE_FILL_AREA ( #162 ) ;
#205 = DIRECTION ( 'NONE',  ( 0.0000000000000000000, 0.0000000000000000000, 1.000000000000000000 ) ) ;
#206 = DIRECTION ( 'NONE',  ( 0.0000000000000000000, 0.0000000000000000000, -1.000000000000000000 ) ) ;
#207 = CARTESIAN_POINT ( 'NONE',  ( 148.5354293038800222, 0.0000000000000000000, 5.950000000000019718 ) ) ;
#208 = SURFACE_SIDE_STYLE ('',( #108 ) ) ;
#209 = AXIS2_PLACEMENT_3D ( 'NONE', #6, #195, #205 ) ;
#210 = EDGE_LOOP ( 'NONE', ( #105 ) ) ;
#211 = STYLED_ITEM ( 'NONE', ( #48 ), #5 ) ;
#212 = DIRECTION ( 'NONE',  ( -1.000000000000000000, -0.0000000000000000000, -0.0000000000000000000 ) ) ;
#213 =( GEOMETRIC_REPRESENTATION_CONTEXT ( 3 ) GLOBAL_UNCERTAINTY_ASSIGNED_CONTEXT ( ( #148 ) ) GLOBAL_UNIT_ASSIGNED_CONTEXT ( ( #34, #180, #81 ) ) REPRESENTATION_CONTEXT ( 'NONE', 'WORKASPACE' ) );
ENDSEC;
END-ISO-10303-21;
