ISO-10303-21;
HEADER;
FILE_DESCRIPTION (( 'STEP AP214' ),
    '1' );
FILE_NAME ('03-1726.STEP',
    '2021-10-01T05:51:34',
    ( 'USER' ),
    ( '' ),
    'SwSTEP 2.0',
    'SolidWorks 2018',
    '' );
FILE_SCHEMA (( 'AUTOMOTIVE_DESIGN' ));
ENDSEC;

DATA;
#1 = CLOSED_SHELL ( 'NONE', ( #150, #90, #135, #161 ) ) ;
#2 = PRESENTATION_LAYER_ASSIGNMENT (  '', '', ( #128 ) ) ;
#3 = UNCERTAINTY_MEASURE_WITH_UNIT (LENGTH_MEASURE( 1.000000000000000082E-05 ), #202, 'distance_accuracy_value', 'NONE');
#4 = COLOUR_RGB ( '',0.7921568627450980005, 0.8196078431372548767, 0.9333333333333333481 ) ;
#5 = AXIS2_PLACEMENT_3D ( 'NONE', #177, #162, #145 ) ;
#6 = MANIFOLD_SOLID_BREP ( 'ºÐÇÒ2[2]', #114 ) ;
#7 = VERTEX_POINT ( 'NONE', #40 ) ;
#8 = FACE_OUTER_BOUND ( 'NONE', #19, .T. ) ;
#9 = VERTEX_POINT ( 'NONE', #143 ) ;
#10 =( NAMED_UNIT ( * ) SI_UNIT ( $, .STERADIAN. ) SOLID_ANGLE_UNIT ( ) );
#11 = DIRECTION ( 'NONE',  ( 0.0000000000000000000, 0.0000000000000000000, 1.000000000000000000 ) ) ;
#12 = STYLED_ITEM ( 'NONE', ( #58 ), #185 ) ;
#13 = DIRECTION ( 'NONE',  ( 0.0000000000000000000, 0.0000000000000000000, -1.000000000000000000 ) ) ;
#14 = ADVANCED_FACE ( 'NONE', ( #130, #172 ), #127, .T. ) ;
#15 = FILL_AREA_STYLE ('',( #46 ) ) ;
#16 = FILL_AREA_STYLE_COLOUR ( '', #197 ) ;
#17 = CARTESIAN_POINT ( 'NONE',  ( 148.5147186257613896, 0.0000000000000000000, 6.000000000000018652 ) ) ;
#18 = ORIENTED_EDGE ( 'NONE', *, *, #169, .T. ) ;
#19 = EDGE_LOOP ( 'NONE', ( #171 ) ) ;
#20 = AXIS2_PLACEMENT_3D ( 'NONE', #129, #155, #134 ) ;
#21 = CARTESIAN_POINT ( 'NONE',  ( 148.5147186257613896, 0.0000000000000000000, 0.0000000000000000000 ) ) ;
#22 = EDGE_LOOP ( 'NONE', ( #49 ) ) ;
#23 = FILL_AREA_STYLE_COLOUR ( '', #100 ) ;
#24 = PLANE ( 'NONE',  #141 ) ;
#25 = PRESENTATION_LAYER_ASSIGNMENT (  '', '', ( #157 ) ) ;
#26 = PRESENTATION_STYLE_ASSIGNMENT (( #189 ) ) ;
#27 = PLANE ( 'NONE',  #205 ) ;
#28 = SURFACE_STYLE_FILL_AREA ( #15 ) ;
#29 = APPLICATION_PROTOCOL_DEFINITION ( 'draft international standard', 'automotive_design', 1998, #204 ) ;
#30 = FILL_AREA_STYLE ('',( #86 ) ) ;
#31 = AXIS2_PLACEMENT_3D ( 'NONE', #21, #59, #211 ) ;
#32 = DIRECTION ( 'NONE',  ( 0.0000000000000000000, 0.0000000000000000000, -1.000000000000000000 ) ) ;
#33 =( NAMED_UNIT ( * ) PLANE_ANGLE_UNIT ( ) SI_UNIT ( $, .RADIAN. ) );
#34 = ORIENTED_EDGE ( 'NONE', *, *, #159, .T. ) ;
#35 = VERTEX_POINT ( 'NONE', #17 ) ;
#36 = DIRECTION ( 'NONE',  ( 1.000000000000000000, 0.0000000000000000000, 0.0000000000000000000 ) ) ;
#37 = SURFACE_STYLE_USAGE ( .BOTH. , #190 ) ;
#38 = SURFACE_STYLE_FILL_AREA ( #30 ) ;
#39 = EDGE_CURVE ( 'NONE', #35, #35, #124, .T. ) ;
#40 = CARTESIAN_POINT ( 'NONE',  ( 49.99999999999998579, 0.0000000000000000000, -6.000000000000008882 ) ) ;
#41 = ORIENTED_EDGE ( 'NONE', *, *, #39, .T. ) ;
#42 = PRODUCT_DEFINITION_CONTEXT ( 'detailed design', #72, 'design' ) ;
#43 = MECHANICAL_DESIGN_GEOMETRIC_PRESENTATION_REPRESENTATION (  '', ( #12 ), #65 ) ;
#44 = ORIENTED_EDGE ( 'NONE', *, *, #169, .F. ) ;
#45 = SURFACE_STYLE_USAGE ( .BOTH. , #152 ) ;
#46 = FILL_AREA_STYLE_COLOUR ( '', #198 ) ;
#47 = PRESENTATION_LAYER_ASSIGNMENT (  '', '', ( #112 ) ) ;
#48 = MANIFOLD_SOLID_BREP ( 'ºÐÇÒ2[1]', #1 ) ;
#49 = ORIENTED_EDGE ( 'NONE', *, *, #159, .F. ) ;
#50 = FACE_OUTER_BOUND ( 'NONE', #148, .T. ) ;
#51 = STYLED_ITEM ( 'NONE', ( #137 ), #6 ) ;
#52 = PRODUCT_RELATED_PRODUCT_CATEGORY ( 'part', '', ( #144 ) ) ;
#53 = CARTESIAN_POINT ( 'NONE',  ( 0.0000000000000000000, 0.0000000000000000000, 0.0000000000000000000 ) ) ;
#54 = UNCERTAINTY_MEASURE_WITH_UNIT (LENGTH_MEASURE( 1.000000000000000082E-05 ), #196, 'distance_accuracy_value', 'NONE');
#55 =( NAMED_UNIT ( * ) PLANE_ANGLE_UNIT ( ) SI_UNIT ( $, .RADIAN. ) );
#56 = CARTESIAN_POINT ( 'NONE',  ( 0.0000000000000000000, 0.0000000000000000000, 0.0000000000000000000 ) ) ;
#57 =( GEOMETRIC_REPRESENTATION_CONTEXT ( 3 ) GLOBAL_UNCERTAINTY_ASSIGNED_CONTEXT ( ( #154 ) ) GLOBAL_UNIT_ASSIGNED_CONTEXT ( ( #106, #104, #111 ) ) REPRESENTATION_CONTEXT ( 'NONE', 'WORKASPACE' ) );
#58 = PRESENTATION_STYLE_ASSIGNMENT (( #45 ) ) ;
#59 = DIRECTION ( 'NONE',  ( -1.000000000000000000, -0.0000000000000000000, -0.0000000000000000000 ) ) ;
#60 = CIRCLE ( 'NONE', #5, 4.799999999999999822 ) ;
#61 = CIRCLE ( 'NONE', #175, 6.000000000000008882 ) ;
#62 = FACE_BOUND ( 'NONE', #170, .T. ) ;
#63 = SHAPE_DEFINITION_REPRESENTATION ( #133, #185 ) ;
#64 =( GEOMETRIC_REPRESENTATION_CONTEXT ( 3 ) GLOBAL_UNCERTAINTY_ASSIGNED_CONTEXT ( ( #78 ) ) GLOBAL_UNIT_ASSIGNED_CONTEXT ( ( #206, #178, #92 ) ) REPRESENTATION_CONTEXT ( 'NONE', 'WORKASPACE' ) );
#65 =( GEOMETRIC_REPRESENTATION_CONTEXT ( 3 ) GLOBAL_UNCERTAINTY_ASSIGNED_CONTEXT ( ( #182 ) ) GLOBAL_UNIT_ASSIGNED_CONTEXT ( ( #181, #166, #10 ) ) REPRESENTATION_CONTEXT ( 'NONE', 'WORKASPACE' ) );
#66 = ORIENTED_EDGE ( 'NONE', *, *, #39, .F. ) ;
#67 = SURFACE_SIDE_STYLE ('',( #28 ) ) ;
#68 = VERTEX_POINT ( 'NONE', #98 ) ;
#69 = MECHANICAL_DESIGN_GEOMETRIC_PRESENTATION_REPRESENTATION (  '', ( #112 ), #184 ) ;
#70 = DIRECTION ( 'NONE',  ( 1.000000000000000000, 0.0000000000000000000, 0.0000000000000000000 ) ) ;
#71 = FILL_AREA_STYLE ('',( #23 ) ) ;
#72 = APPLICATION_CONTEXT ( 'automotive_design' ) ;
#73 = CIRCLE ( 'NONE', #187, 6.000000000000008882 ) ;
#74 = AXIS2_PLACEMENT_3D ( 'NONE', #102, #88, #13 ) ;
#75 = UNCERTAINTY_MEASURE_WITH_UNIT (LENGTH_MEASURE( 1.000000000000000082E-05 ), #179, 'distance_accuracy_value', 'NONE');
#76 = CARTESIAN_POINT ( 'NONE',  ( 49.99999999999998579, 0.0000000000000000000, 0.0000000000000000000 ) ) ;
#77 = ADVANCED_FACE ( 'NONE', ( #183 ), #118, .T. ) ;
#78 = UNCERTAINTY_MEASURE_WITH_UNIT (LENGTH_MEASURE( 1.000000000000000082E-05 ), #206, 'distance_accuracy_value', 'NONE');
#79 = CONICAL_SURFACE ( 'NONE', #163, 4.799999999999999822, 0.7853981633974442822 ) ;
#80 = CIRCLE ( 'NONE', #20, 6.000000000000008882 ) ;
#81 = DIRECTION ( 'NONE',  ( 0.0000000000000000000, 0.0000000000000000000, -1.000000000000000000 ) ) ;
#82 = FACE_OUTER_BOUND ( 'NONE', #22, .T. ) ;
#83 = CARTESIAN_POINT ( 'NONE',  ( -3.673940397442060361E-16, 0.0000000000000000000, 0.0000000000000000000 ) ) ;
#84 =( NAMED_UNIT ( * ) SI_UNIT ( $, .STERADIAN. ) SOLID_ANGLE_UNIT ( ) );
#85 = SURFACE_STYLE_USAGE ( .BOTH. , #200 ) ;
#86 = FILL_AREA_STYLE_COLOUR ( '', #4 ) ;
#87 = PRODUCT_DEFINITION_FORMATION_WITH_SPECIFIED_SOURCE ( 'ANY', '', #144, .NOT_KNOWN. ) ;
#88 = DIRECTION ( 'NONE',  ( 1.000000000000000000, 0.0000000000000000000, 0.0000000000000000000 ) ) ;
#89 = DIRECTION ( 'NONE',  ( 0.0000000000000000000, 0.0000000000000000000, 1.000000000000000000 ) ) ;
#90 = ADVANCED_FACE ( 'NONE', ( #50 ), #203, .F. ) ;
#91 = DIRECTION ( 'NONE',  ( 1.000000000000000000, 0.0000000000000000000, 0.0000000000000000000 ) ) ;
#92 =( NAMED_UNIT ( * ) SI_UNIT ( $, .STERADIAN. ) SOLID_ANGLE_UNIT ( ) );
#93 = FACE_OUTER_BOUND ( 'NONE', #116, .T. ) ;
#94 = PRODUCT_DEFINITION ( 'UNKNOWN', '', #87, #42 ) ;
#95 = ORIENTED_EDGE ( 'NONE', *, *, #151, .T. ) ;
#96 = EDGE_LOOP ( 'NONE', ( #41 ) ) ;
#97 = COLOUR_RGB ( '',0.7921568627450980005, 0.8196078431372548767, 0.9333333333333333481 ) ;
#98 = CARTESIAN_POINT ( 'NONE',  ( 1.200000000000018607, 0.0000000000000000000, -6.000000000000008882 ) ) ;
#99 = ORIENTED_EDGE ( 'NONE', *, *, #142, .T. ) ;
#100 = COLOUR_RGB ( '',1.000000000000000000, 1.000000000000000000, 0.0000000000000000000 ) ;
#101 = AXIS2_PLACEMENT_3D ( 'NONE', #56, #195, #140 ) ;
#102 = CARTESIAN_POINT ( 'NONE',  ( -3.673940397442060361E-16, 6.000000000000000000, 0.0000000000000000000 ) ) ;
#103 = MECHANICAL_DESIGN_GEOMETRIC_PRESENTATION_REPRESENTATION (  '', ( #128 ), #57 ) ;
#104 =( NAMED_UNIT ( * ) PLANE_ANGLE_UNIT ( ) SI_UNIT ( $, .RADIAN. ) );
#105 = DIRECTION ( 'NONE',  ( -1.000000000000000000, -0.0000000000000000000, -0.0000000000000000000 ) ) ;
#106 =( LENGTH_UNIT ( ) NAMED_UNIT ( * ) SI_UNIT ( .MILLI., .METRE. ) );
#107 = CARTESIAN_POINT ( 'NONE',  ( -849.0000000000000000, 0.0000000000000000000, 0.0000000000000000000 ) ) ;
#108 = FACE_OUTER_BOUND ( 'NONE', #210, .T. ) ;
#109 = DIRECTION ( 'NONE',  ( 0.0000000000000000000, 0.0000000000000000000, -1.000000000000000000 ) ) ;
#110 = SURFACE_STYLE_FILL_AREA ( #199 ) ;
#111 =( NAMED_UNIT ( * ) SI_UNIT ( $, .STERADIAN. ) SOLID_ANGLE_UNIT ( ) );
#112 = STYLED_ITEM ( 'NONE', ( #26 ), #77 ) ;
#113 = FILL_AREA_STYLE ('',( #16 ) ) ;
#114 = CLOSED_SHELL ( 'NONE', ( #207, #14, #77 ) ) ;
#115 = CARTESIAN_POINT ( 'NONE',  ( 0.0000000000000000000, 0.0000000000000000000, 0.0000000000000000000 ) ) ;
#116 = EDGE_LOOP ( 'NONE', ( #34 ) ) ;
#117 = FILL_AREA_STYLE_COLOUR ( '', #97 ) ;
#118 = CONICAL_SURFACE ( 'NONE', #153, 2414.213562373055083, 1.178097245096166645 ) ;
#119 = PRESENTATION_STYLE_ASSIGNMENT (( #37 ) ) ;
#120 = DIRECTION ( 'NONE',  ( 0.0000000000000000000, 0.0000000000000000000, -1.000000000000000000 ) ) ;
#121 = MECHANICAL_DESIGN_GEOMETRIC_PRESENTATION_REPRESENTATION (  '', ( #157 ), #131 ) ;
#122 = DIRECTION ( 'NONE',  ( -1.000000000000000000, -0.0000000000000000000, -0.0000000000000000000 ) ) ;
#123 = SURFACE_STYLE_FILL_AREA ( #113 ) ;
#124 = CIRCLE ( 'NONE', #31, 6.000000000000018652 ) ;
#125 = SURFACE_STYLE_USAGE ( .BOTH. , #67 ) ;
#126 = SURFACE_STYLE_FILL_AREA ( #71 ) ;
#127 = CYLINDRICAL_SURFACE ( 'NONE', #168, 6.000000000000008882 ) ;
#128 = STYLED_ITEM ( 'NONE', ( #119 ), #48 ) ;
#129 = CARTESIAN_POINT ( 'NONE',  ( 1.200000000000018607, 0.0000000000000000000, 0.0000000000000000000 ) ) ;
#130 = FACE_OUTER_BOUND ( 'NONE', #194, .T. ) ;
#131 =( GEOMETRIC_REPRESENTATION_CONTEXT ( 3 ) GLOBAL_UNCERTAINTY_ASSIGNED_CONTEXT ( ( #3 ) ) GLOBAL_UNIT_ASSIGNED_CONTEXT ( ( #202, #55, #149 ) ) REPRESENTATION_CONTEXT ( 'NONE', 'WORKASPACE' ) );
#132 = CARTESIAN_POINT ( 'NONE',  ( 49.99999999999998579, 0.0000000000000000000, 0.0000000000000000000 ) ) ;
#133 = PRODUCT_DEFINITION_SHAPE ( 'NONE', 'NONE',  #94 ) ;
#134 = DIRECTION ( 'NONE',  ( 0.0000000000000000000, 0.0000000000000000000, -1.000000000000000000 ) ) ;
#135 = ADVANCED_FACE ( 'NONE', ( #82, #62 ), #79, .T. ) ;
#136 = FACE_OUTER_BOUND ( 'NONE', #180, .T. ) ;
#137 = PRESENTATION_STYLE_ASSIGNMENT (( #125 ) ) ;
#138 =( GEOMETRIC_REPRESENTATION_CONTEXT ( 3 ) GLOBAL_UNCERTAINTY_ASSIGNED_CONTEXT ( ( #75 ) ) GLOBAL_UNIT_ASSIGNED_CONTEXT ( ( #179, #33, #139 ) ) REPRESENTATION_CONTEXT ( 'NONE', 'WORKASPACE' ) );
#139 =( NAMED_UNIT ( * ) SI_UNIT ( $, .STERADIAN. ) SOLID_ANGLE_UNIT ( ) );
#140 = DIRECTION ( 'NONE',  ( 1.000000000000000000, 0.0000000000000000000, 0.0000000000000000000 ) ) ;
#141 = AXIS2_PLACEMENT_3D ( 'NONE', #176, #36, #120 ) ;
#142 = EDGE_CURVE ( 'NONE', #7, #7, #61, .T. ) ;
#143 = CARTESIAN_POINT ( 'NONE',  ( 49.99999999999998579, 0.0000000000000000000, -6.000000000000008882 ) ) ;
#144 = PRODUCT ( '03-1726', '03-1726', '', ( #213 ) ) ;
#145 = DIRECTION ( 'NONE',  ( 0.0000000000000000000, 0.0000000000000000000, -1.000000000000000000 ) ) ;
#146 = DIRECTION ( 'NONE',  ( 0.0000000000000000000, 0.0000000000000000000, -1.000000000000000000 ) ) ;
#147 = APPLICATION_PROTOCOL_DEFINITION ( 'draft international standard', 'automotive_design', 1998, #72 ) ;
#148 = EDGE_LOOP ( 'NONE', ( #18 ) ) ;
#149 =( NAMED_UNIT ( * ) SI_UNIT ( $, .STERADIAN. ) SOLID_ANGLE_UNIT ( ) );
#150 = ADVANCED_FACE ( 'NONE', ( #93, #136 ), #212, .T. ) ;
#151 = EDGE_CURVE ( 'NONE', #9, #9, #73, .T. ) ;
#152 = SURFACE_SIDE_STYLE ('',( #38 ) ) ;
#153 = AXIS2_PLACEMENT_3D ( 'NONE', #107, #122, #11 ) ;
#154 = UNCERTAINTY_MEASURE_WITH_UNIT (LENGTH_MEASURE( 1.000000000000000082E-05 ), #106, 'distance_accuracy_value', 'NONE');
#155 = DIRECTION ( 'NONE',  ( 1.000000000000000000, 0.0000000000000000000, 0.0000000000000000000 ) ) ;
#156 = EDGE_LOOP ( 'NONE', ( #66 ) ) ;
#157 = STYLED_ITEM ( 'NONE', ( #164 ), #14 ) ;
#158 =( NAMED_UNIT ( * ) PLANE_ANGLE_UNIT ( ) SI_UNIT ( $, .RADIAN. ) );
#159 = EDGE_CURVE ( 'NONE', #68, #68, #80, .T. ) ;
#160 = DIRECTION ( 'NONE',  ( -1.000000000000000000, -0.0000000000000000000, -0.0000000000000000000 ) ) ;
#161 = ADVANCED_FACE ( 'NONE', ( #108 ), #27, .T. ) ;
#162 = DIRECTION ( 'NONE',  ( -1.000000000000000000, -0.0000000000000000000, -0.0000000000000000000 ) ) ;
#163 = AXIS2_PLACEMENT_3D ( 'NONE', #83, #91, #32 ) ;
#164 = PRESENTATION_STYLE_ASSIGNMENT (( #85 ) ) ;
#165 = MECHANICAL_DESIGN_GEOMETRIC_PRESENTATION_REPRESENTATION (  '', ( #51 ), #138 ) ;
#166 =( NAMED_UNIT ( * ) PLANE_ANGLE_UNIT ( ) SI_UNIT ( $, .RADIAN. ) );
#167 = SURFACE_SIDE_STYLE ('',( #123 ) ) ;
#168 = AXIS2_PLACEMENT_3D ( 'NONE', #115, #160, #89 ) ;
#169 = EDGE_CURVE ( 'NONE', #191, #191, #60, .T. ) ;
#170 = EDGE_LOOP ( 'NONE', ( #44 ) ) ;
#171 = ORIENTED_EDGE ( 'NONE', *, *, #142, .F. ) ;
#172 = FACE_OUTER_BOUND ( 'NONE', #96, .T. ) ;
#173 = CARTESIAN_POINT ( 'NONE',  ( 49.99999999999998579, 0.0000000000000000000, 0.0000000000000000000 ) ) ;
#174 = DIRECTION ( 'NONE',  ( 0.0000000000000000000, 0.0000000000000000000, 1.000000000000000000 ) ) ;
#175 = AXIS2_PLACEMENT_3D ( 'NONE', #173, #70, #146 ) ;
#176 = CARTESIAN_POINT ( 'NONE',  ( 49.99999999999998579, 0.0000000000000000000, 0.0000000000000000000 ) ) ;
#177 = CARTESIAN_POINT ( 'NONE',  ( -3.673940397442060361E-16, 0.0000000000000000000, 0.0000000000000000000 ) ) ;
#178 =( NAMED_UNIT ( * ) PLANE_ANGLE_UNIT ( ) SI_UNIT ( $, .RADIAN. ) );
#179 =( LENGTH_UNIT ( ) NAMED_UNIT ( * ) SI_UNIT ( .MILLI., .METRE. ) );
#180 = EDGE_LOOP ( 'NONE', ( #192 ) ) ;
#181 =( LENGTH_UNIT ( ) NAMED_UNIT ( * ) SI_UNIT ( .MILLI., .METRE. ) );
#182 = UNCERTAINTY_MEASURE_WITH_UNIT (LENGTH_MEASURE( 1.000000000000000082E-05 ), #181, 'distance_accuracy_value', 'NONE');
#183 = FACE_OUTER_BOUND ( 'NONE', #156, .T. ) ;
#184 =( GEOMETRIC_REPRESENTATION_CONTEXT ( 3 ) GLOBAL_UNCERTAINTY_ASSIGNED_CONTEXT ( ( #54 ) ) GLOBAL_UNIT_ASSIGNED_CONTEXT ( ( #196, #158, #84 ) ) REPRESENTATION_CONTEXT ( 'NONE', 'WORKASPACE' ) );
#185 = ADVANCED_BREP_SHAPE_REPRESENTATION ( '03-1726', ( #48, #6, #101 ), #64 ) ;
#186 = DIRECTION ( 'NONE',  ( 1.000000000000000000, 0.0000000000000000000, 0.0000000000000000000 ) ) ;
#187 = AXIS2_PLACEMENT_3D ( 'NONE', #76, #188, #109 ) ;
#188 = DIRECTION ( 'NONE',  ( 1.000000000000000000, 0.0000000000000000000, 0.0000000000000000000 ) ) ;
#189 = SURFACE_STYLE_USAGE ( .BOTH. , #167 ) ;
#190 = SURFACE_SIDE_STYLE ('',( #110 ) ) ;
#191 = VERTEX_POINT ( 'NONE', #208 ) ;
#192 = ORIENTED_EDGE ( 'NONE', *, *, #151, .F. ) ;
#193 = PRESENTATION_LAYER_ASSIGNMENT (  '', '', ( #51 ) ) ;
#194 = EDGE_LOOP ( 'NONE', ( #99 ) ) ;
#195 = DIRECTION ( 'NONE',  ( 0.0000000000000000000, 0.0000000000000000000, 1.000000000000000000 ) ) ;
#196 =( LENGTH_UNIT ( ) NAMED_UNIT ( * ) SI_UNIT ( .MILLI., .METRE. ) );
#197 = COLOUR_RGB ( '',1.000000000000000000, 1.000000000000000000, 0.0000000000000000000 ) ;
#198 = COLOUR_RGB ( '',0.7921568627450980005, 0.8196078431372548767, 0.9333333333333333481 ) ;
#199 = FILL_AREA_STYLE ('',( #117 ) ) ;
#200 = SURFACE_SIDE_STYLE ('',( #126 ) ) ;
#201 = AXIS2_PLACEMENT_3D ( 'NONE', #53, #105, #174 ) ;
#202 =( LENGTH_UNIT ( ) NAMED_UNIT ( * ) SI_UNIT ( .MILLI., .METRE. ) );
#203 = PLANE ( 'NONE',  #74 ) ;
#204 = APPLICATION_CONTEXT ( 'automotive_design' ) ;
#205 = AXIS2_PLACEMENT_3D ( 'NONE', #132, #186, #81 ) ;
#206 =( LENGTH_UNIT ( ) NAMED_UNIT ( * ) SI_UNIT ( .MILLI., .METRE. ) );
#207 = ADVANCED_FACE ( 'NONE', ( #8 ), #24, .F. ) ;
#208 = CARTESIAN_POINT ( 'NONE',  ( -3.673940397442060361E-16, 0.0000000000000000000, -4.799999999999999822 ) ) ;
#209 = PRESENTATION_LAYER_ASSIGNMENT (  '', '', ( #12 ) ) ;
#210 = EDGE_LOOP ( 'NONE', ( #95 ) ) ;
#211 = DIRECTION ( 'NONE',  ( 0.0000000000000000000, 0.0000000000000000000, 1.000000000000000000 ) ) ;
#212 = CYLINDRICAL_SURFACE ( 'NONE', #201, 6.000000000000008882 ) ;
#213 = PRODUCT_CONTEXT ( 'NONE', #204, 'mechanical' ) ;
ENDSEC;
END-ISO-10303-21;
