ISO-10303-21;
HEADER;
FILE_DESCRIPTION (( 'STEP AP214' ),
    '1' );
FILE_NAME ('03-1727.STEP',
    '2021-10-01T05:51:52',
    ( 'USER' ),
    ( '' ),
    'SwSTEP 2.0',
    'SolidWorks 2018',
    '' );
FILE_SCHEMA (( 'AUTOMOTIVE_DESIGN' ));
ENDSEC;

DATA;
#1 = EDGE_LOOP ( 'NONE', ( #102 ) ) ;
#2 = EDGE_LOOP ( 'NONE', ( #7 ) ) ;
#3 = ORIENTED_EDGE ( 'NONE', *, *, #143, .T. ) ;
#4 =( GEOMETRIC_REPRESENTATION_CONTEXT ( 3 ) GLOBAL_UNCERTAINTY_ASSIGNED_CONTEXT ( ( #166 ) ) GLOBAL_UNIT_ASSIGNED_CONTEXT ( ( #89, #174, #20 ) ) REPRESENTATION_CONTEXT ( 'NONE', 'WORKASPACE' ) );
#5 = DIRECTION ( 'NONE',  ( 1.000000000000000000, 0.0000000000000000000, 0.0000000000000000000 ) ) ;
#6 = DIRECTION ( 'NONE',  ( -1.000000000000000000, -0.0000000000000000000, -0.0000000000000000000 ) ) ;
#7 = ORIENTED_EDGE ( 'NONE', *, *, #154, .F. ) ;
#8 = DIRECTION ( 'NONE',  ( -1.000000000000000000, -0.0000000000000000000, -0.0000000000000000000 ) ) ;
#9 = AXIS2_PLACEMENT_3D ( 'NONE', #185, #173, #55 ) ;
#10 = FACE_BOUND ( 'NONE', #1, .T. ) ;
#11 = FILL_AREA_STYLE_COLOUR ( '', #84 ) ;
#12 = ORIENTED_EDGE ( 'NONE', *, *, #169, .F. ) ;
#13 = DIRECTION ( 'NONE',  ( -1.000000000000000000, -0.0000000000000000000, -0.0000000000000000000 ) ) ;
#14 = ADVANCED_FACE ( 'NONE', ( #212 ), #30, .F. ) ;
#15 = CARTESIAN_POINT ( 'NONE',  ( 49.99999999999998579, 0.0000000000000000000, 0.0000000000000000000 ) ) ;
#16 = FILL_AREA_STYLE_COLOUR ( '', #57 ) ;
#17 = UNCERTAINTY_MEASURE_WITH_UNIT (LENGTH_MEASURE( 1.000000000000000082E-05 ), #53, 'distance_accuracy_value', 'NONE');
#18 = CARTESIAN_POINT ( 'NONE',  ( 1.210000000000019504, 0.0000000000000000000, 0.0000000000000000000 ) ) ;
#19 = CARTESIAN_POINT ( 'NONE',  ( 1.210000000000019504, 0.0000000000000000000, -6.050000000000008704 ) ) ;
#20 =( NAMED_UNIT ( * ) SI_UNIT ( $, .STERADIAN. ) SOLID_ANGLE_UNIT ( ) );
#21 = STYLED_ITEM ( 'NONE', ( #128 ), #117 ) ;
#22 = FILL_AREA_STYLE_COLOUR ( '', #49 ) ;
#23 = SURFACE_STYLE_FILL_AREA ( #42 ) ;
#24 = EDGE_LOOP ( 'NONE', ( #80 ) ) ;
#25 = FILL_AREA_STYLE ('',( #11 ) ) ;
#26 = CIRCLE ( 'NONE', #181, 6.050000000000018474 ) ;
#27 = DIRECTION ( 'NONE',  ( 0.0000000000000000000, 0.0000000000000000000, -1.000000000000000000 ) ) ;
#28 = SURFACE_STYLE_FILL_AREA ( #52 ) ;
#29 = SURFACE_STYLE_USAGE ( .BOTH. , #101 ) ;
#30 = PLANE ( 'NONE',  #195 ) ;
#31 = ADVANCED_FACE ( 'NONE', ( #151, #10 ), #200, .T. ) ;
#32 = CLOSED_SHELL ( 'NONE', ( #97, #14, #31, #189 ) ) ;
#33 = AXIS2_PLACEMENT_3D ( 'NONE', #142, #148, #205 ) ;
#34 = UNCERTAINTY_MEASURE_WITH_UNIT (LENGTH_MEASURE( 1.000000000000000082E-05 ), #104, 'distance_accuracy_value', 'NONE');
#35 = SHAPE_DEFINITION_REPRESENTATION ( #187, #155 ) ;
#36 = DIRECTION ( 'NONE',  ( 0.0000000000000000000, 0.0000000000000000000, -1.000000000000000000 ) ) ;
#37 = CIRCLE ( 'NONE', #172, 6.050000000000008704 ) ;
#38 =( GEOMETRIC_REPRESENTATION_CONTEXT ( 3 ) GLOBAL_UNCERTAINTY_ASSIGNED_CONTEXT ( ( #134 ) ) GLOBAL_UNIT_ASSIGNED_CONTEXT ( ( #194, #121, #211 ) ) REPRESENTATION_CONTEXT ( 'NONE', 'WORKASPACE' ) );
#39 =( NAMED_UNIT ( * ) SI_UNIT ( $, .STERADIAN. ) SOLID_ANGLE_UNIT ( ) );
#40 = CARTESIAN_POINT ( 'NONE',  ( 0.0000000000000000000, 0.0000000000000000000, 0.0000000000000000000 ) ) ;
#41 = CARTESIAN_POINT ( 'NONE',  ( 49.99999999999998579, 0.0000000000000000000, -6.050000000000008704 ) ) ;
#42 = FILL_AREA_STYLE ('',( #45 ) ) ;
#43 = CONICAL_SURFACE ( 'NONE', #59, 2414.213562373058721, 1.178097245096167089 ) ;
#44 = UNCERTAINTY_MEASURE_WITH_UNIT (LENGTH_MEASURE( 1.000000000000000082E-05 ), #62, 'distance_accuracy_value', 'NONE');
#45 = FILL_AREA_STYLE_COLOUR ( '', #163 ) ;
#46 = VERTEX_POINT ( 'NONE', #100 ) ;
#47 =( GEOMETRIC_REPRESENTATION_CONTEXT ( 3 ) GLOBAL_UNCERTAINTY_ASSIGNED_CONTEXT ( ( #17 ) ) GLOBAL_UNIT_ASSIGNED_CONTEXT ( ( #53, #145, #209 ) ) REPRESENTATION_CONTEXT ( 'NONE', 'WORKASPACE' ) );
#48 = ORIENTED_EDGE ( 'NONE', *, *, #143, .F. ) ;
#49 = COLOUR_RGB ( '',1.000000000000000000, 1.000000000000000000, 0.0000000000000000000 ) ;
#50 =( GEOMETRIC_REPRESENTATION_CONTEXT ( 3 ) GLOBAL_UNCERTAINTY_ASSIGNED_CONTEXT ( ( #44 ) ) GLOBAL_UNIT_ASSIGNED_CONTEXT ( ( #62, #75, #39 ) ) REPRESENTATION_CONTEXT ( 'NONE', 'WORKASPACE' ) );
#51 =( NAMED_UNIT ( * ) SI_UNIT ( $, .STERADIAN. ) SOLID_ANGLE_UNIT ( ) );
#52 = FILL_AREA_STYLE ('',( #131 ) ) ;
#53 =( LENGTH_UNIT ( ) NAMED_UNIT ( * ) SI_UNIT ( .MILLI., .METRE. ) );
#54 = AXIS2_PLACEMENT_3D ( 'NONE', #79, #180, #178 ) ;
#55 = DIRECTION ( 'NONE',  ( 0.0000000000000000000, 0.0000000000000000000, -1.000000000000000000 ) ) ;
#56 =( NAMED_UNIT ( * ) PLANE_ANGLE_UNIT ( ) SI_UNIT ( $, .RADIAN. ) );
#57 = COLOUR_RGB ( '',0.7921568627450980005, 0.8196078431372548767, 0.9333333333333333481 ) ;
#58 = APPLICATION_CONTEXT ( 'automotive_design' ) ;
#59 = AXIS2_PLACEMENT_3D ( 'NONE', #92, #8, #191 ) ;
#60 = APPLICATION_CONTEXT ( 'automotive_design' ) ;
#61 = DIRECTION ( 'NONE',  ( 0.0000000000000000000, 0.0000000000000000000, 1.000000000000000000 ) ) ;
#62 =( LENGTH_UNIT ( ) NAMED_UNIT ( * ) SI_UNIT ( .MILLI., .METRE. ) );
#63 = DIRECTION ( 'NONE',  ( 1.000000000000000000, 0.0000000000000000000, 0.0000000000000000000 ) ) ;
#64 = STYLED_ITEM ( 'NONE', ( #196 ), #74 ) ;
#65 = CARTESIAN_POINT ( 'NONE',  ( 0.0000000000000000000, 0.0000000000000000000, 0.0000000000000000000 ) ) ;
#66 = SURFACE_STYLE_USAGE ( .BOTH. , #171 ) ;
#67 = DIRECTION ( 'NONE',  ( 1.000000000000000000, 0.0000000000000000000, 0.0000000000000000000 ) ) ;
#68 = PRESENTATION_LAYER_ASSIGNMENT (  '', '', ( #85 ) ) ;
#69 = FACE_OUTER_BOUND ( 'NONE', #153, .T. ) ;
#70 = CIRCLE ( 'NONE', #33, 4.839999999999997193 ) ;
#71 = PRESENTATION_LAYER_ASSIGNMENT (  '', '', ( #21 ) ) ;
#72 = CIRCLE ( 'NONE', #170, 6.050000000000008704 ) ;
#73 = FILL_AREA_STYLE ('',( #16 ) ) ;
#74 = MANIFOLD_SOLID_BREP ( 'ºÐÇÒ2[1]', #32 ) ;
#75 =( NAMED_UNIT ( * ) PLANE_ANGLE_UNIT ( ) SI_UNIT ( $, .RADIAN. ) );
#76 = PRESENTATION_STYLE_ASSIGNMENT (( #140 ) ) ;
#77 = PRESENTATION_STYLE_ASSIGNMENT (( #66 ) ) ;
#78 = APPLICATION_PROTOCOL_DEFINITION ( 'draft international standard', 'automotive_design', 1998, #60 ) ;
#79 = CARTESIAN_POINT ( 'NONE',  ( 49.99999999999998579, 0.0000000000000000000, 0.0000000000000000000 ) ) ;
#80 = ORIENTED_EDGE ( 'NONE', *, *, #138, .T. ) ;
#81 = CARTESIAN_POINT ( 'NONE',  ( 0.0000000000000000000, 0.0000000000000000000, 0.0000000000000000000 ) ) ;
#82 = SURFACE_STYLE_FILL_AREA ( #125 ) ;
#83 = STYLED_ITEM ( 'NONE', ( #77 ), #158 ) ;
#84 = COLOUR_RGB ( '',1.000000000000000000, 1.000000000000000000, 0.0000000000000000000 ) ;
#85 = STYLED_ITEM ( 'NONE', ( #199 ), #155 ) ;
#86 = SURFACE_STYLE_USAGE ( .BOTH. , #95 ) ;
#87 = SURFACE_STYLE_FILL_AREA ( #73 ) ;
#88 = MECHANICAL_DESIGN_GEOMETRIC_PRESENTATION_REPRESENTATION (  '', ( #21 ), #4 ) ;
#89 =( LENGTH_UNIT ( ) NAMED_UNIT ( * ) SI_UNIT ( .MILLI., .METRE. ) );
#90 = VERTEX_POINT ( 'NONE', #19 ) ;
#91 = MECHANICAL_DESIGN_GEOMETRIC_PRESENTATION_REPRESENTATION (  '', ( #118 ), #203 ) ;
#92 = CARTESIAN_POINT ( 'NONE',  ( -849.0000000000000000, 0.0000000000000000000, 0.0000000000000000000 ) ) ;
#93 = MANIFOLD_SOLID_BREP ( 'ºÐÇÒ2[2]', #116 ) ;
#94 = ORIENTED_EDGE ( 'NONE', *, *, #154, .T. ) ;
#95 = SURFACE_SIDE_STYLE ('',( #28 ) ) ;
#96 = VERTEX_POINT ( 'NONE', #119 ) ;
#97 = ADVANCED_FACE ( 'NONE', ( #149, #208 ), #124, .T. ) ;
#98 = MECHANICAL_DESIGN_GEOMETRIC_PRESENTATION_REPRESENTATION (  '', ( #83 ), #47 ) ;
#99 = PRODUCT_DEFINITION_CONTEXT ( 'detailed design', #58, 'design' ) ;
#100 = CARTESIAN_POINT ( 'NONE',  ( -3.704556567420743261E-16, 0.0000000000000000000, -4.839999999999997193 ) ) ;
#101 = SURFACE_SIDE_STYLE ('',( #159 ) ) ;
#102 = ORIENTED_EDGE ( 'NONE', *, *, #138, .F. ) ;
#103 = CARTESIAN_POINT ( 'NONE',  ( 49.99999999999998579, 0.0000000000000000000, -6.050000000000008704 ) ) ;
#104 =( LENGTH_UNIT ( ) NAMED_UNIT ( * ) SI_UNIT ( .MILLI., .METRE. ) );
#105 = VERTEX_POINT ( 'NONE', #103 ) ;
#106 = CARTESIAN_POINT ( 'NONE',  ( -3.704556567420743261E-16, 0.0000000000000000000, 0.0000000000000000000 ) ) ;
#107 = PRODUCT_DEFINITION_FORMATION_WITH_SPECIFIED_SOURCE ( 'ANY', '', #160, .NOT_KNOWN. ) ;
#108 =( NAMED_UNIT ( * ) SI_UNIT ( $, .STERADIAN. ) SOLID_ANGLE_UNIT ( ) );
#109 = EDGE_LOOP ( 'NONE', ( #48 ) ) ;
#110 = DIRECTION ( 'NONE',  ( 0.0000000000000000000, 0.0000000000000000000, 1.000000000000000000 ) ) ;
#111 = DIRECTION ( 'NONE',  ( -1.000000000000000000, -0.0000000000000000000, -0.0000000000000000000 ) ) ;
#112 = CIRCLE ( 'NONE', #9, 6.050000000000008704 ) ;
#113 = CARTESIAN_POINT ( 'NONE',  ( 148.4940079476427286, 0.0000000000000000000, 0.0000000000000000000 ) ) ;
#114 = CARTESIAN_POINT ( 'NONE',  ( -3.704556567420743261E-16, 6.049999999999999822, 0.0000000000000000000 ) ) ;
#115 = MECHANICAL_DESIGN_GEOMETRIC_PRESENTATION_REPRESENTATION (  '', ( #85 ), #50 ) ;
#116 = CLOSED_SHELL ( 'NONE', ( #176, #117, #158 ) ) ;
#117 = ADVANCED_FACE ( 'NONE', ( #168, #137 ), #186, .T. ) ;
#118 = STYLED_ITEM ( 'NONE', ( #76 ), #93 ) ;
#119 = CARTESIAN_POINT ( 'NONE',  ( 148.4940079476427286, 0.0000000000000000000, 6.050000000000018474 ) ) ;
#120 = EDGE_LOOP ( 'NONE', ( #94 ) ) ;
#121 =( NAMED_UNIT ( * ) PLANE_ANGLE_UNIT ( ) SI_UNIT ( $, .RADIAN. ) );
#122 = SURFACE_SIDE_STYLE ('',( #23 ) ) ;
#123 = DIRECTION ( 'NONE',  ( 0.0000000000000000000, 0.0000000000000000000, -1.000000000000000000 ) ) ;
#124 = CYLINDRICAL_SURFACE ( 'NONE', #206, 6.050000000000008704 ) ;
#125 = FILL_AREA_STYLE ('',( #22 ) ) ;
#126 = PRESENTATION_LAYER_ASSIGNMENT (  '', '', ( #83 ) ) ;
#127 = PRODUCT_RELATED_PRODUCT_CATEGORY ( 'part', '', ( #160 ) ) ;
#128 = PRESENTATION_STYLE_ASSIGNMENT (( #29 ) ) ;
#129 = EDGE_CURVE ( 'NONE', #96, #96, #26, .T. ) ;
#130 = COLOUR_RGB ( '',0.7921568627450980005, 0.8196078431372548767, 0.9333333333333333481 ) ;
#131 = FILL_AREA_STYLE_COLOUR ( '', #130 ) ;
#132 = EDGE_LOOP ( 'NONE', ( #175 ) ) ;
#133 = EDGE_LOOP ( 'NONE', ( #12 ) ) ;
#134 = UNCERTAINTY_MEASURE_WITH_UNIT (LENGTH_MEASURE( 1.000000000000000082E-05 ), #194, 'distance_accuracy_value', 'NONE');
#135 = PRODUCT_CONTEXT ( 'NONE', #60, 'mechanical' ) ;
#136 = AXIS2_PLACEMENT_3D ( 'NONE', #81, #164, #177 ) ;
#137 = FACE_OUTER_BOUND ( 'NONE', #132, .T. ) ;
#138 = EDGE_CURVE ( 'NONE', #46, #46, #70, .T. ) ;
#139 = ORIENTED_EDGE ( 'NONE', *, *, #169, .T. ) ;
#140 = SURFACE_STYLE_USAGE ( .BOTH. , #122 ) ;
#141 = ORIENTED_EDGE ( 'NONE', *, *, #129, .F. ) ;
#142 = CARTESIAN_POINT ( 'NONE',  ( -3.704556567420743261E-16, 0.0000000000000000000, 0.0000000000000000000 ) ) ;
#143 = EDGE_CURVE ( 'NONE', #105, #105, #112, .T. ) ;
#144 = EDGE_LOOP ( 'NONE', ( #3 ) ) ;
#145 =( NAMED_UNIT ( * ) PLANE_ANGLE_UNIT ( ) SI_UNIT ( $, .RADIAN. ) );
#146 = DIRECTION ( 'NONE',  ( 1.000000000000000000, 0.0000000000000000000, 0.0000000000000000000 ) ) ;
#147 = SURFACE_SIDE_STYLE ('',( #87 ) ) ;
#148 = DIRECTION ( 'NONE',  ( -1.000000000000000000, -0.0000000000000000000, -0.0000000000000000000 ) ) ;
#149 = FACE_OUTER_BOUND ( 'NONE', #120, .T. ) ;
#150 =( GEOMETRIC_REPRESENTATION_CONTEXT ( 3 ) GLOBAL_UNCERTAINTY_ASSIGNED_CONTEXT ( ( #34 ) ) GLOBAL_UNIT_ASSIGNED_CONTEXT ( ( #104, #56, #108 ) ) REPRESENTATION_CONTEXT ( 'NONE', 'WORKASPACE' ) );
#151 = FACE_OUTER_BOUND ( 'NONE', #2, .T. ) ;
#152 = DIRECTION ( 'NONE',  ( 0.0000000000000000000, 0.0000000000000000000, 1.000000000000000000 ) ) ;
#153 = EDGE_LOOP ( 'NONE', ( #141 ) ) ;
#154 = EDGE_CURVE ( 'NONE', #90, #90, #72, .T. ) ;
#155 = ADVANCED_BREP_SHAPE_REPRESENTATION ( '03-1727', ( #74, #93, #136 ), #38 ) ;
#156 =( LENGTH_UNIT ( ) NAMED_UNIT ( * ) SI_UNIT ( .MILLI., .METRE. ) );
#157 = AXIS2_PLACEMENT_3D ( 'NONE', #40, #13, #61 ) ;
#158 = ADVANCED_FACE ( 'NONE', ( #69 ), #43, .T. ) ;
#159 = SURFACE_STYLE_FILL_AREA ( #25 ) ;
#160 = PRODUCT ( '03-1727', '03-1727', '', ( #135 ) ) ;
#161 = PRODUCT_DEFINITION ( 'UNKNOWN', '', #107, #99 ) ;
#162 = APPLICATION_PROTOCOL_DEFINITION ( 'draft international standard', 'automotive_design', 1998, #58 ) ;
#163 = COLOUR_RGB ( '',0.7921568627450980005, 0.8196078431372548767, 0.9333333333333333481 ) ;
#164 = DIRECTION ( 'NONE',  ( 0.0000000000000000000, 0.0000000000000000000, 1.000000000000000000 ) ) ;
#165 = CARTESIAN_POINT ( 'NONE',  ( 49.99999999999998579, 0.0000000000000000000, 0.0000000000000000000 ) ) ;
#166 = UNCERTAINTY_MEASURE_WITH_UNIT (LENGTH_MEASURE( 1.000000000000000082E-05 ), #89, 'distance_accuracy_value', 'NONE');
#167 = EDGE_LOOP ( 'NONE', ( #139 ) ) ;
#168 = FACE_OUTER_BOUND ( 'NONE', #167, .T. ) ;
#169 = EDGE_CURVE ( 'NONE', #179, #179, #37, .T. ) ;
#170 = AXIS2_PLACEMENT_3D ( 'NONE', #18, #63, #123 ) ;
#171 = SURFACE_SIDE_STYLE ('',( #82 ) ) ;
#172 = AXIS2_PLACEMENT_3D ( 'NONE', #15, #146, #36 ) ;
#173 = DIRECTION ( 'NONE',  ( 1.000000000000000000, 0.0000000000000000000, 0.0000000000000000000 ) ) ;
#174 =( NAMED_UNIT ( * ) PLANE_ANGLE_UNIT ( ) SI_UNIT ( $, .RADIAN. ) );
#175 = ORIENTED_EDGE ( 'NONE', *, *, #129, .T. ) ;
#176 = ADVANCED_FACE ( 'NONE', ( #213 ), #201, .F. ) ;
#177 = DIRECTION ( 'NONE',  ( 1.000000000000000000, 0.0000000000000000000, 0.0000000000000000000 ) ) ;
#178 = DIRECTION ( 'NONE',  ( 0.0000000000000000000, 0.0000000000000000000, -1.000000000000000000 ) ) ;
#179 = VERTEX_POINT ( 'NONE', #41 ) ;
#180 = DIRECTION ( 'NONE',  ( 1.000000000000000000, 0.0000000000000000000, 0.0000000000000000000 ) ) ;
#181 = AXIS2_PLACEMENT_3D ( 'NONE', #113, #111, #152 ) ;
#182 = FACE_OUTER_BOUND ( 'NONE', #144, .T. ) ;
#183 = UNCERTAINTY_MEASURE_WITH_UNIT (LENGTH_MEASURE( 1.000000000000000082E-05 ), #156, 'distance_accuracy_value', 'NONE');
#184 = AXIS2_PLACEMENT_3D ( 'NONE', #106, #5, #188 ) ;
#185 = CARTESIAN_POINT ( 'NONE',  ( 49.99999999999998579, 0.0000000000000000000, 0.0000000000000000000 ) ) ;
#186 = CYLINDRICAL_SURFACE ( 'NONE', #157, 6.050000000000008704 ) ;
#187 = PRODUCT_DEFINITION_SHAPE ( 'NONE', 'NONE',  #161 ) ;
#188 = DIRECTION ( 'NONE',  ( 0.0000000000000000000, 0.0000000000000000000, -1.000000000000000000 ) ) ;
#189 = ADVANCED_FACE ( 'NONE', ( #182 ), #190, .T. ) ;
#190 = PLANE ( 'NONE',  #198 ) ;
#191 = DIRECTION ( 'NONE',  ( 0.0000000000000000000, 0.0000000000000000000, 1.000000000000000000 ) ) ;
#192 = PRESENTATION_LAYER_ASSIGNMENT (  '', '', ( #118 ) ) ;
#193 = DIRECTION ( 'NONE',  ( 1.000000000000000000, 0.0000000000000000000, 0.0000000000000000000 ) ) ;
#194 =( LENGTH_UNIT ( ) NAMED_UNIT ( * ) SI_UNIT ( .MILLI., .METRE. ) );
#195 = AXIS2_PLACEMENT_3D ( 'NONE', #114, #67, #27 ) ;
#196 = PRESENTATION_STYLE_ASSIGNMENT (( #86 ) ) ;
#197 =( NAMED_UNIT ( * ) PLANE_ANGLE_UNIT ( ) SI_UNIT ( $, .RADIAN. ) );
#198 = AXIS2_PLACEMENT_3D ( 'NONE', #165, #193, #204 ) ;
#199 = PRESENTATION_STYLE_ASSIGNMENT (( #202 ) ) ;
#200 = CONICAL_SURFACE ( 'NONE', #184, 4.839999999999997193, 0.7853981633974447263 ) ;
#201 = PLANE ( 'NONE',  #54 ) ;
#202 = SURFACE_STYLE_USAGE ( .BOTH. , #147 ) ;
#203 =( GEOMETRIC_REPRESENTATION_CONTEXT ( 3 ) GLOBAL_UNCERTAINTY_ASSIGNED_CONTEXT ( ( #183 ) ) GLOBAL_UNIT_ASSIGNED_CONTEXT ( ( #156, #197, #51 ) ) REPRESENTATION_CONTEXT ( 'NONE', 'WORKASPACE' ) );
#204 = DIRECTION ( 'NONE',  ( 0.0000000000000000000, 0.0000000000000000000, -1.000000000000000000 ) ) ;
#205 = DIRECTION ( 'NONE',  ( 0.0000000000000000000, 0.0000000000000000000, -1.000000000000000000 ) ) ;
#206 = AXIS2_PLACEMENT_3D ( 'NONE', #65, #6, #110 ) ;
#207 = MECHANICAL_DESIGN_GEOMETRIC_PRESENTATION_REPRESENTATION (  '', ( #64 ), #150 ) ;
#208 = FACE_OUTER_BOUND ( 'NONE', #109, .T. ) ;
#209 =( NAMED_UNIT ( * ) SI_UNIT ( $, .STERADIAN. ) SOLID_ANGLE_UNIT ( ) );
#210 = PRESENTATION_LAYER_ASSIGNMENT (  '', '', ( #64 ) ) ;
#211 =( NAMED_UNIT ( * ) SI_UNIT ( $, .STERADIAN. ) SOLID_ANGLE_UNIT ( ) );
#212 = FACE_OUTER_BOUND ( 'NONE', #24, .T. ) ;
#213 = FACE_OUTER_BOUND ( 'NONE', #133, .T. ) ;
ENDSEC;
END-ISO-10303-21;
