ISO-10303-21;
HEADER;
FILE_DESCRIPTION (( 'STEP AP214' ),
    '1' );
FILE_NAME ('03-1728.STEP',
    '2021-10-01T05:52:11',
    ( 'USER' ),
    ( '' ),
    'SwSTEP 2.0',
    'SolidWorks 2018',
    '' );
FILE_SCHEMA (( 'AUTOMOTIVE_DESIGN' ));
ENDSEC;

DATA;
#1 = EDGE_CURVE ( 'NONE', #151, #151, #17, .T. ) ;
#2 = FILL_AREA_STYLE ('',( #70 ) ) ;
#3 =( NAMED_UNIT ( * ) PLANE_ANGLE_UNIT ( ) SI_UNIT ( $, .RADIAN. ) );
#4 = VERTEX_POINT ( 'NONE', #200 ) ;
#5 = EDGE_LOOP ( 'NONE', ( #10 ) ) ;
#6 = DIRECTION ( 'NONE',  ( 1.000000000000000000, 0.0000000000000000000, 0.0000000000000000000 ) ) ;
#7 = DIRECTION ( 'NONE',  ( -1.000000000000000000, -0.0000000000000000000, -0.0000000000000000000 ) ) ;
#8 = CARTESIAN_POINT ( 'NONE',  ( -3.735172737399427146E-16, 0.0000000000000000000, 0.0000000000000000000 ) ) ;
#9 = COLOUR_RGB ( '',1.000000000000000000, 1.000000000000000000, 0.0000000000000000000 ) ;
#10 = ORIENTED_EDGE ( 'NONE', *, *, #126, .F. ) ;
#11 =( NAMED_UNIT ( * ) SI_UNIT ( $, .STERADIAN. ) SOLID_ANGLE_UNIT ( ) );
#12 = CIRCLE ( 'NONE', #161, 6.100000000000017408 ) ;
#13 = DIRECTION ( 'NONE',  ( 1.000000000000000000, 0.0000000000000000000, 0.0000000000000000000 ) ) ;
#14 = EDGE_LOOP ( 'NONE', ( #54 ) ) ;
#15 = PRESENTATION_LAYER_ASSIGNMENT (  '', '', ( #78 ) ) ;
#16 = SURFACE_SIDE_STYLE ('',( #64 ) ) ;
#17 = CIRCLE ( 'NONE', #138, 4.879999999999981242 ) ;
#18 = DIRECTION ( 'NONE',  ( 1.000000000000000000, 0.0000000000000000000, 0.0000000000000000000 ) ) ;
#19 = DIRECTION ( 'NONE',  ( 0.0000000000000000000, 0.0000000000000000000, -1.000000000000000000 ) ) ;
#20 = CARTESIAN_POINT ( 'NONE',  ( 0.0000000000000000000, 0.0000000000000000000, 0.0000000000000000000 ) ) ;
#21 = DIRECTION ( 'NONE',  ( 0.0000000000000000000, 0.0000000000000000000, 1.000000000000000000 ) ) ;
#22 = EDGE_LOOP ( 'NONE', ( #124 ) ) ;
#23 = EDGE_CURVE ( 'NONE', #4, #4, #210, .T. ) ;
#24 = MANIFOLD_SOLID_BREP ( 'ºÐÇÒ2[1]', #40 ) ;
#25 = COLOUR_RGB ( '',0.7921568627450980005, 0.8196078431372548767, 0.9333333333333333481 ) ;
#26 = PRODUCT_DEFINITION_SHAPE ( 'NONE', 'NONE',  #107 ) ;
#27 = FACE_OUTER_BOUND ( 'NONE', #207, .T. ) ;
#28 = VERTEX_POINT ( 'NONE', #73 ) ;
#29 = DIRECTION ( 'NONE',  ( 1.000000000000000000, 0.0000000000000000000, 0.0000000000000000000 ) ) ;
#30 = SURFACE_STYLE_FILL_AREA ( #186 ) ;
#31 = APPLICATION_CONTEXT ( 'automotive_design' ) ;
#32 = VERTEX_POINT ( 'NONE', #188 ) ;
#33 = PRESENTATION_STYLE_ASSIGNMENT (( #134 ) ) ;
#34 =( NAMED_UNIT ( * ) PLANE_ANGLE_UNIT ( ) SI_UNIT ( $, .RADIAN. ) );
#35 = VERTEX_POINT ( 'NONE', #59 ) ;
#36 = DIRECTION ( 'NONE',  ( 0.0000000000000000000, 0.0000000000000000000, -1.000000000000000000 ) ) ;
#37 = FACE_OUTER_BOUND ( 'NONE', #158, .T. ) ;
#38 = EDGE_CURVE ( 'NONE', #28, #28, #140, .T. ) ;
#39 = SURFACE_STYLE_FILL_AREA ( #88 ) ;
#40 = CLOSED_SHELL ( 'NONE', ( #156, #72, #201, #53 ) ) ;
#41 = UNCERTAINTY_MEASURE_WITH_UNIT (LENGTH_MEASURE( 1.000000000000000082E-05 ), #66, 'distance_accuracy_value', 'NONE');
#42 = STYLED_ITEM ( 'NONE', ( #62 ), #193 ) ;
#43 = CARTESIAN_POINT ( 'NONE',  ( -3.735172737399427146E-16, 6.099999999999999645, 0.0000000000000000000 ) ) ;
#44 = MECHANICAL_DESIGN_GEOMETRIC_PRESENTATION_REPRESENTATION (  '', ( #78 ), #114 ) ;
#45 =( LENGTH_UNIT ( ) NAMED_UNIT ( * ) SI_UNIT ( .MILLI., .METRE. ) );
#46 = ORIENTED_EDGE ( 'NONE', *, *, #38, .F. ) ;
#47 = CLOSED_SHELL ( 'NONE', ( #127, #144, #193 ) ) ;
#48 =( LENGTH_UNIT ( ) NAMED_UNIT ( * ) SI_UNIT ( .MILLI., .METRE. ) );
#49 = COLOUR_RGB ( '',0.7921568627450980005, 0.8196078431372548767, 0.9333333333333333481 ) ;
#50 = SHAPE_DEFINITION_REPRESENTATION ( #26, #184 ) ;
#51 = EDGE_LOOP ( 'NONE', ( #148 ) ) ;
#52 = FILL_AREA_STYLE_COLOUR ( '', #25 ) ;
#53 = ADVANCED_FACE ( 'NONE', ( #60 ), #93, .T. ) ;
#54 = ORIENTED_EDGE ( 'NONE', *, *, #204, .F. ) ;
#55 = AXIS2_PLACEMENT_3D ( 'NONE', #162, #95, #21 ) ;
#56 = CIRCLE ( 'NONE', #132, 6.100000000000008527 ) ;
#57 = FACE_OUTER_BOUND ( 'NONE', #96, .T. ) ;
#58 = PRODUCT_RELATED_PRODUCT_CATEGORY ( 'part', '', ( #113 ) ) ;
#59 = CARTESIAN_POINT ( 'NONE',  ( 148.4732972695240676, 0.0000000000000000000, 6.100000000000017408 ) ) ;
#60 = FACE_OUTER_BOUND ( 'NONE', #112, .T. ) ;
#61 = COLOUR_RGB ( '',1.000000000000000000, 1.000000000000000000, 0.0000000000000000000 ) ;
#62 = PRESENTATION_STYLE_ASSIGNMENT (( #196 ) ) ;
#63 = EDGE_LOOP ( 'NONE', ( #46 ) ) ;
#64 = SURFACE_STYLE_FILL_AREA ( #169 ) ;
#65 = CONICAL_SURFACE ( 'NONE', #90, 4.879999999999981242, 0.7853981633974445042 ) ;
#66 =( LENGTH_UNIT ( ) NAMED_UNIT ( * ) SI_UNIT ( .MILLI., .METRE. ) );
#67 = UNCERTAINTY_MEASURE_WITH_UNIT (LENGTH_MEASURE( 1.000000000000000082E-05 ), #191, 'distance_accuracy_value', 'NONE');
#68 =( GEOMETRIC_REPRESENTATION_CONTEXT ( 3 ) GLOBAL_UNCERTAINTY_ASSIGNED_CONTEXT ( ( #146 ) ) GLOBAL_UNIT_ASSIGNED_CONTEXT ( ( #45, #82, #164 ) ) REPRESENTATION_CONTEXT ( 'NONE', 'WORKASPACE' ) );
#69 = MECHANICAL_DESIGN_GEOMETRIC_PRESENTATION_REPRESENTATION (  '', ( #176 ), #74 ) ;
#70 = FILL_AREA_STYLE_COLOUR ( '', #49 ) ;
#71 = AXIS2_PLACEMENT_3D ( 'NONE', #80, #160, #6 ) ;
#72 = ADVANCED_FACE ( 'NONE', ( #79 ), #115, .F. ) ;
#73 = CARTESIAN_POINT ( 'NONE',  ( 1.220000000000035500, 0.0000000000000000000, -6.100000000000008527 ) ) ;
#74 =( GEOMETRIC_REPRESENTATION_CONTEXT ( 3 ) GLOBAL_UNCERTAINTY_ASSIGNED_CONTEXT ( ( #41 ) ) GLOBAL_UNIT_ASSIGNED_CONTEXT ( ( #66, #3, #118 ) ) REPRESENTATION_CONTEXT ( 'NONE', 'WORKASPACE' ) );
#75 = COLOUR_RGB ( '',0.7921568627450980005, 0.8196078431372548767, 0.9333333333333333481 ) ;
#76 = DIRECTION ( 'NONE',  ( 0.0000000000000000000, 0.0000000000000000000, -1.000000000000000000 ) ) ;
#77 = UNCERTAINTY_MEASURE_WITH_UNIT (LENGTH_MEASURE( 1.000000000000000082E-05 ), #48, 'distance_accuracy_value', 'NONE');
#78 = STYLED_ITEM ( 'NONE', ( #178 ), #24 ) ;
#79 = FACE_OUTER_BOUND ( 'NONE', #51, .T. ) ;
#80 = CARTESIAN_POINT ( 'NONE',  ( 0.0000000000000000000, 0.0000000000000000000, 0.0000000000000000000 ) ) ;
#81 = UNCERTAINTY_MEASURE_WITH_UNIT (LENGTH_MEASURE( 1.000000000000000082E-05 ), #155, 'distance_accuracy_value', 'NONE');
#82 =( NAMED_UNIT ( * ) PLANE_ANGLE_UNIT ( ) SI_UNIT ( $, .RADIAN. ) );
#83 =( NAMED_UNIT ( * ) PLANE_ANGLE_UNIT ( ) SI_UNIT ( $, .RADIAN. ) );
#84 = DIRECTION ( 'NONE',  ( -1.000000000000000000, -0.0000000000000000000, -0.0000000000000000000 ) ) ;
#85 = PRESENTATION_LAYER_ASSIGNMENT (  '', '', ( #102 ) ) ;
#86 = CARTESIAN_POINT ( 'NONE',  ( 49.99999999999998579, 0.0000000000000000000, 0.0000000000000000000 ) ) ;
#87 = ORIENTED_EDGE ( 'NONE', *, *, #204, .T. ) ;
#88 = FILL_AREA_STYLE ('',( #137 ) ) ;
#89 = DIRECTION ( 'NONE',  ( 1.000000000000000000, 0.0000000000000000000, 0.0000000000000000000 ) ) ;
#90 = AXIS2_PLACEMENT_3D ( 'NONE', #194, #13, #19 ) ;
#91 = AXIS2_PLACEMENT_3D ( 'NONE', #197, #97, #92 ) ;
#92 = DIRECTION ( 'NONE',  ( 0.0000000000000000000, 0.0000000000000000000, -1.000000000000000000 ) ) ;
#93 = PLANE ( 'NONE',  #187 ) ;
#94 = CONICAL_SURFACE ( 'NONE', #106, 2414.213562373062814, 1.178097245096167756 ) ;
#95 = DIRECTION ( 'NONE',  ( -1.000000000000000000, -0.0000000000000000000, -0.0000000000000000000 ) ) ;
#96 = EDGE_LOOP ( 'NONE', ( #87 ) ) ;
#97 = DIRECTION ( 'NONE',  ( 1.000000000000000000, 0.0000000000000000000, 0.0000000000000000000 ) ) ;
#98 = EDGE_LOOP ( 'NONE', ( #135 ) ) ;
#99 = SURFACE_SIDE_STYLE ('',( #100 ) ) ;
#100 = SURFACE_STYLE_FILL_AREA ( #2 ) ;
#101 = AXIS2_PLACEMENT_3D ( 'NONE', #43, #18, #131 ) ;
#102 = STYLED_ITEM ( 'NONE', ( #33 ), #184 ) ;
#103 =( LENGTH_UNIT ( ) NAMED_UNIT ( * ) SI_UNIT ( .MILLI., .METRE. ) );
#104 = ORIENTED_EDGE ( 'NONE', *, *, #23, .T. ) ;
#105 = FACE_BOUND ( 'NONE', #22, .T. ) ;
#106 = AXIS2_PLACEMENT_3D ( 'NONE', #205, #119, #157 ) ;
#107 = PRODUCT_DEFINITION ( 'UNKNOWN', '', #190, #159 ) ;
#108 = FACE_OUTER_BOUND ( 'NONE', #5, .T. ) ;
#109 = CARTESIAN_POINT ( 'NONE',  ( 49.99999999999998579, 0.0000000000000000000, 0.0000000000000000000 ) ) ;
#110 = FACE_OUTER_BOUND ( 'NONE', #14, .T. ) ;
#111 = SURFACE_SIDE_STYLE ('',( #39 ) ) ;
#112 = EDGE_LOOP ( 'NONE', ( #183 ) ) ;
#113 = PRODUCT ( '03-1728', '03-1728', '', ( #175 ) ) ;
#114 =( GEOMETRIC_REPRESENTATION_CONTEXT ( 3 ) GLOBAL_UNCERTAINTY_ASSIGNED_CONTEXT ( ( #77 ) ) GLOBAL_UNIT_ASSIGNED_CONTEXT ( ( #48, #189, #165 ) ) REPRESENTATION_CONTEXT ( 'NONE', 'WORKASPACE' ) );
#115 = PLANE ( 'NONE',  #101 ) ;
#116 = PRESENTATION_LAYER_ASSIGNMENT (  '', '', ( #176 ) ) ;
#117 = PRESENTATION_STYLE_ASSIGNMENT (( #211 ) ) ;
#118 =( NAMED_UNIT ( * ) SI_UNIT ( $, .STERADIAN. ) SOLID_ANGLE_UNIT ( ) );
#119 = DIRECTION ( 'NONE',  ( -1.000000000000000000, -0.0000000000000000000, -0.0000000000000000000 ) ) ;
#120 =( GEOMETRIC_REPRESENTATION_CONTEXT ( 3 ) GLOBAL_UNCERTAINTY_ASSIGNED_CONTEXT ( ( #67 ) ) GLOBAL_UNIT_ASSIGNED_CONTEXT ( ( #191, #153, #192 ) ) REPRESENTATION_CONTEXT ( 'NONE', 'WORKASPACE' ) );
#121 = SURFACE_SIDE_STYLE ('',( #30 ) ) ;
#122 = DIRECTION ( 'NONE',  ( 0.0000000000000000000, 0.0000000000000000000, -1.000000000000000000 ) ) ;
#123 = DIRECTION ( 'NONE',  ( -1.000000000000000000, -0.0000000000000000000, -0.0000000000000000000 ) ) ;
#124 = ORIENTED_EDGE ( 'NONE', *, *, #1, .F. ) ;
#125 = CARTESIAN_POINT ( 'NONE',  ( 148.4732972695240676, 0.0000000000000000000, 0.0000000000000000000 ) ) ;
#126 = EDGE_CURVE ( 'NONE', #32, #32, #56, .T. ) ;
#127 = ADVANCED_FACE ( 'NONE', ( #179 ), #203, .F. ) ;
#128 = ORIENTED_EDGE ( 'NONE', *, *, #38, .T. ) ;
#129 = PRESENTATION_LAYER_ASSIGNMENT (  '', '', ( #171 ) ) ;
#130 = MECHANICAL_DESIGN_GEOMETRIC_PRESENTATION_REPRESENTATION (  '', ( #102 ), #154 ) ;
#131 = DIRECTION ( 'NONE',  ( 0.0000000000000000000, 0.0000000000000000000, -1.000000000000000000 ) ) ;
#132 = AXIS2_PLACEMENT_3D ( 'NONE', #86, #150, #36 ) ;
#133 = SURFACE_STYLE_USAGE ( .BOTH. , #99 ) ;
#134 = SURFACE_STYLE_USAGE ( .BOTH. , #111 ) ;
#135 = ORIENTED_EDGE ( 'NONE', *, *, #23, .F. ) ;
#136 = MECHANICAL_DESIGN_GEOMETRIC_PRESENTATION_REPRESENTATION (  '', ( #42 ), #120 ) ;
#137 = FILL_AREA_STYLE_COLOUR ( '', #75 ) ;
#138 = AXIS2_PLACEMENT_3D ( 'NONE', #8, #123, #198 ) ;
#139 = DIRECTION ( 'NONE',  ( 0.0000000000000000000, 0.0000000000000000000, 1.000000000000000000 ) ) ;
#140 = CIRCLE ( 'NONE', #91, 6.100000000000008527 ) ;
#141 = CARTESIAN_POINT ( 'NONE',  ( -3.735172737399427146E-16, 0.0000000000000000000, -4.879999999999981242 ) ) ;
#142 =( NAMED_UNIT ( * ) SI_UNIT ( $, .STERADIAN. ) SOLID_ANGLE_UNIT ( ) );
#143 = AXIS2_PLACEMENT_3D ( 'NONE', #20, #7, #206 ) ;
#144 = ADVANCED_FACE ( 'NONE', ( #37, #57 ), #163, .T. ) ;
#145 = AXIS2_PLACEMENT_3D ( 'NONE', #109, #170, #122 ) ;
#146 = UNCERTAINTY_MEASURE_WITH_UNIT (LENGTH_MEASURE( 1.000000000000000082E-05 ), #45, 'distance_accuracy_value', 'NONE');
#147 = MECHANICAL_DESIGN_GEOMETRIC_PRESENTATION_REPRESENTATION (  '', ( #171 ), #68 ) ;
#148 = ORIENTED_EDGE ( 'NONE', *, *, #1, .T. ) ;
#149 = APPLICATION_PROTOCOL_DEFINITION ( 'draft international standard', 'automotive_design', 1998, #208 ) ;
#150 = DIRECTION ( 'NONE',  ( 1.000000000000000000, 0.0000000000000000000, 0.0000000000000000000 ) ) ;
#151 = VERTEX_POINT ( 'NONE', #141 ) ;
#152 =( GEOMETRIC_REPRESENTATION_CONTEXT ( 3 ) GLOBAL_UNCERTAINTY_ASSIGNED_CONTEXT ( ( #166 ) ) GLOBAL_UNIT_ASSIGNED_CONTEXT ( ( #103, #34, #11 ) ) REPRESENTATION_CONTEXT ( 'NONE', 'WORKASPACE' ) );
#153 =( NAMED_UNIT ( * ) PLANE_ANGLE_UNIT ( ) SI_UNIT ( $, .RADIAN. ) );
#154 =( GEOMETRIC_REPRESENTATION_CONTEXT ( 3 ) GLOBAL_UNCERTAINTY_ASSIGNED_CONTEXT ( ( #81 ) ) GLOBAL_UNIT_ASSIGNED_CONTEXT ( ( #155, #83, #142 ) ) REPRESENTATION_CONTEXT ( 'NONE', 'WORKASPACE' ) );
#155 =( LENGTH_UNIT ( ) NAMED_UNIT ( * ) SI_UNIT ( .MILLI., .METRE. ) );
#156 = ADVANCED_FACE ( 'NONE', ( #27, #108 ), #212, .T. ) ;
#157 = DIRECTION ( 'NONE',  ( 0.0000000000000000000, 0.0000000000000000000, 1.000000000000000000 ) ) ;
#158 = EDGE_LOOP ( 'NONE', ( #104 ) ) ;
#159 = PRODUCT_DEFINITION_CONTEXT ( 'detailed design', #31, 'design' ) ;
#160 = DIRECTION ( 'NONE',  ( 0.0000000000000000000, 0.0000000000000000000, 1.000000000000000000 ) ) ;
#161 = AXIS2_PLACEMENT_3D ( 'NONE', #125, #84, #139 ) ;
#162 = CARTESIAN_POINT ( 'NONE',  ( 0.0000000000000000000, 0.0000000000000000000, 0.0000000000000000000 ) ) ;
#163 = CYLINDRICAL_SURFACE ( 'NONE', #55, 6.100000000000008527 ) ;
#164 =( NAMED_UNIT ( * ) SI_UNIT ( $, .STERADIAN. ) SOLID_ANGLE_UNIT ( ) );
#165 =( NAMED_UNIT ( * ) SI_UNIT ( $, .STERADIAN. ) SOLID_ANGLE_UNIT ( ) );
#166 = UNCERTAINTY_MEASURE_WITH_UNIT (LENGTH_MEASURE( 1.000000000000000082E-05 ), #103, 'distance_accuracy_value', 'NONE');
#167 = MANIFOLD_SOLID_BREP ( 'ºÐÇÒ2[2]', #47 ) ;
#168 = FILL_AREA_STYLE ('',( #177 ) ) ;
#169 = FILL_AREA_STYLE ('',( #52 ) ) ;
#170 = DIRECTION ( 'NONE',  ( 1.000000000000000000, 0.0000000000000000000, 0.0000000000000000000 ) ) ;
#171 = STYLED_ITEM ( 'NONE', ( #199 ), #144 ) ;
#172 = APPLICATION_PROTOCOL_DEFINITION ( 'draft international standard', 'automotive_design', 1998, #31 ) ;
#173 = DIRECTION ( 'NONE',  ( 0.0000000000000000000, 0.0000000000000000000, -1.000000000000000000 ) ) ;
#174 = PRESENTATION_LAYER_ASSIGNMENT (  '', '', ( #42 ) ) ;
#175 = PRODUCT_CONTEXT ( 'NONE', #208, 'mechanical' ) ;
#176 = STYLED_ITEM ( 'NONE', ( #117 ), #167 ) ;
#177 = FILL_AREA_STYLE_COLOUR ( '', #9 ) ;
#178 = PRESENTATION_STYLE_ASSIGNMENT (( #133 ) ) ;
#179 = FACE_OUTER_BOUND ( 'NONE', #98, .T. ) ;
#180 = SURFACE_STYLE_FILL_AREA ( #168 ) ;
#181 = CARTESIAN_POINT ( 'NONE',  ( 49.99999999999998579, 0.0000000000000000000, 0.0000000000000000000 ) ) ;
#182 = AXIS2_PLACEMENT_3D ( 'NONE', #181, #29, #173 ) ;
#183 = ORIENTED_EDGE ( 'NONE', *, *, #126, .T. ) ;
#184 = ADVANCED_BREP_SHAPE_REPRESENTATION ( '03-1728', ( #24, #167, #71 ), #152 ) ;
#185 = FACE_OUTER_BOUND ( 'NONE', #63, .T. ) ;
#186 = FILL_AREA_STYLE ('',( #195 ) ) ;
#187 = AXIS2_PLACEMENT_3D ( 'NONE', #202, #89, #76 ) ;
#188 = CARTESIAN_POINT ( 'NONE',  ( 49.99999999999998579, 0.0000000000000000000, -6.100000000000008527 ) ) ;
#189 =( NAMED_UNIT ( * ) PLANE_ANGLE_UNIT ( ) SI_UNIT ( $, .RADIAN. ) );
#190 = PRODUCT_DEFINITION_FORMATION_WITH_SPECIFIED_SOURCE ( 'ANY', '', #113, .NOT_KNOWN. ) ;
#191 =( LENGTH_UNIT ( ) NAMED_UNIT ( * ) SI_UNIT ( .MILLI., .METRE. ) );
#192 =( NAMED_UNIT ( * ) SI_UNIT ( $, .STERADIAN. ) SOLID_ANGLE_UNIT ( ) );
#193 = ADVANCED_FACE ( 'NONE', ( #110 ), #94, .T. ) ;
#194 = CARTESIAN_POINT ( 'NONE',  ( -3.735172737399427146E-16, 0.0000000000000000000, 0.0000000000000000000 ) ) ;
#195 = FILL_AREA_STYLE_COLOUR ( '', #61 ) ;
#196 = SURFACE_STYLE_USAGE ( .BOTH. , #209 ) ;
#197 = CARTESIAN_POINT ( 'NONE',  ( 1.220000000000035500, 0.0000000000000000000, 0.0000000000000000000 ) ) ;
#198 = DIRECTION ( 'NONE',  ( 0.0000000000000000000, 0.0000000000000000000, -1.000000000000000000 ) ) ;
#199 = PRESENTATION_STYLE_ASSIGNMENT (( #213 ) ) ;
#200 = CARTESIAN_POINT ( 'NONE',  ( 49.99999999999998579, 0.0000000000000000000, -6.100000000000008527 ) ) ;
#201 = ADVANCED_FACE ( 'NONE', ( #185, #105 ), #65, .T. ) ;
#202 = CARTESIAN_POINT ( 'NONE',  ( 49.99999999999998579, 0.0000000000000000000, 0.0000000000000000000 ) ) ;
#203 = PLANE ( 'NONE',  #182 ) ;
#204 = EDGE_CURVE ( 'NONE', #35, #35, #12, .T. ) ;
#205 = CARTESIAN_POINT ( 'NONE',  ( -849.0000000000000000, 0.0000000000000000000, 0.0000000000000000000 ) ) ;
#206 = DIRECTION ( 'NONE',  ( 0.0000000000000000000, 0.0000000000000000000, 1.000000000000000000 ) ) ;
#207 = EDGE_LOOP ( 'NONE', ( #128 ) ) ;
#208 = APPLICATION_CONTEXT ( 'automotive_design' ) ;
#209 = SURFACE_SIDE_STYLE ('',( #180 ) ) ;
#210 = CIRCLE ( 'NONE', #145, 6.100000000000008527 ) ;
#211 = SURFACE_STYLE_USAGE ( .BOTH. , #16 ) ;
#212 = CYLINDRICAL_SURFACE ( 'NONE', #143, 6.100000000000008527 ) ;
#213 = SURFACE_STYLE_USAGE ( .BOTH. , #121 ) ;
ENDSEC;
END-ISO-10303-21;
