ISO-10303-21;
HEADER;
FILE_DESCRIPTION (( 'STEP AP214' ),
    '1' );
FILE_NAME ('03-1730.STEP',
    '2021-10-01T05:52:48',
    ( 'USER' ),
    ( '' ),
    'SwSTEP 2.0',
    'SolidWorks 2018',
    '' );
FILE_SCHEMA (( 'AUTOMOTIVE_DESIGN' ));
ENDSEC;

DATA;
#1 = AXIS2_PLACEMENT_3D ( 'NONE', #41, #122, #148 ) ;
#2 = FACE_OUTER_BOUND ( 'NONE', #186, .T. ) ;
#3 = DIRECTION ( 'NONE',  ( 1.000000000000000000, 0.0000000000000000000, 0.0000000000000000000 ) ) ;
#4 = MANIFOLD_SOLID_BREP ( 'ºÐÇÒ2[1]', #14 ) ;
#5 = ADVANCED_BREP_SHAPE_REPRESENTATION ( '03-1730', ( #4, #55, #94 ), #138 ) ;
#6 =( LENGTH_UNIT ( ) NAMED_UNIT ( * ) SI_UNIT ( .MILLI., .METRE. ) );
#7 = EDGE_LOOP ( 'NONE', ( #108 ) ) ;
#8 = COLOUR_RGB ( '',0.7921568627450980005, 0.8196078431372548767, 0.9333333333333333481 ) ;
#9 = CARTESIAN_POINT ( 'NONE',  ( 0.0000000000000000000, 0.0000000000000000000, 0.0000000000000000000 ) ) ;
#10 = AXIS2_PLACEMENT_3D ( 'NONE', #9, #67, #139 ) ;
#11 = SURFACE_SIDE_STYLE ('',( #86 ) ) ;
#12 = ADVANCED_FACE ( 'NONE', ( #208, #53 ), #16, .T. ) ;
#13 = SURFACE_STYLE_USAGE ( .BOTH. , #11 ) ;
#14 = CLOSED_SHELL ( 'NONE', ( #12, #85, #27, #106 ) ) ;
#15 = CARTESIAN_POINT ( 'NONE',  ( 49.99999999999998579, 0.0000000000000000000, 0.0000000000000000000 ) ) ;
#16 = CYLINDRICAL_SURFACE ( 'NONE', #161, 6.200000000000009059 ) ;
#17 = AXIS2_PLACEMENT_3D ( 'NONE', #151, #110, #114 ) ;
#18 = CARTESIAN_POINT ( 'NONE',  ( 49.99999999999998579, 0.0000000000000000000, -6.200000000000009059 ) ) ;
#19 = SURFACE_STYLE_FILL_AREA ( #107 ) ;
#20 = DIRECTION ( 'NONE',  ( 1.000000000000000000, 0.0000000000000000000, 0.0000000000000000000 ) ) ;
#21 = DIRECTION ( 'NONE',  ( 1.000000000000000000, 0.0000000000000000000, 0.0000000000000000000 ) ) ;
#22 =( GEOMETRIC_REPRESENTATION_CONTEXT ( 3 ) GLOBAL_UNCERTAINTY_ASSIGNED_CONTEXT ( ( #79 ) ) GLOBAL_UNIT_ASSIGNED_CONTEXT ( ( #81, #187, #197 ) ) REPRESENTATION_CONTEXT ( 'NONE', 'WORKASPACE' ) );
#23 = FILL_AREA_STYLE ('',( #59 ) ) ;
#24 = SURFACE_STYLE_FILL_AREA ( #158 ) ;
#25 = CARTESIAN_POINT ( 'NONE',  ( 1.240000000000039293, 0.0000000000000000000, -6.200000000000009059 ) ) ;
#26 = AXIS2_PLACEMENT_3D ( 'NONE', #29, #196, #210 ) ;
#27 = ADVANCED_FACE ( 'NONE', ( #2, #130 ), #212, .T. ) ;
#28 = FACE_OUTER_BOUND ( 'NONE', #65, .T. ) ;
#29 = CARTESIAN_POINT ( 'NONE',  ( 49.99999999999998579, 0.0000000000000000000, 0.0000000000000000000 ) ) ;
#30 = AXIS2_PLACEMENT_3D ( 'NONE', #98, #3, #165 ) ;
#31 =( NAMED_UNIT ( * ) SI_UNIT ( $, .STERADIAN. ) SOLID_ANGLE_UNIT ( ) );
#32 = PRODUCT_RELATED_PRODUCT_CATEGORY ( 'part', '', ( #155 ) ) ;
#33 = UNCERTAINTY_MEASURE_WITH_UNIT (LENGTH_MEASURE( 1.000000000000000082E-05 ), #180, 'distance_accuracy_value', 'NONE');
#34 = PRESENTATION_LAYER_ASSIGNMENT (  '', '', ( #207 ) ) ;
#35 = CIRCLE ( 'NONE', #30, 6.200000000000009059 ) ;
#36 = SURFACE_SIDE_STYLE ('',( #19 ) ) ;
#37 = COLOUR_RGB ( '',0.7921568627450980005, 0.8196078431372548767, 0.9333333333333333481 ) ;
#38 = CARTESIAN_POINT ( 'NONE',  ( 148.4318759132867740, 0.0000000000000000000, 6.200000000000017941 ) ) ;
#39 = DIRECTION ( 'NONE',  ( -1.000000000000000000, -0.0000000000000000000, -0.0000000000000000000 ) ) ;
#40 = VERTEX_POINT ( 'NONE', #198 ) ;
#41 = CARTESIAN_POINT ( 'NONE',  ( 49.99999999999998579, 0.0000000000000000000, 0.0000000000000000000 ) ) ;
#42 = APPLICATION_CONTEXT ( 'automotive_design' ) ;
#43 = CARTESIAN_POINT ( 'NONE',  ( 148.4318759132867740, 0.0000000000000000000, 0.0000000000000000000 ) ) ;
#44 =( LENGTH_UNIT ( ) NAMED_UNIT ( * ) SI_UNIT ( .MILLI., .METRE. ) );
#45 = STYLED_ITEM ( 'NONE', ( #78 ), #55 ) ;
#46 = VERTEX_POINT ( 'NONE', #92 ) ;
#47 = SURFACE_SIDE_STYLE ('',( #129 ) ) ;
#48 = VERTEX_POINT ( 'NONE', #38 ) ;
#49 = PRODUCT_DEFINITION_FORMATION_WITH_SPECIFIED_SOURCE ( 'ANY', '', #155, .NOT_KNOWN. ) ;
#50 = APPLICATION_PROTOCOL_DEFINITION ( 'draft international standard', 'automotive_design', 1998, #96 ) ;
#51 =( NAMED_UNIT ( * ) SI_UNIT ( $, .STERADIAN. ) SOLID_ANGLE_UNIT ( ) );
#52 = FILL_AREA_STYLE_COLOUR ( '', #204 ) ;
#53 = FACE_OUTER_BOUND ( 'NONE', #170, .T. ) ;
#54 = VERTEX_POINT ( 'NONE', #18 ) ;
#55 = MANIFOLD_SOLID_BREP ( 'ºÐÇÒ2[2]', #123 ) ;
#56 = AXIS2_PLACEMENT_3D ( 'NONE', #195, #20, #91 ) ;
#57 = CARTESIAN_POINT ( 'NONE',  ( 0.0000000000000000000, 0.0000000000000000000, 0.0000000000000000000 ) ) ;
#58 = DIRECTION ( 'NONE',  ( 0.0000000000000000000, 0.0000000000000000000, -1.000000000000000000 ) ) ;
#59 = FILL_AREA_STYLE_COLOUR ( '', #37 ) ;
#60 = ORIENTED_EDGE ( 'NONE', *, *, #124, .T. ) ;
#61 = PRODUCT_DEFINITION_SHAPE ( 'NONE', 'NONE',  #171 ) ;
#62 = UNCERTAINTY_MEASURE_WITH_UNIT (LENGTH_MEASURE( 1.000000000000000082E-05 ), #44, 'distance_accuracy_value', 'NONE');
#63 = DIRECTION ( 'NONE',  ( 0.0000000000000000000, 0.0000000000000000000, 1.000000000000000000 ) ) ;
#64 = PRESENTATION_STYLE_ASSIGNMENT (( #73 ) ) ;
#65 = EDGE_LOOP ( 'NONE', ( #206 ) ) ;
#66 = DIRECTION ( 'NONE',  ( 0.0000000000000000000, 0.0000000000000000000, -1.000000000000000000 ) ) ;
#67 = DIRECTION ( 'NONE',  ( -1.000000000000000000, -0.0000000000000000000, -0.0000000000000000000 ) ) ;
#68 = DIRECTION ( 'NONE',  ( 0.0000000000000000000, 0.0000000000000000000, -1.000000000000000000 ) ) ;
#69 = COLOUR_RGB ( '',0.7921568627450980005, 0.8196078431372548767, 0.9333333333333333481 ) ;
#70 = ORIENTED_EDGE ( 'NONE', *, *, #124, .F. ) ;
#71 = CIRCLE ( 'NONE', #119, 6.200000000000017941 ) ;
#72 = SHAPE_DEFINITION_REPRESENTATION ( #61, #5 ) ;
#73 = SURFACE_STYLE_USAGE ( .BOTH. , #47 ) ;
#74 = PRESENTATION_LAYER_ASSIGNMENT (  '', '', ( #105 ) ) ;
#75 = DIRECTION ( 'NONE',  ( 1.000000000000000000, 0.0000000000000000000, 0.0000000000000000000 ) ) ;
#76 =( NAMED_UNIT ( * ) SI_UNIT ( $, .STERADIAN. ) SOLID_ANGLE_UNIT ( ) );
#77 = AXIS2_PLACEMENT_3D ( 'NONE', #15, #21, #68 ) ;
#78 = PRESENTATION_STYLE_ASSIGNMENT (( #185 ) ) ;
#79 = UNCERTAINTY_MEASURE_WITH_UNIT (LENGTH_MEASURE( 1.000000000000000082E-05 ), #81, 'distance_accuracy_value', 'NONE');
#80 = DIRECTION ( 'NONE',  ( -1.000000000000000000, -0.0000000000000000000, -0.0000000000000000000 ) ) ;
#81 =( LENGTH_UNIT ( ) NAMED_UNIT ( * ) SI_UNIT ( .MILLI., .METRE. ) );
#82 = STYLED_ITEM ( 'NONE', ( #159 ), #4 ) ;
#83 = AXIS2_PLACEMENT_3D ( 'NONE', #177, #118, #66 ) ;
#84 = UNCERTAINTY_MEASURE_WITH_UNIT (LENGTH_MEASURE( 1.000000000000000082E-05 ), #125, 'distance_accuracy_value', 'NONE');
#85 = ADVANCED_FACE ( 'NONE', ( #95 ), #163, .F. ) ;
#86 = SURFACE_STYLE_FILL_AREA ( #87 ) ;
#87 = FILL_AREA_STYLE ('',( #152 ) ) ;
#88 = UNCERTAINTY_MEASURE_WITH_UNIT (LENGTH_MEASURE( 1.000000000000000082E-05 ), #133, 'distance_accuracy_value', 'NONE');
#89 = PRESENTATION_STYLE_ASSIGNMENT (( #213 ) ) ;
#90 = AXIS2_PLACEMENT_3D ( 'NONE', #144, #80, #58 ) ;
#91 = DIRECTION ( 'NONE',  ( 0.0000000000000000000, 0.0000000000000000000, -1.000000000000000000 ) ) ;
#92 = CARTESIAN_POINT ( 'NONE',  ( 49.99999999999998579, 0.0000000000000000000, -6.200000000000009059 ) ) ;
#93 = EDGE_CURVE ( 'NONE', #147, #147, #169, .T. ) ;
#94 = AXIS2_PLACEMENT_3D ( 'NONE', #173, #131, #75 ) ;
#95 = FACE_OUTER_BOUND ( 'NONE', #175, .T. ) ;
#96 = APPLICATION_CONTEXT ( 'automotive_design' ) ;
#97 = FACE_OUTER_BOUND ( 'NONE', #7, .T. ) ;
#98 = CARTESIAN_POINT ( 'NONE',  ( 49.99999999999998579, 0.0000000000000000000, 0.0000000000000000000 ) ) ;
#99 = ORIENTED_EDGE ( 'NONE', *, *, #111, .F. ) ;
#100 = PRESENTATION_LAYER_ASSIGNMENT (  '', '', ( #202 ) ) ;
#101 = PRESENTATION_STYLE_ASSIGNMENT (( #13 ) ) ;
#102 = COLOUR_RGB ( '',1.000000000000000000, 1.000000000000000000, 0.0000000000000000000 ) ;
#103 = SURFACE_SIDE_STYLE ('',( #24 ) ) ;
#104 =( NAMED_UNIT ( * ) PLANE_ANGLE_UNIT ( ) SI_UNIT ( $, .RADIAN. ) );
#105 = STYLED_ITEM ( 'NONE', ( #64 ), #154 ) ;
#106 = ADVANCED_FACE ( 'NONE', ( #120 ), #194, .T. ) ;
#107 = FILL_AREA_STYLE ('',( #178 ) ) ;
#108 = ORIENTED_EDGE ( 'NONE', *, *, #135, .T. ) ;
#109 = CONICAL_SURFACE ( 'NONE', #192, 2414.213562373069180, 1.178097245096168644 ) ;
#110 = DIRECTION ( 'NONE',  ( 1.000000000000000000, 0.0000000000000000000, 0.0000000000000000000 ) ) ;
#111 = EDGE_CURVE ( 'NONE', #54, #54, #184, .T. ) ;
#112 = CYLINDRICAL_SURFACE ( 'NONE', #10, 6.200000000000009059 ) ;
#113 = PLANE ( 'NONE',  #77 ) ;
#114 = DIRECTION ( 'NONE',  ( 0.0000000000000000000, 0.0000000000000000000, -1.000000000000000000 ) ) ;
#115 = ORIENTED_EDGE ( 'NONE', *, *, #93, .T. ) ;
#116 =( NAMED_UNIT ( * ) PLANE_ANGLE_UNIT ( ) SI_UNIT ( $, .RADIAN. ) );
#117 = MECHANICAL_DESIGN_GEOMETRIC_PRESENTATION_REPRESENTATION (  '', ( #202 ), #127 ) ;
#118 = DIRECTION ( 'NONE',  ( 1.000000000000000000, 0.0000000000000000000, 0.0000000000000000000 ) ) ;
#119 = AXIS2_PLACEMENT_3D ( 'NONE', #43, #141, #209 ) ;
#120 = FACE_OUTER_BOUND ( 'NONE', #153, .T. ) ;
#121 = EDGE_LOOP ( 'NONE', ( #99 ) ) ;
#122 = DIRECTION ( 'NONE',  ( 1.000000000000000000, 0.0000000000000000000, 0.0000000000000000000 ) ) ;
#123 = CLOSED_SHELL ( 'NONE', ( #205, #168, #154 ) ) ;
#124 = EDGE_CURVE ( 'NONE', #40, #40, #211, .T. ) ;
#125 =( LENGTH_UNIT ( ) NAMED_UNIT ( * ) SI_UNIT ( .MILLI., .METRE. ) );
#126 = DIRECTION ( 'NONE',  ( -1.000000000000000000, -0.0000000000000000000, -0.0000000000000000000 ) ) ;
#127 =( GEOMETRIC_REPRESENTATION_CONTEXT ( 3 ) GLOBAL_UNCERTAINTY_ASSIGNED_CONTEXT ( ( #166 ) ) GLOBAL_UNIT_ASSIGNED_CONTEXT ( ( #6, #132, #134 ) ) REPRESENTATION_CONTEXT ( 'NONE', 'WORKASPACE' ) );
#128 = SURFACE_STYLE_USAGE ( .BOTH. , #36 ) ;
#129 = SURFACE_STYLE_FILL_AREA ( #174 ) ;
#130 = FACE_BOUND ( 'NONE', #164, .T. ) ;
#131 = DIRECTION ( 'NONE',  ( 0.0000000000000000000, 0.0000000000000000000, 1.000000000000000000 ) ) ;
#132 =( NAMED_UNIT ( * ) PLANE_ANGLE_UNIT ( ) SI_UNIT ( $, .RADIAN. ) );
#133 =( LENGTH_UNIT ( ) NAMED_UNIT ( * ) SI_UNIT ( .MILLI., .METRE. ) );
#134 =( NAMED_UNIT ( * ) SI_UNIT ( $, .STERADIAN. ) SOLID_ANGLE_UNIT ( ) );
#135 = EDGE_CURVE ( 'NONE', #48, #48, #71, .T. ) ;
#136 = SURFACE_SIDE_STYLE ('',( #183 ) ) ;
#137 = MECHANICAL_DESIGN_GEOMETRIC_PRESENTATION_REPRESENTATION (  '', ( #207 ), #203 ) ;
#138 =( GEOMETRIC_REPRESENTATION_CONTEXT ( 3 ) GLOBAL_UNCERTAINTY_ASSIGNED_CONTEXT ( ( #33 ) ) GLOBAL_UNIT_ASSIGNED_CONTEXT ( ( #180, #104, #193 ) ) REPRESENTATION_CONTEXT ( 'NONE', 'WORKASPACE' ) );
#139 = DIRECTION ( 'NONE',  ( 0.0000000000000000000, 0.0000000000000000000, 1.000000000000000000 ) ) ;
#140 = FACE_OUTER_BOUND ( 'NONE', #188, .T. ) ;
#141 = DIRECTION ( 'NONE',  ( -1.000000000000000000, -0.0000000000000000000, -0.0000000000000000000 ) ) ;
#142 = EDGE_CURVE ( 'NONE', #46, #46, #35, .T. ) ;
#143 = FILL_AREA_STYLE_COLOUR ( '', #8 ) ;
#144 = CARTESIAN_POINT ( 'NONE',  ( -3.796405077356794918E-16, 0.0000000000000000000, 0.0000000000000000000 ) ) ;
#145 =( GEOMETRIC_REPRESENTATION_CONTEXT ( 3 ) GLOBAL_UNCERTAINTY_ASSIGNED_CONTEXT ( ( #84 ) ) GLOBAL_UNIT_ASSIGNED_CONTEXT ( ( #125, #116, #31 ) ) REPRESENTATION_CONTEXT ( 'NONE', 'WORKASPACE' ) );
#146 = EDGE_LOOP ( 'NONE', ( #115 ) ) ;
#147 = VERTEX_POINT ( 'NONE', #25 ) ;
#148 = DIRECTION ( 'NONE',  ( 0.0000000000000000000, 0.0000000000000000000, -1.000000000000000000 ) ) ;
#149 = PRESENTATION_LAYER_ASSIGNMENT (  '', '', ( #82 ) ) ;
#150 =( NAMED_UNIT ( * ) PLANE_ANGLE_UNIT ( ) SI_UNIT ( $, .RADIAN. ) );
#151 = CARTESIAN_POINT ( 'NONE',  ( 1.240000000000039293, 0.0000000000000000000, 0.0000000000000000000 ) ) ;
#152 = FILL_AREA_STYLE_COLOUR ( '', #102 ) ;
#153 = EDGE_LOOP ( 'NONE', ( #189 ) ) ;
#154 = ADVANCED_FACE ( 'NONE', ( #28 ), #109, .T. ) ;
#155 = PRODUCT ( '03-1730', '03-1730', '', ( #200 ) ) ;
#156 = ORIENTED_EDGE ( 'NONE', *, *, #111, .T. ) ;
#157 = MECHANICAL_DESIGN_GEOMETRIC_PRESENTATION_REPRESENTATION (  '', ( #45 ), #145 ) ;
#158 = FILL_AREA_STYLE ('',( #143 ) ) ;
#159 = PRESENTATION_STYLE_ASSIGNMENT (( #128 ) ) ;
#160 = APPLICATION_PROTOCOL_DEFINITION ( 'draft international standard', 'automotive_design', 1998, #42 ) ;
#161 = AXIS2_PLACEMENT_3D ( 'NONE', #57, #126, #63 ) ;
#162 =( NAMED_UNIT ( * ) PLANE_ANGLE_UNIT ( ) SI_UNIT ( $, .RADIAN. ) );
#163 = PLANE ( 'NONE',  #56 ) ;
#164 = EDGE_LOOP ( 'NONE', ( #70 ) ) ;
#165 = DIRECTION ( 'NONE',  ( 0.0000000000000000000, 0.0000000000000000000, -1.000000000000000000 ) ) ;
#166 = UNCERTAINTY_MEASURE_WITH_UNIT (LENGTH_MEASURE( 1.000000000000000082E-05 ), #6, 'distance_accuracy_value', 'NONE');
#167 = MECHANICAL_DESIGN_GEOMETRIC_PRESENTATION_REPRESENTATION (  '', ( #105 ), #22 ) ;
#168 = ADVANCED_FACE ( 'NONE', ( #140, #97 ), #112, .T. ) ;
#169 = CIRCLE ( 'NONE', #17, 6.200000000000009059 ) ;
#170 = EDGE_LOOP ( 'NONE', ( #201 ) ) ;
#171 = PRODUCT_DEFINITION ( 'UNKNOWN', '', #49, #176 ) ;
#172 = CARTESIAN_POINT ( 'NONE',  ( -849.0000000000000000, 0.0000000000000000000, 0.0000000000000000000 ) ) ;
#173 = CARTESIAN_POINT ( 'NONE',  ( 0.0000000000000000000, 0.0000000000000000000, 0.0000000000000000000 ) ) ;
#174 = FILL_AREA_STYLE ('',( #52 ) ) ;
#175 = EDGE_LOOP ( 'NONE', ( #60 ) ) ;
#176 = PRODUCT_DEFINITION_CONTEXT ( 'detailed design', #42, 'design' ) ;
#177 = CARTESIAN_POINT ( 'NONE',  ( -3.796405077356794918E-16, 0.0000000000000000000, 0.0000000000000000000 ) ) ;
#178 = FILL_AREA_STYLE_COLOUR ( '', #69 ) ;
#179 = DIRECTION ( 'NONE',  ( 0.0000000000000000000, 0.0000000000000000000, 1.000000000000000000 ) ) ;
#180 =( LENGTH_UNIT ( ) NAMED_UNIT ( * ) SI_UNIT ( .MILLI., .METRE. ) );
#181 = ORIENTED_EDGE ( 'NONE', *, *, #93, .F. ) ;
#182 = MECHANICAL_DESIGN_GEOMETRIC_PRESENTATION_REPRESENTATION (  '', ( #82 ), #190 ) ;
#183 = SURFACE_STYLE_FILL_AREA ( #23 ) ;
#184 = CIRCLE ( 'NONE', #26, 6.200000000000009059 ) ;
#185 = SURFACE_STYLE_USAGE ( .BOTH. , #103 ) ;
#186 = EDGE_LOOP ( 'NONE', ( #181 ) ) ;
#187 =( NAMED_UNIT ( * ) PLANE_ANGLE_UNIT ( ) SI_UNIT ( $, .RADIAN. ) );
#188 = EDGE_LOOP ( 'NONE', ( #156 ) ) ;
#189 = ORIENTED_EDGE ( 'NONE', *, *, #142, .T. ) ;
#190 =( GEOMETRIC_REPRESENTATION_CONTEXT ( 3 ) GLOBAL_UNCERTAINTY_ASSIGNED_CONTEXT ( ( #88 ) ) GLOBAL_UNIT_ASSIGNED_CONTEXT ( ( #133, #150, #51 ) ) REPRESENTATION_CONTEXT ( 'NONE', 'WORKASPACE' ) );
#191 = FACE_OUTER_BOUND ( 'NONE', #121, .T. ) ;
#192 = AXIS2_PLACEMENT_3D ( 'NONE', #172, #39, #179 ) ;
#193 =( NAMED_UNIT ( * ) SI_UNIT ( $, .STERADIAN. ) SOLID_ANGLE_UNIT ( ) );
#194 = PLANE ( 'NONE',  #1 ) ;
#195 = CARTESIAN_POINT ( 'NONE',  ( -3.796405077356794918E-16, 6.200000000000000178, 0.0000000000000000000 ) ) ;
#196 = DIRECTION ( 'NONE',  ( 1.000000000000000000, 0.0000000000000000000, 0.0000000000000000000 ) ) ;
#197 =( NAMED_UNIT ( * ) SI_UNIT ( $, .STERADIAN. ) SOLID_ANGLE_UNIT ( ) );
#198 = CARTESIAN_POINT ( 'NONE',  ( -3.796405077356794918E-16, 0.0000000000000000000, -4.959999999999978648 ) ) ;
#199 = PRESENTATION_LAYER_ASSIGNMENT (  '', '', ( #45 ) ) ;
#200 = PRODUCT_CONTEXT ( 'NONE', #96, 'mechanical' ) ;
#201 = ORIENTED_EDGE ( 'NONE', *, *, #142, .F. ) ;
#202 = STYLED_ITEM ( 'NONE', ( #101 ), #168 ) ;
#203 =( GEOMETRIC_REPRESENTATION_CONTEXT ( 3 ) GLOBAL_UNCERTAINTY_ASSIGNED_CONTEXT ( ( #62 ) ) GLOBAL_UNIT_ASSIGNED_CONTEXT ( ( #44, #162, #76 ) ) REPRESENTATION_CONTEXT ( 'NONE', 'WORKASPACE' ) );
#204 = COLOUR_RGB ( '',1.000000000000000000, 1.000000000000000000, 0.0000000000000000000 ) ;
#205 = ADVANCED_FACE ( 'NONE', ( #191 ), #113, .F. ) ;
#206 = ORIENTED_EDGE ( 'NONE', *, *, #135, .F. ) ;
#207 = STYLED_ITEM ( 'NONE', ( #89 ), #5 ) ;
#208 = FACE_OUTER_BOUND ( 'NONE', #146, .T. ) ;
#209 = DIRECTION ( 'NONE',  ( 0.0000000000000000000, 0.0000000000000000000, 1.000000000000000000 ) ) ;
#210 = DIRECTION ( 'NONE',  ( 0.0000000000000000000, 0.0000000000000000000, -1.000000000000000000 ) ) ;
#211 = CIRCLE ( 'NONE', #90, 4.959999999999978648 ) ;
#212 = CONICAL_SURFACE ( 'NONE', #83, 4.959999999999978648, 0.7853981633974447263 ) ;
#213 = SURFACE_STYLE_USAGE ( .BOTH. , #136 ) ;
ENDSEC;
END-ISO-10303-21;
