ISO-10303-21;
HEADER;
FILE_DESCRIPTION (( 'STEP AP214' ),
    '1' );
FILE_NAME ('03-1733.STEP',
    '2021-10-01T05:53:44',
    ( 'USER' ),
    ( '' ),
    'SwSTEP 2.0',
    'SolidWorks 2018',
    '' );
FILE_SCHEMA (( 'AUTOMOTIVE_DESIGN' ));
ENDSEC;

DATA;
#1 = ORIENTED_EDGE ( 'NONE', *, *, #21, .F. ) ;
#2 = VERTEX_POINT ( 'NONE', #43 ) ;
#3 = CARTESIAN_POINT ( 'NONE',  ( 0.0000000000000000000, 0.0000000000000000000, 0.0000000000000000000 ) ) ;
#4 = EDGE_LOOP ( 'NONE', ( #52 ) ) ;
#5 = EDGE_LOOP ( 'NONE', ( #63 ) ) ;
#6 =( LENGTH_UNIT ( ) NAMED_UNIT ( * ) SI_UNIT ( .MILLI., .METRE. ) );
#7 =( LENGTH_UNIT ( ) NAMED_UNIT ( * ) SI_UNIT ( .MILLI., .METRE. ) );
#8 =( GEOMETRIC_REPRESENTATION_CONTEXT ( 3 ) GLOBAL_UNCERTAINTY_ASSIGNED_CONTEXT ( ( #213 ) ) GLOBAL_UNIT_ASSIGNED_CONTEXT ( ( #169, #77, #196 ) ) REPRESENTATION_CONTEXT ( 'NONE', 'WORKASPACE' ) );
#9 = FILL_AREA_STYLE ('',( #26 ) ) ;
#10 = ORIENTED_EDGE ( 'NONE', *, *, #35, .F. ) ;
#11 = MANIFOLD_SOLID_BREP ( 'ºÐÇÒ2[2]', #90 ) ;
#12 = EDGE_CURVE ( 'NONE', #150, #150, #130, .T. ) ;
#13 = ADVANCED_FACE ( 'NONE', ( #115 ), #97, .T. ) ;
#14 = DIRECTION ( 'NONE',  ( 0.0000000000000000000, 0.0000000000000000000, 1.000000000000000000 ) ) ;
#15 = FACE_OUTER_BOUND ( 'NONE', #38, .T. ) ;
#16 = PRESENTATION_STYLE_ASSIGNMENT (( #124 ) ) ;
#17 = AXIS2_PLACEMENT_3D ( 'NONE', #126, #27, #109 ) ;
#18 = DIRECTION ( 'NONE',  ( -1.000000000000000000, -0.0000000000000000000, -0.0000000000000000000 ) ) ;
#19 = CIRCLE ( 'NONE', #171, 6.350000000000008527 ) ;
#20 = AXIS2_PLACEMENT_3D ( 'NONE', #208, #89, #195 ) ;
#21 = EDGE_CURVE ( 'NONE', #164, #164, #19, .T. ) ;
#22 = ORIENTED_EDGE ( 'NONE', *, *, #45, .T. ) ;
#23 = UNCERTAINTY_MEASURE_WITH_UNIT (LENGTH_MEASURE( 1.000000000000000082E-05 ), #7, 'distance_accuracy_value', 'NONE');
#24 = FACE_OUTER_BOUND ( 'NONE', #60, .T. ) ;
#25 =( NAMED_UNIT ( * ) SI_UNIT ( $, .STERADIAN. ) SOLID_ANGLE_UNIT ( ) );
#26 = FILL_AREA_STYLE_COLOUR ( '', #91 ) ;
#27 = DIRECTION ( 'NONE',  ( 1.000000000000000000, 0.0000000000000000000, 0.0000000000000000000 ) ) ;
#28 = SURFACE_SIDE_STYLE ('',( #111 ) ) ;
#29 = FACE_BOUND ( 'NONE', #144, .T. ) ;
#30 = SURFACE_STYLE_FILL_AREA ( #9 ) ;
#31 = FILL_AREA_STYLE ('',( #158 ) ) ;
#32 = PRODUCT_CONTEXT ( 'NONE', #110, 'mechanical' ) ;
#33 = AXIS2_PLACEMENT_3D ( 'NONE', #176, #75, #41 ) ;
#34 = EDGE_LOOP ( 'NONE', ( #85 ) ) ;
#35 = EDGE_CURVE ( 'NONE', #160, #160, #119, .T. ) ;
#36 = CARTESIAN_POINT ( 'NONE',  ( -849.0000000000000000, 0.0000000000000000000, 0.0000000000000000000 ) ) ;
#37 = DIRECTION ( 'NONE',  ( 1.000000000000000000, 0.0000000000000000000, 0.0000000000000000000 ) ) ;
#38 = EDGE_LOOP ( 'NONE', ( #1 ) ) ;
#39 = PRESENTATION_STYLE_ASSIGNMENT (( #46 ) ) ;
#40 =( GEOMETRIC_REPRESENTATION_CONTEXT ( 3 ) GLOBAL_UNCERTAINTY_ASSIGNED_CONTEXT ( ( #178 ) ) GLOBAL_UNIT_ASSIGNED_CONTEXT ( ( #117, #121, #185 ) ) REPRESENTATION_CONTEXT ( 'NONE', 'WORKASPACE' ) );
#41 = DIRECTION ( 'NONE',  ( 0.0000000000000000000, 0.0000000000000000000, 1.000000000000000000 ) ) ;
#42 = DIRECTION ( 'NONE',  ( 0.0000000000000000000, 0.0000000000000000000, 1.000000000000000000 ) ) ;
#43 = CARTESIAN_POINT ( 'NONE',  ( -3.888253587292846081E-16, 0.0000000000000000000, -5.079999999999988525 ) ) ;
#44 =( NAMED_UNIT ( * ) PLANE_ANGLE_UNIT ( ) SI_UNIT ( $, .RADIAN. ) );
#45 = EDGE_CURVE ( 'NONE', #2, #2, #86, .T. ) ;
#46 = SURFACE_STYLE_USAGE ( .BOTH. , #148 ) ;
#47 = APPLICATION_PROTOCOL_DEFINITION ( 'draft international standard', 'automotive_design', 1998, #152 ) ;
#48 = PRESENTATION_STYLE_ASSIGNMENT (( #83 ) ) ;
#49 = AXIS2_PLACEMENT_3D ( 'NONE', #159, #201, #96 ) ;
#50 = CLOSED_SHELL ( 'NONE', ( #168, #209, #88, #13 ) ) ;
#51 = CARTESIAN_POINT ( 'NONE',  ( 0.0000000000000000000, 0.0000000000000000000, 0.0000000000000000000 ) ) ;
#52 = ORIENTED_EDGE ( 'NONE', *, *, #120, .F. ) ;
#53 = DIRECTION ( 'NONE',  ( 0.0000000000000000000, 0.0000000000000000000, 1.000000000000000000 ) ) ;
#54 = PRESENTATION_LAYER_ASSIGNMENT (  '', '', ( #184 ) ) ;
#55 = SURFACE_STYLE_USAGE ( .BOTH. , #125 ) ;
#56 =( NAMED_UNIT ( * ) PLANE_ANGLE_UNIT ( ) SI_UNIT ( $, .RADIAN. ) );
#57 = ADVANCED_FACE ( 'NONE', ( #24, #102 ), #180, .T. ) ;
#58 = UNCERTAINTY_MEASURE_WITH_UNIT (LENGTH_MEASURE( 1.000000000000000082E-05 ), #6, 'distance_accuracy_value', 'NONE');
#59 = SURFACE_STYLE_USAGE ( .BOTH. , #28 ) ;
#60 = EDGE_LOOP ( 'NONE', ( #202 ) ) ;
#61 = FACE_OUTER_BOUND ( 'NONE', #93, .T. ) ;
#62 = EDGE_LOOP ( 'NONE', ( #10 ) ) ;
#63 = ORIENTED_EDGE ( 'NONE', *, *, #12, .T. ) ;
#64 = STYLED_ITEM ( 'NONE', ( #16 ), #198 ) ;
#65 = APPLICATION_PROTOCOL_DEFINITION ( 'draft international standard', 'automotive_design', 1998, #110 ) ;
#66 = AXIS2_PLACEMENT_3D ( 'NONE', #106, #174, #118 ) ;
#67 = PRODUCT_DEFINITION_SHAPE ( 'NONE', 'NONE',  #179 ) ;
#68 = PRESENTATION_STYLE_ASSIGNMENT (( #59 ) ) ;
#69 = DIRECTION ( 'NONE',  ( 1.000000000000000000, 0.0000000000000000000, 0.0000000000000000000 ) ) ;
#70 = FACE_OUTER_BOUND ( 'NONE', #34, .T. ) ;
#71 = DIRECTION ( 'NONE',  ( -1.000000000000000000, -0.0000000000000000000, -0.0000000000000000000 ) ) ;
#72 = PRODUCT ( '03-1733', '03-1733', '', ( #32 ) ) ;
#73 = DIRECTION ( 'NONE',  ( -1.000000000000000000, -0.0000000000000000000, -0.0000000000000000000 ) ) ;
#74 = CARTESIAN_POINT ( 'NONE',  ( 1.270000000000028439, 0.0000000000000000000, -6.350000000000008527 ) ) ;
#75 = DIRECTION ( 'NONE',  ( -1.000000000000000000, -0.0000000000000000000, -0.0000000000000000000 ) ) ;
#76 = ADVANCED_FACE ( 'NONE', ( #15 ), #172, .F. ) ;
#77 =( NAMED_UNIT ( * ) PLANE_ANGLE_UNIT ( ) SI_UNIT ( $, .RADIAN. ) );
#78 = FACE_OUTER_BOUND ( 'NONE', #127, .T. ) ;
#79 = ORIENTED_EDGE ( 'NONE', *, *, #35, .T. ) ;
#80 = MECHANICAL_DESIGN_GEOMETRIC_PRESENTATION_REPRESENTATION (  '', ( #135 ), #40 ) ;
#81 = FILL_AREA_STYLE ('',( #100 ) ) ;
#82 = PRESENTATION_LAYER_ASSIGNMENT (  '', '', ( #95 ) ) ;
#83 = SURFACE_STYLE_USAGE ( .BOTH. , #204 ) ;
#84 = PLANE ( 'NONE',  #20 ) ;
#85 = ORIENTED_EDGE ( 'NONE', *, *, #120, .T. ) ;
#86 = CIRCLE ( 'NONE', #108, 5.079999999999988525 ) ;
#87 = FILL_AREA_STYLE_COLOUR ( '', #154 ) ;
#88 = ADVANCED_FACE ( 'NONE', ( #129, #29 ), #187, .T. ) ;
#89 = DIRECTION ( 'NONE',  ( 1.000000000000000000, 0.0000000000000000000, 0.0000000000000000000 ) ) ;
#90 = CLOSED_SHELL ( 'NONE', ( #76, #57, #147 ) ) ;
#91 = COLOUR_RGB ( '',1.000000000000000000, 1.000000000000000000, 0.0000000000000000000 ) ;
#92 =( GEOMETRIC_REPRESENTATION_CONTEXT ( 3 ) GLOBAL_UNCERTAINTY_ASSIGNED_CONTEXT ( ( #23 ) ) GLOBAL_UNIT_ASSIGNED_CONTEXT ( ( #7, #142, #25 ) ) REPRESENTATION_CONTEXT ( 'NONE', 'WORKASPACE' ) );
#93 = EDGE_LOOP ( 'NONE', ( #181 ) ) ;
#94 = UNCERTAINTY_MEASURE_WITH_UNIT (LENGTH_MEASURE( 1.000000000000000082E-05 ), #173, 'distance_accuracy_value', 'NONE');
#95 = STYLED_ITEM ( 'NONE', ( #39 ), #200 ) ;
#96 = DIRECTION ( 'NONE',  ( 0.0000000000000000000, 0.0000000000000000000, -1.000000000000000000 ) ) ;
#97 = PLANE ( 'NONE',  #212 ) ;
#98 = SURFACE_STYLE_FILL_AREA ( #81 ) ;
#99 = CONICAL_SURFACE ( 'NONE', #113, 2414.213562373078275, 1.178097245096169976 ) ;
#100 = FILL_AREA_STYLE_COLOUR ( '', #197 ) ;
#101 = PRESENTATION_LAYER_ASSIGNMENT (  '', '', ( #143 ) ) ;
#102 = FACE_OUTER_BOUND ( 'NONE', #5, .T. ) ;
#103 = MECHANICAL_DESIGN_GEOMETRIC_PRESENTATION_REPRESENTATION (  '', ( #64 ), #92 ) ;
#104 =( NAMED_UNIT ( * ) PLANE_ANGLE_UNIT ( ) SI_UNIT ( $, .RADIAN. ) );
#105 = FILL_AREA_STYLE ('',( #186 ) ) ;
#106 = CARTESIAN_POINT ( 'NONE',  ( 49.99999999999998579, 0.0000000000000000000, 0.0000000000000000000 ) ) ;
#107 = COLOUR_RGB ( '',0.7921568627450980005, 0.8196078431372548767, 0.9333333333333333481 ) ;
#108 = AXIS2_PLACEMENT_3D ( 'NONE', #207, #73, #190 ) ;
#109 = DIRECTION ( 'NONE',  ( 0.0000000000000000000, 0.0000000000000000000, -1.000000000000000000 ) ) ;
#110 = APPLICATION_CONTEXT ( 'automotive_design' ) ;
#111 = SURFACE_STYLE_FILL_AREA ( #31 ) ;
#112 = CARTESIAN_POINT ( 'NONE',  ( 49.99999999999998579, 0.0000000000000000000, -6.350000000000008527 ) ) ;
#113 = AXIS2_PLACEMENT_3D ( 'NONE', #36, #18, #162 ) ;
#114 = FACE_OUTER_BOUND ( 'NONE', #62, .T. ) ;
#115 = FACE_OUTER_BOUND ( 'NONE', #133, .T. ) ;
#116 = PRESENTATION_LAYER_ASSIGNMENT (  '', '', ( #64 ) ) ;
#117 =( LENGTH_UNIT ( ) NAMED_UNIT ( * ) SI_UNIT ( .MILLI., .METRE. ) );
#118 = DIRECTION ( 'NONE',  ( 0.0000000000000000000, 0.0000000000000000000, -1.000000000000000000 ) ) ;
#119 = CIRCLE ( 'NONE', #17, 6.350000000000008527 ) ;
#120 = EDGE_CURVE ( 'NONE', #123, #123, #156, .T. ) ;
#121 =( NAMED_UNIT ( * ) PLANE_ANGLE_UNIT ( ) SI_UNIT ( $, .RADIAN. ) );
#122 = MECHANICAL_DESIGN_GEOMETRIC_PRESENTATION_REPRESENTATION (  '', ( #95 ), #8 ) ;
#123 = VERTEX_POINT ( 'NONE', #74 ) ;
#124 = SURFACE_STYLE_USAGE ( .BOTH. , #205 ) ;
#125 = SURFACE_SIDE_STYLE ('',( #30 ) ) ;
#126 = CARTESIAN_POINT ( 'NONE',  ( 49.99999999999998579, 0.0000000000000000000, 0.0000000000000000000 ) ) ;
#127 = EDGE_LOOP ( 'NONE', ( #22 ) ) ;
#128 = DIRECTION ( 'NONE',  ( 1.000000000000000000, 0.0000000000000000000, 0.0000000000000000000 ) ) ;
#129 = FACE_OUTER_BOUND ( 'NONE', #4, .T. ) ;
#130 = CIRCLE ( 'NONE', #33, 6.350000000000018296 ) ;
#131 = AXIS2_PLACEMENT_3D ( 'NONE', #51, #71, #42 ) ;
#132 = SHAPE_DEFINITION_REPRESENTATION ( #67, #200 ) ;
#133 = EDGE_LOOP ( 'NONE', ( #79 ) ) ;
#134 = PRESENTATION_STYLE_ASSIGNMENT (( #55 ) ) ;
#135 = STYLED_ITEM ( 'NONE', ( #68 ), #11 ) ;
#136 = PRODUCT_RELATED_PRODUCT_CATEGORY ( 'part', '', ( #72 ) ) ;
#137 = DIRECTION ( 'NONE',  ( -1.000000000000000000, -0.0000000000000000000, -0.0000000000000000000 ) ) ;
#138 = DIRECTION ( 'NONE',  ( 0.0000000000000000000, 0.0000000000000000000, -1.000000000000000000 ) ) ;
#139 = MECHANICAL_DESIGN_GEOMETRIC_PRESENTATION_REPRESENTATION (  '', ( #143 ), #182 ) ;
#140 = UNCERTAINTY_MEASURE_WITH_UNIT (LENGTH_MEASURE( 1.000000000000000082E-05 ), #166, 'distance_accuracy_value', 'NONE');
#141 =( NAMED_UNIT ( * ) SI_UNIT ( $, .STERADIAN. ) SOLID_ANGLE_UNIT ( ) );
#142 =( NAMED_UNIT ( * ) PLANE_ANGLE_UNIT ( ) SI_UNIT ( $, .RADIAN. ) );
#143 = STYLED_ITEM ( 'NONE', ( #134 ), #57 ) ;
#144 = EDGE_LOOP ( 'NONE', ( #199 ) ) ;
#145 =( NAMED_UNIT ( * ) SI_UNIT ( $, .STERADIAN. ) SOLID_ANGLE_UNIT ( ) );
#146 = CARTESIAN_POINT ( 'NONE',  ( 0.0000000000000000000, 0.0000000000000000000, 0.0000000000000000000 ) ) ;
#147 = ADVANCED_FACE ( 'NONE', ( #61 ), #99, .T. ) ;
#148 = SURFACE_SIDE_STYLE ('',( #175 ) ) ;
#149 = PRESENTATION_LAYER_ASSIGNMENT (  '', '', ( #135 ) ) ;
#150 = VERTEX_POINT ( 'NONE', #210 ) ;
#151 = AXIS2_PLACEMENT_3D ( 'NONE', #146, #14, #128 ) ;
#152 = APPLICATION_CONTEXT ( 'automotive_design' ) ;
#153 = CARTESIAN_POINT ( 'NONE',  ( 49.99999999999998579, 0.0000000000000000000, 0.0000000000000000000 ) ) ;
#154 = COLOUR_RGB ( '',0.7921568627450980005, 0.8196078431372548767, 0.9333333333333333481 ) ;
#155 = AXIS2_PLACEMENT_3D ( 'NONE', #3, #137, #53 ) ;
#156 = CIRCLE ( 'NONE', #49, 6.350000000000008527 ) ;
#157 =( GEOMETRIC_REPRESENTATION_CONTEXT ( 3 ) GLOBAL_UNCERTAINTY_ASSIGNED_CONTEXT ( ( #58 ) ) GLOBAL_UNIT_ASSIGNED_CONTEXT ( ( #6, #104, #141 ) ) REPRESENTATION_CONTEXT ( 'NONE', 'WORKASPACE' ) );
#158 = FILL_AREA_STYLE_COLOUR ( '', #107 ) ;
#159 = CARTESIAN_POINT ( 'NONE',  ( 1.270000000000028439, 0.0000000000000000000, 0.0000000000000000000 ) ) ;
#160 = VERTEX_POINT ( 'NONE', #192 ) ;
#161 = CARTESIAN_POINT ( 'NONE',  ( 49.99999999999998579, 0.0000000000000000000, 0.0000000000000000000 ) ) ;
#162 = DIRECTION ( 'NONE',  ( 0.0000000000000000000, 0.0000000000000000000, 1.000000000000000000 ) ) ;
#163 = CYLINDRICAL_SURFACE ( 'NONE', #131, 6.350000000000008527 ) ;
#164 = VERTEX_POINT ( 'NONE', #112 ) ;
#165 = DIRECTION ( 'NONE',  ( 0.0000000000000000000, 0.0000000000000000000, -1.000000000000000000 ) ) ;
#166 =( LENGTH_UNIT ( ) NAMED_UNIT ( * ) SI_UNIT ( .MILLI., .METRE. ) );
#167 = COLOUR_RGB ( '',0.7921568627450980005, 0.8196078431372548767, 0.9333333333333333481 ) ;
#168 = ADVANCED_FACE ( 'NONE', ( #70, #114 ), #163, .T. ) ;
#169 =( LENGTH_UNIT ( ) NAMED_UNIT ( * ) SI_UNIT ( .MILLI., .METRE. ) );
#170 =( GEOMETRIC_REPRESENTATION_CONTEXT ( 3 ) GLOBAL_UNCERTAINTY_ASSIGNED_CONTEXT ( ( #94 ) ) GLOBAL_UNIT_ASSIGNED_CONTEXT ( ( #173, #56, #177 ) ) REPRESENTATION_CONTEXT ( 'NONE', 'WORKASPACE' ) );
#171 = AXIS2_PLACEMENT_3D ( 'NONE', #161, #37, #165 ) ;
#172 = PLANE ( 'NONE',  #66 ) ;
#173 =( LENGTH_UNIT ( ) NAMED_UNIT ( * ) SI_UNIT ( .MILLI., .METRE. ) );
#174 = DIRECTION ( 'NONE',  ( 1.000000000000000000, 0.0000000000000000000, 0.0000000000000000000 ) ) ;
#175 = SURFACE_STYLE_FILL_AREA ( #193 ) ;
#176 = CARTESIAN_POINT ( 'NONE',  ( 148.3697438789308194, 0.0000000000000000000, 0.0000000000000000000 ) ) ;
#177 =( NAMED_UNIT ( * ) SI_UNIT ( $, .STERADIAN. ) SOLID_ANGLE_UNIT ( ) );
#178 = UNCERTAINTY_MEASURE_WITH_UNIT (LENGTH_MEASURE( 1.000000000000000082E-05 ), #117, 'distance_accuracy_value', 'NONE');
#179 = PRODUCT_DEFINITION ( 'UNKNOWN', '', #203, #191 ) ;
#180 = CYLINDRICAL_SURFACE ( 'NONE', #155, 6.350000000000008527 ) ;
#181 = ORIENTED_EDGE ( 'NONE', *, *, #12, .F. ) ;
#182 =( GEOMETRIC_REPRESENTATION_CONTEXT ( 3 ) GLOBAL_UNCERTAINTY_ASSIGNED_CONTEXT ( ( #140 ) ) GLOBAL_UNIT_ASSIGNED_CONTEXT ( ( #166, #44, #145 ) ) REPRESENTATION_CONTEXT ( 'NONE', 'WORKASPACE' ) );
#183 = CARTESIAN_POINT ( 'NONE',  ( -3.888253587292846081E-16, 0.0000000000000000000, 0.0000000000000000000 ) ) ;
#184 = STYLED_ITEM ( 'NONE', ( #48 ), #147 ) ;
#185 =( NAMED_UNIT ( * ) SI_UNIT ( $, .STERADIAN. ) SOLID_ANGLE_UNIT ( ) );
#186 = FILL_AREA_STYLE_COLOUR ( '', #167 ) ;
#187 = CONICAL_SURFACE ( 'NONE', #194, 5.079999999999988525, 0.7853981633974449483 ) ;
#188 = SURFACE_STYLE_FILL_AREA ( #105 ) ;
#189 = DIRECTION ( 'NONE',  ( 1.000000000000000000, 0.0000000000000000000, 0.0000000000000000000 ) ) ;
#190 = DIRECTION ( 'NONE',  ( 0.0000000000000000000, 0.0000000000000000000, -1.000000000000000000 ) ) ;
#191 = PRODUCT_DEFINITION_CONTEXT ( 'detailed design', #152, 'design' ) ;
#192 = CARTESIAN_POINT ( 'NONE',  ( 49.99999999999998579, 0.0000000000000000000, -6.350000000000008527 ) ) ;
#193 = FILL_AREA_STYLE ('',( #87 ) ) ;
#194 = AXIS2_PLACEMENT_3D ( 'NONE', #183, #69, #138 ) ;
#195 = DIRECTION ( 'NONE',  ( 0.0000000000000000000, 0.0000000000000000000, -1.000000000000000000 ) ) ;
#196 =( NAMED_UNIT ( * ) SI_UNIT ( $, .STERADIAN. ) SOLID_ANGLE_UNIT ( ) );
#197 = COLOUR_RGB ( '',1.000000000000000000, 1.000000000000000000, 0.0000000000000000000 ) ;
#198 = MANIFOLD_SOLID_BREP ( 'ºÐÇÒ2[1]', #50 ) ;
#199 = ORIENTED_EDGE ( 'NONE', *, *, #45, .F. ) ;
#200 = ADVANCED_BREP_SHAPE_REPRESENTATION ( '03-1733', ( #198, #11, #151 ), #170 ) ;
#201 = DIRECTION ( 'NONE',  ( 1.000000000000000000, 0.0000000000000000000, 0.0000000000000000000 ) ) ;
#202 = ORIENTED_EDGE ( 'NONE', *, *, #21, .T. ) ;
#203 = PRODUCT_DEFINITION_FORMATION_WITH_SPECIFIED_SOURCE ( 'ANY', '', #72, .NOT_KNOWN. ) ;
#204 = SURFACE_SIDE_STYLE ('',( #98 ) ) ;
#205 = SURFACE_SIDE_STYLE ('',( #188 ) ) ;
#206 = DIRECTION ( 'NONE',  ( 0.0000000000000000000, 0.0000000000000000000, -1.000000000000000000 ) ) ;
#207 = CARTESIAN_POINT ( 'NONE',  ( -3.888253587292846081E-16, 0.0000000000000000000, 0.0000000000000000000 ) ) ;
#208 = CARTESIAN_POINT ( 'NONE',  ( -3.888253587292846081E-16, 6.349999999999999645, 0.0000000000000000000 ) ) ;
#209 = ADVANCED_FACE ( 'NONE', ( #78 ), #84, .F. ) ;
#210 = CARTESIAN_POINT ( 'NONE',  ( 148.3697438789308194, 0.0000000000000000000, 6.350000000000018296 ) ) ;
#211 = MECHANICAL_DESIGN_GEOMETRIC_PRESENTATION_REPRESENTATION (  '', ( #184 ), #157 ) ;
#212 = AXIS2_PLACEMENT_3D ( 'NONE', #153, #189, #206 ) ;
#213 = UNCERTAINTY_MEASURE_WITH_UNIT (LENGTH_MEASURE( 1.000000000000000082E-05 ), #169, 'distance_accuracy_value', 'NONE');
ENDSEC;
END-ISO-10303-21;
