ISO-10303-21;
HEADER;
FILE_DESCRIPTION (( 'STEP AP214' ),
    '1' );
FILE_NAME ('03-1734.STEP',
    '2021-10-01T05:54:03',
    ( 'USER' ),
    ( '' ),
    'SwSTEP 2.0',
    'SolidWorks 2018',
    '' );
FILE_SCHEMA (( 'AUTOMOTIVE_DESIGN' ));
ENDSEC;

DATA;
#1 = PRODUCT_DEFINITION_FORMATION_WITH_SPECIFIED_SOURCE ( 'ANY', '', #61, .NOT_KNOWN. ) ;
#2 = PRESENTATION_STYLE_ASSIGNMENT (( #72 ) ) ;
#3 = EDGE_LOOP ( 'NONE', ( #115 ) ) ;
#4 = COLOUR_RGB ( '',0.7921568627450980005, 0.8196078431372548767, 0.9333333333333333481 ) ;
#5 = VERTEX_POINT ( 'NONE', #19 ) ;
#6 = APPLICATION_CONTEXT ( 'automotive_design' ) ;
#7 = VERTEX_POINT ( 'NONE', #12 ) ;
#8 = FILL_AREA_STYLE_COLOUR ( '', #4 ) ;
#9 = UNCERTAINTY_MEASURE_WITH_UNIT (LENGTH_MEASURE( 1.000000000000000082E-05 ), #211, 'distance_accuracy_value', 'NONE');
#10 = EDGE_LOOP ( 'NONE', ( #78 ) ) ;
#11 = SURFACE_STYLE_FILL_AREA ( #21 ) ;
#12 = CARTESIAN_POINT ( 'NONE',  ( 148.3490332008121300, 0.0000000000000000000, 6.400000000000018119 ) ) ;
#13 =( GEOMETRIC_REPRESENTATION_CONTEXT ( 3 ) GLOBAL_UNCERTAINTY_ASSIGNED_CONTEXT ( ( #74 ) ) GLOBAL_UNIT_ASSIGNED_CONTEXT ( ( #14, #106, #36 ) ) REPRESENTATION_CONTEXT ( 'NONE', 'WORKASPACE' ) );
#14 =( LENGTH_UNIT ( ) NAMED_UNIT ( * ) SI_UNIT ( .MILLI., .METRE. ) );
#15 =( NAMED_UNIT ( * ) PLANE_ANGLE_UNIT ( ) SI_UNIT ( $, .RADIAN. ) );
#16 =( LENGTH_UNIT ( ) NAMED_UNIT ( * ) SI_UNIT ( .MILLI., .METRE. ) );
#17 = SURFACE_STYLE_FILL_AREA ( #174 ) ;
#18 = AXIS2_PLACEMENT_3D ( 'NONE', #59, #29, #162 ) ;
#19 = CARTESIAN_POINT ( 'NONE',  ( -3.918869757271530953E-16, 0.0000000000000000000, -5.120000000000026752 ) ) ;
#20 = ADVANCED_BREP_SHAPE_REPRESENTATION ( '03-1734', ( #176, #124, #168 ), #13 ) ;
#21 = FILL_AREA_STYLE ('',( #125 ) ) ;
#22 = DIRECTION ( 'NONE',  ( -1.000000000000000000, -0.0000000000000000000, -0.0000000000000000000 ) ) ;
#23 = CARTESIAN_POINT ( 'NONE',  ( 1.279999999999990701, 0.0000000000000000000, 0.0000000000000000000 ) ) ;
#24 = CARTESIAN_POINT ( 'NONE',  ( 49.99999999999998579, 0.0000000000000000000, -6.400000000000010125 ) ) ;
#25 = CIRCLE ( 'NONE', #187, 5.120000000000026752 ) ;
#26 = SURFACE_STYLE_USAGE ( .BOTH. , #85 ) ;
#27 =( NAMED_UNIT ( * ) SI_UNIT ( $, .STERADIAN. ) SOLID_ANGLE_UNIT ( ) );
#28 = VERTEX_POINT ( 'NONE', #24 ) ;
#29 = DIRECTION ( 'NONE',  ( 1.000000000000000000, 0.0000000000000000000, 0.0000000000000000000 ) ) ;
#30 = SURFACE_STYLE_USAGE ( .BOTH. , #202 ) ;
#31 = SURFACE_STYLE_FILL_AREA ( #212 ) ;
#32 = EDGE_CURVE ( 'NONE', #28, #28, #75, .T. ) ;
#33 =( LENGTH_UNIT ( ) NAMED_UNIT ( * ) SI_UNIT ( .MILLI., .METRE. ) );
#34 = PRESENTATION_STYLE_ASSIGNMENT (( #92 ) ) ;
#35 = SURFACE_STYLE_FILL_AREA ( #89 ) ;
#36 =( NAMED_UNIT ( * ) SI_UNIT ( $, .STERADIAN. ) SOLID_ANGLE_UNIT ( ) );
#37 = DIRECTION ( 'NONE',  ( 1.000000000000000000, 0.0000000000000000000, 0.0000000000000000000 ) ) ;
#38 = EDGE_LOOP ( 'NONE', ( #191 ) ) ;
#39 = STYLED_ITEM ( 'NONE', ( #42 ), #122 ) ;
#40 = DIRECTION ( 'NONE',  ( 0.0000000000000000000, 0.0000000000000000000, 1.000000000000000000 ) ) ;
#41 = DIRECTION ( 'NONE',  ( 1.000000000000000000, 0.0000000000000000000, 0.0000000000000000000 ) ) ;
#42 = PRESENTATION_STYLE_ASSIGNMENT (( #30 ) ) ;
#43 = PRODUCT_CONTEXT ( 'NONE', #6, 'mechanical' ) ;
#44 = EDGE_CURVE ( 'NONE', #7, #7, #118, .T. ) ;
#45 = CARTESIAN_POINT ( 'NONE',  ( 0.0000000000000000000, 0.0000000000000000000, 0.0000000000000000000 ) ) ;
#46 =( NAMED_UNIT ( * ) SI_UNIT ( $, .STERADIAN. ) SOLID_ANGLE_UNIT ( ) );
#47 = EDGE_LOOP ( 'NONE', ( #210 ) ) ;
#48 = ADVANCED_FACE ( 'NONE', ( #167 ), #112, .T. ) ;
#49 = APPLICATION_CONTEXT ( 'automotive_design' ) ;
#50 = PRODUCT_DEFINITION_CONTEXT ( 'detailed design', #49, 'design' ) ;
#51 = ORIENTED_EDGE ( 'NONE', *, *, #73, .F. ) ;
#52 = FACE_OUTER_BOUND ( 'NONE', #135, .T. ) ;
#53 = APPLICATION_PROTOCOL_DEFINITION ( 'draft international standard', 'automotive_design', 1998, #49 ) ;
#54 = AXIS2_PLACEMENT_3D ( 'NONE', #65, #101, #208 ) ;
#55 = DIRECTION ( 'NONE',  ( 1.000000000000000000, 0.0000000000000000000, 0.0000000000000000000 ) ) ;
#56 = CARTESIAN_POINT ( 'NONE',  ( 1.279999999999990701, 0.0000000000000000000, -6.400000000000010125 ) ) ;
#57 = EDGE_CURVE ( 'NONE', #136, #136, #180, .T. ) ;
#58 = FILL_AREA_STYLE_COLOUR ( '', #90 ) ;
#59 = CARTESIAN_POINT ( 'NONE',  ( 49.99999999999998579, 0.0000000000000000000, 0.0000000000000000000 ) ) ;
#60 = DIRECTION ( 'NONE',  ( -1.000000000000000000, -0.0000000000000000000, -0.0000000000000000000 ) ) ;
#61 = PRODUCT ( '03-1734', '03-1734', '', ( #43 ) ) ;
#62 =( LENGTH_UNIT ( ) NAMED_UNIT ( * ) SI_UNIT ( .MILLI., .METRE. ) );
#63 = DIRECTION ( 'NONE',  ( 0.0000000000000000000, 0.0000000000000000000, -1.000000000000000000 ) ) ;
#64 =( NAMED_UNIT ( * ) PLANE_ANGLE_UNIT ( ) SI_UNIT ( $, .RADIAN. ) );
#65 = CARTESIAN_POINT ( 'NONE',  ( 49.99999999999998579, 0.0000000000000000000, 0.0000000000000000000 ) ) ;
#66 = CARTESIAN_POINT ( 'NONE',  ( -3.918869757271530953E-16, 6.400000000000000355, 0.0000000000000000000 ) ) ;
#67 = DIRECTION ( 'NONE',  ( 0.0000000000000000000, 0.0000000000000000000, -1.000000000000000000 ) ) ;
#68 = ORIENTED_EDGE ( 'NONE', *, *, #32, .T. ) ;
#69 =( NAMED_UNIT ( * ) SI_UNIT ( $, .STERADIAN. ) SOLID_ANGLE_UNIT ( ) );
#70 = ADVANCED_FACE ( 'NONE', ( #158 ), #148, .F. ) ;
#71 = PRESENTATION_STYLE_ASSIGNMENT (( #213 ) ) ;
#72 = SURFACE_STYLE_USAGE ( .BOTH. , #113 ) ;
#73 = EDGE_CURVE ( 'NONE', #5, #5, #25, .T. ) ;
#74 = UNCERTAINTY_MEASURE_WITH_UNIT (LENGTH_MEASURE( 1.000000000000000082E-05 ), #14, 'distance_accuracy_value', 'NONE');
#75 = CIRCLE ( 'NONE', #159, 6.400000000000010125 ) ;
#76 = CYLINDRICAL_SURFACE ( 'NONE', #139, 6.400000000000010125 ) ;
#77 = AXIS2_PLACEMENT_3D ( 'NONE', #23, #55, #165 ) ;
#78 = ORIENTED_EDGE ( 'NONE', *, *, #32, .F. ) ;
#79 = DIRECTION ( 'NONE',  ( 1.000000000000000000, 0.0000000000000000000, 0.0000000000000000000 ) ) ;
#80 = FILL_AREA_STYLE_COLOUR ( '', #143 ) ;
#81 = PLANE ( 'NONE',  #204 ) ;
#82 = CYLINDRICAL_SURFACE ( 'NONE', #111, 6.400000000000010125 ) ;
#83 = AXIS2_PLACEMENT_3D ( 'NONE', #195, #37, #183 ) ;
#84 = CARTESIAN_POINT ( 'NONE',  ( -3.918869757271530953E-16, 0.0000000000000000000, 0.0000000000000000000 ) ) ;
#85 = SURFACE_SIDE_STYLE ('',( #31 ) ) ;
#86 = MECHANICAL_DESIGN_GEOMETRIC_PRESENTATION_REPRESENTATION (  '', ( #102 ), #137 ) ;
#87 = CLOSED_SHELL ( 'NONE', ( #194, #134, #178, #48 ) ) ;
#88 = DIRECTION ( 'NONE',  ( 0.0000000000000000000, 0.0000000000000000000, -1.000000000000000000 ) ) ;
#89 = FILL_AREA_STYLE ('',( #8 ) ) ;
#90 = COLOUR_RGB ( '',0.7921568627450980005, 0.8196078431372548767, 0.9333333333333333481 ) ;
#91 = SURFACE_SIDE_STYLE ('',( #35 ) ) ;
#92 = SURFACE_STYLE_USAGE ( .BOTH. , #91 ) ;
#93 = FILL_AREA_STYLE_COLOUR ( '', #185 ) ;
#94 = COLOUR_RGB ( '',1.000000000000000000, 1.000000000000000000, 0.0000000000000000000 ) ;
#95 = SURFACE_STYLE_FILL_AREA ( #138 ) ;
#96 = UNCERTAINTY_MEASURE_WITH_UNIT (LENGTH_MEASURE( 1.000000000000000082E-05 ), #196, 'distance_accuracy_value', 'NONE');
#97 =( NAMED_UNIT ( * ) SI_UNIT ( $, .STERADIAN. ) SOLID_ANGLE_UNIT ( ) );
#98 = CARTESIAN_POINT ( 'NONE',  ( 49.99999999999998579, 0.0000000000000000000, 0.0000000000000000000 ) ) ;
#99 = AXIS2_PLACEMENT_3D ( 'NONE', #197, #206, #88 ) ;
#100 = DIRECTION ( 'NONE',  ( 0.0000000000000000000, 0.0000000000000000000, -1.000000000000000000 ) ) ;
#101 = DIRECTION ( 'NONE',  ( 1.000000000000000000, 0.0000000000000000000, 0.0000000000000000000 ) ) ;
#102 = STYLED_ITEM ( 'NONE', ( #2 ), #176 ) ;
#103 = SURFACE_SIDE_STYLE ('',( #17 ) ) ;
#104 = DIRECTION ( 'NONE',  ( -1.000000000000000000, -0.0000000000000000000, -0.0000000000000000000 ) ) ;
#105 =( NAMED_UNIT ( * ) PLANE_ANGLE_UNIT ( ) SI_UNIT ( $, .RADIAN. ) );
#106 =( NAMED_UNIT ( * ) PLANE_ANGLE_UNIT ( ) SI_UNIT ( $, .RADIAN. ) );
#107 = EDGE_LOOP ( 'NONE', ( #175 ) ) ;
#108 = PRESENTATION_LAYER_ASSIGNMENT (  '', '', ( #156 ) ) ;
#109 = CONICAL_SURFACE ( 'NONE', #99, 5.120000000000026752, 0.7853981633974452814 ) ;
#110 = APPLICATION_PROTOCOL_DEFINITION ( 'draft international standard', 'automotive_design', 1998, #6 ) ;
#111 = AXIS2_PLACEMENT_3D ( 'NONE', #45, #60, #190 ) ;
#112 = PLANE ( 'NONE',  #83 ) ;
#113 = SURFACE_SIDE_STYLE ('',( #95 ) ) ;
#114 = PRODUCT_DEFINITION ( 'UNKNOWN', '', #1, #50 ) ;
#115 = ORIENTED_EDGE ( 'NONE', *, *, #57, .F. ) ;
#116 = CARTESIAN_POINT ( 'NONE',  ( 49.99999999999998579, 0.0000000000000000000, -6.400000000000010125 ) ) ;
#117 = PRESENTATION_LAYER_ASSIGNMENT (  '', '', ( #126 ) ) ;
#118 = CIRCLE ( 'NONE', #166, 6.400000000000018119 ) ;
#119 =( NAMED_UNIT ( * ) SI_UNIT ( $, .STERADIAN. ) SOLID_ANGLE_UNIT ( ) );
#120 = CONICAL_SURFACE ( 'NONE', #164, 2414.213562373055083, 1.178097245096166645 ) ;
#121 = CARTESIAN_POINT ( 'NONE',  ( -849.0000000000000000, 0.0000000000000000000, 0.0000000000000000000 ) ) ;
#122 = ADVANCED_FACE ( 'NONE', ( #52 ), #120, .T. ) ;
#123 =( GEOMETRIC_REPRESENTATION_CONTEXT ( 3 ) GLOBAL_UNCERTAINTY_ASSIGNED_CONTEXT ( ( #96 ) ) GLOBAL_UNIT_ASSIGNED_CONTEXT ( ( #196, #181, #119 ) ) REPRESENTATION_CONTEXT ( 'NONE', 'WORKASPACE' ) );
#124 = MANIFOLD_SOLID_BREP ( 'ºÐÇÒ2[2]', #154 ) ;
#125 = FILL_AREA_STYLE_COLOUR ( '', #94 ) ;
#126 = STYLED_ITEM ( 'NONE', ( #34 ), #20 ) ;
#127 = CARTESIAN_POINT ( 'NONE',  ( 0.0000000000000000000, 0.0000000000000000000, 0.0000000000000000000 ) ) ;
#128 =( GEOMETRIC_REPRESENTATION_CONTEXT ( 3 ) GLOBAL_UNCERTAINTY_ASSIGNED_CONTEXT ( ( #177 ) ) GLOBAL_UNIT_ASSIGNED_CONTEXT ( ( #16, #105, #46 ) ) REPRESENTATION_CONTEXT ( 'NONE', 'WORKASPACE' ) );
#129 = UNCERTAINTY_MEASURE_WITH_UNIT (LENGTH_MEASURE( 1.000000000000000082E-05 ), #62, 'distance_accuracy_value', 'NONE');
#130 = DIRECTION ( 'NONE',  ( 0.0000000000000000000, 0.0000000000000000000, 1.000000000000000000 ) ) ;
#131 = EDGE_LOOP ( 'NONE', ( #155 ) ) ;
#132 = VERTEX_POINT ( 'NONE', #56 ) ;
#133 = MECHANICAL_DESIGN_GEOMETRIC_PRESENTATION_REPRESENTATION (  '', ( #156 ), #123 ) ;
#134 = ADVANCED_FACE ( 'NONE', ( #141 ), #81, .F. ) ;
#135 = EDGE_LOOP ( 'NONE', ( #189 ) ) ;
#136 = VERTEX_POINT ( 'NONE', #116 ) ;
#137 =( GEOMETRIC_REPRESENTATION_CONTEXT ( 3 ) GLOBAL_UNCERTAINTY_ASSIGNED_CONTEXT ( ( #146 ) ) GLOBAL_UNIT_ASSIGNED_CONTEXT ( ( #33, #151, #97 ) ) REPRESENTATION_CONTEXT ( 'NONE', 'WORKASPACE' ) );
#138 = FILL_AREA_STYLE ('',( #80 ) ) ;
#139 = AXIS2_PLACEMENT_3D ( 'NONE', #127, #22, #182 ) ;
#140 = DIRECTION ( 'NONE',  ( 0.0000000000000000000, 0.0000000000000000000, 1.000000000000000000 ) ) ;
#141 = FACE_OUTER_BOUND ( 'NONE', #38, .T. ) ;
#142 = PRODUCT_DEFINITION_SHAPE ( 'NONE', 'NONE',  #114 ) ;
#143 = COLOUR_RGB ( '',0.7921568627450980005, 0.8196078431372548767, 0.9333333333333333481 ) ;
#144 = EDGE_CURVE ( 'NONE', #132, #132, #199, .T. ) ;
#145 = DIRECTION ( 'NONE',  ( 1.000000000000000000, 0.0000000000000000000, 0.0000000000000000000 ) ) ;
#146 = UNCERTAINTY_MEASURE_WITH_UNIT (LENGTH_MEASURE( 1.000000000000000082E-05 ), #33, 'distance_accuracy_value', 'NONE');
#147 = MECHANICAL_DESIGN_GEOMETRIC_PRESENTATION_REPRESENTATION (  '', ( #126 ), #179 ) ;
#148 = PLANE ( 'NONE',  #18 ) ;
#149 = EDGE_LOOP ( 'NONE', ( #51 ) ) ;
#150 = SHAPE_DEFINITION_REPRESENTATION ( #142, #20 ) ;
#151 =( NAMED_UNIT ( * ) PLANE_ANGLE_UNIT ( ) SI_UNIT ( $, .RADIAN. ) );
#152 = MECHANICAL_DESIGN_GEOMETRIC_PRESENTATION_REPRESENTATION (  '', ( #200 ), #172 ) ;
#153 = FACE_OUTER_BOUND ( 'NONE', #47, .T. ) ;
#154 = CLOSED_SHELL ( 'NONE', ( #70, #207, #122 ) ) ;
#155 = ORIENTED_EDGE ( 'NONE', *, *, #57, .T. ) ;
#156 = STYLED_ITEM ( 'NONE', ( #170 ), #207 ) ;
#157 = FACE_OUTER_BOUND ( 'NONE', #131, .T. ) ;
#158 = FACE_OUTER_BOUND ( 'NONE', #3, .T. ) ;
#159 = AXIS2_PLACEMENT_3D ( 'NONE', #98, #145, #67 ) ;
#160 = CARTESIAN_POINT ( 'NONE',  ( 0.0000000000000000000, 0.0000000000000000000, 0.0000000000000000000 ) ) ;
#161 = PRODUCT_RELATED_PRODUCT_CATEGORY ( 'part', '', ( #61 ) ) ;
#162 = DIRECTION ( 'NONE',  ( 0.0000000000000000000, 0.0000000000000000000, -1.000000000000000000 ) ) ;
#163 = FACE_OUTER_BOUND ( 'NONE', #107, .T. ) ;
#164 = AXIS2_PLACEMENT_3D ( 'NONE', #121, #188, #140 ) ;
#165 = DIRECTION ( 'NONE',  ( 0.0000000000000000000, 0.0000000000000000000, -1.000000000000000000 ) ) ;
#166 = AXIS2_PLACEMENT_3D ( 'NONE', #203, #104, #130 ) ;
#167 = FACE_OUTER_BOUND ( 'NONE', #192, .T. ) ;
#168 = AXIS2_PLACEMENT_3D ( 'NONE', #160, #40, #41 ) ;
#169 = EDGE_LOOP ( 'NONE', ( #205 ) ) ;
#170 = PRESENTATION_STYLE_ASSIGNMENT (( #26 ) ) ;
#171 = MECHANICAL_DESIGN_GEOMETRIC_PRESENTATION_REPRESENTATION (  '', ( #39 ), #128 ) ;
#172 =( GEOMETRIC_REPRESENTATION_CONTEXT ( 3 ) GLOBAL_UNCERTAINTY_ASSIGNED_CONTEXT ( ( #9 ) ) GLOBAL_UNIT_ASSIGNED_CONTEXT ( ( #211, #15, #27 ) ) REPRESENTATION_CONTEXT ( 'NONE', 'WORKASPACE' ) );
#173 = FACE_OUTER_BOUND ( 'NONE', #169, .T. ) ;
#174 = FILL_AREA_STYLE ('',( #58 ) ) ;
#175 = ORIENTED_EDGE ( 'NONE', *, *, #44, .T. ) ;
#176 = MANIFOLD_SOLID_BREP ( 'ºÐÇÒ2[1]', #87 ) ;
#177 = UNCERTAINTY_MEASURE_WITH_UNIT (LENGTH_MEASURE( 1.000000000000000082E-05 ), #16, 'distance_accuracy_value', 'NONE');
#178 = ADVANCED_FACE ( 'NONE', ( #173, #184 ), #109, .T. ) ;
#179 =( GEOMETRIC_REPRESENTATION_CONTEXT ( 3 ) GLOBAL_UNCERTAINTY_ASSIGNED_CONTEXT ( ( #129 ) ) GLOBAL_UNIT_ASSIGNED_CONTEXT ( ( #62, #64, #69 ) ) REPRESENTATION_CONTEXT ( 'NONE', 'WORKASPACE' ) );
#180 = CIRCLE ( 'NONE', #54, 6.400000000000010125 ) ;
#181 =( NAMED_UNIT ( * ) PLANE_ANGLE_UNIT ( ) SI_UNIT ( $, .RADIAN. ) );
#182 = DIRECTION ( 'NONE',  ( 0.0000000000000000000, 0.0000000000000000000, 1.000000000000000000 ) ) ;
#183 = DIRECTION ( 'NONE',  ( 0.0000000000000000000, 0.0000000000000000000, -1.000000000000000000 ) ) ;
#184 = FACE_BOUND ( 'NONE', #149, .T. ) ;
#185 = COLOUR_RGB ( '',1.000000000000000000, 1.000000000000000000, 0.0000000000000000000 ) ;
#186 = DIRECTION ( 'NONE',  ( -1.000000000000000000, -0.0000000000000000000, -0.0000000000000000000 ) ) ;
#187 = AXIS2_PLACEMENT_3D ( 'NONE', #84, #186, #63 ) ;
#188 = DIRECTION ( 'NONE',  ( -1.000000000000000000, -0.0000000000000000000, -0.0000000000000000000 ) ) ;
#189 = ORIENTED_EDGE ( 'NONE', *, *, #44, .F. ) ;
#190 = DIRECTION ( 'NONE',  ( 0.0000000000000000000, 0.0000000000000000000, 1.000000000000000000 ) ) ;
#191 = ORIENTED_EDGE ( 'NONE', *, *, #73, .T. ) ;
#192 = EDGE_LOOP ( 'NONE', ( #68 ) ) ;
#193 = PRESENTATION_LAYER_ASSIGNMENT (  '', '', ( #102 ) ) ;
#194 = ADVANCED_FACE ( 'NONE', ( #153, #198 ), #76, .T. ) ;
#195 = CARTESIAN_POINT ( 'NONE',  ( 49.99999999999998579, 0.0000000000000000000, 0.0000000000000000000 ) ) ;
#196 =( LENGTH_UNIT ( ) NAMED_UNIT ( * ) SI_UNIT ( .MILLI., .METRE. ) );
#197 = CARTESIAN_POINT ( 'NONE',  ( -3.918869757271530953E-16, 0.0000000000000000000, 0.0000000000000000000 ) ) ;
#198 = FACE_OUTER_BOUND ( 'NONE', #10, .T. ) ;
#199 = CIRCLE ( 'NONE', #77, 6.400000000000010125 ) ;
#200 = STYLED_ITEM ( 'NONE', ( #71 ), #124 ) ;
#201 = PRESENTATION_LAYER_ASSIGNMENT (  '', '', ( #39 ) ) ;
#202 = SURFACE_SIDE_STYLE ('',( #11 ) ) ;
#203 = CARTESIAN_POINT ( 'NONE',  ( 148.3490332008121300, 0.0000000000000000000, 0.0000000000000000000 ) ) ;
#204 = AXIS2_PLACEMENT_3D ( 'NONE', #66, #79, #100 ) ;
#205 = ORIENTED_EDGE ( 'NONE', *, *, #144, .F. ) ;
#206 = DIRECTION ( 'NONE',  ( 1.000000000000000000, 0.0000000000000000000, 0.0000000000000000000 ) ) ;
#207 = ADVANCED_FACE ( 'NONE', ( #157, #163 ), #82, .T. ) ;
#208 = DIRECTION ( 'NONE',  ( 0.0000000000000000000, 0.0000000000000000000, -1.000000000000000000 ) ) ;
#209 = PRESENTATION_LAYER_ASSIGNMENT (  '', '', ( #200 ) ) ;
#210 = ORIENTED_EDGE ( 'NONE', *, *, #144, .T. ) ;
#211 =( LENGTH_UNIT ( ) NAMED_UNIT ( * ) SI_UNIT ( .MILLI., .METRE. ) );
#212 = FILL_AREA_STYLE ('',( #93 ) ) ;
#213 = SURFACE_STYLE_USAGE ( .BOTH. , #103 ) ;
ENDSEC;
END-ISO-10303-21;
