ISO-10303-21;
HEADER;
FILE_DESCRIPTION (( 'STEP AP214' ),
    '1' );
FILE_NAME ('03-1735.STEP',
    '2021-10-01T05:54:22',
    ( 'USER' ),
    ( '' ),
    'SwSTEP 2.0',
    'SolidWorks 2018',
    '' );
FILE_SCHEMA (( 'AUTOMOTIVE_DESIGN' ));
ENDSEC;

DATA;
#1 = SHAPE_DEFINITION_REPRESENTATION ( #181, #194 ) ;
#2 = CYLINDRICAL_SURFACE ( 'NONE', #191, 6.450000000000009948 ) ;
#3 = CONICAL_SURFACE ( 'NONE', #82, 2414.213562373058721, 1.178097245096167089 ) ;
#4 = CLOSED_SHELL ( 'NONE', ( #197, #137, #151, #44 ) ) ;
#5 = VERTEX_POINT ( 'NONE', #179 ) ;
#6 = SURFACE_STYLE_USAGE ( .BOTH. , #25 ) ;
#7 = AXIS2_PLACEMENT_3D ( 'NONE', #115, #13, #146 ) ;
#8 =( LENGTH_UNIT ( ) NAMED_UNIT ( * ) SI_UNIT ( .MILLI., .METRE. ) );
#9 = DIRECTION ( 'NONE',  ( -1.000000000000000000, -0.0000000000000000000, -0.0000000000000000000 ) ) ;
#10 = FACE_OUTER_BOUND ( 'NONE', #68, .T. ) ;
#11 = COLOUR_RGB ( '',1.000000000000000000, 1.000000000000000000, 0.0000000000000000000 ) ;
#12 = COLOUR_RGB ( '',0.7921568627450980005, 0.8196078431372548767, 0.9333333333333333481 ) ;
#13 = DIRECTION ( 'NONE',  ( -1.000000000000000000, -0.0000000000000000000, -0.0000000000000000000 ) ) ;
#14 = STYLED_ITEM ( 'NONE', ( #56 ), #73 ) ;
#15 = EDGE_LOOP ( 'NONE', ( #203 ) ) ;
#16 = VERTEX_POINT ( 'NONE', #81 ) ;
#17 = VERTEX_POINT ( 'NONE', #41 ) ;
#18 = SURFACE_STYLE_USAGE ( .BOTH. , #91 ) ;
#19 = ADVANCED_FACE ( 'NONE', ( #126 ), #3, .T. ) ;
#20 = PLANE ( 'NONE',  #64 ) ;
#21 = SURFACE_STYLE_USAGE ( .BOTH. , #132 ) ;
#22 = FACE_BOUND ( 'NONE', #15, .T. ) ;
#23 = DIRECTION ( 'NONE',  ( 1.000000000000000000, 0.0000000000000000000, 0.0000000000000000000 ) ) ;
#24 =( LENGTH_UNIT ( ) NAMED_UNIT ( * ) SI_UNIT ( .MILLI., .METRE. ) );
#25 = SURFACE_SIDE_STYLE ('',( #175 ) ) ;
#26 = APPLICATION_PROTOCOL_DEFINITION ( 'draft international standard', 'automotive_design', 1998, #123 ) ;
#27 = PRODUCT_DEFINITION_FORMATION_WITH_SPECIFIED_SOURCE ( 'ANY', '', #211, .NOT_KNOWN. ) ;
#28 = COLOUR_RGB ( '',0.7921568627450980005, 0.8196078431372548767, 0.9333333333333333481 ) ;
#29 = PRESENTATION_STYLE_ASSIGNMENT (( #122 ) ) ;
#30 = CIRCLE ( 'NONE', #208, 6.450000000000009948 ) ;
#31 =( NAMED_UNIT ( * ) SI_UNIT ( $, .STERADIAN. ) SOLID_ANGLE_UNIT ( ) );
#32 = AXIS2_PLACEMENT_3D ( 'NONE', #185, #9, #66 ) ;
#33 = CARTESIAN_POINT ( 'NONE',  ( 49.99999999999998579, 0.0000000000000000000, 0.0000000000000000000 ) ) ;
#34 = EDGE_LOOP ( 'NONE', ( #52 ) ) ;
#35 =( LENGTH_UNIT ( ) NAMED_UNIT ( * ) SI_UNIT ( .MILLI., .METRE. ) );
#36 = FILL_AREA_STYLE_COLOUR ( '', #95 ) ;
#37 = DIRECTION ( 'NONE',  ( 0.0000000000000000000, 0.0000000000000000000, -1.000000000000000000 ) ) ;
#38 = ORIENTED_EDGE ( 'NONE', *, *, #67, .T. ) ;
#39 = AXIS2_PLACEMENT_3D ( 'NONE', #136, #182, #48 ) ;
#40 = FILL_AREA_STYLE ('',( #173 ) ) ;
#41 = CARTESIAN_POINT ( 'NONE',  ( 1.289999999999990266, 0.0000000000000000000, -6.450000000000009948 ) ) ;
#42 =( NAMED_UNIT ( * ) PLANE_ANGLE_UNIT ( ) SI_UNIT ( $, .RADIAN. ) );
#43 = SURFACE_STYLE_FILL_AREA ( #201 ) ;
#44 = ADVANCED_FACE ( 'NONE', ( #105 ), #200, .T. ) ;
#45 = ORIENTED_EDGE ( 'NONE', *, *, #152, .F. ) ;
#46 =( LENGTH_UNIT ( ) NAMED_UNIT ( * ) SI_UNIT ( .MILLI., .METRE. ) );
#47 = EDGE_CURVE ( 'NONE', #5, #5, #104, .T. ) ;
#48 = DIRECTION ( 'NONE',  ( 0.0000000000000000000, 0.0000000000000000000, -1.000000000000000000 ) ) ;
#49 = DIRECTION ( 'NONE',  ( 0.0000000000000000000, 0.0000000000000000000, -1.000000000000000000 ) ) ;
#50 = VERTEX_POINT ( 'NONE', #97 ) ;
#51 = VERTEX_POINT ( 'NONE', #120 ) ;
#52 = ORIENTED_EDGE ( 'NONE', *, *, #74, .T. ) ;
#53 = DIRECTION ( 'NONE',  ( -1.000000000000000000, -0.0000000000000000000, -0.0000000000000000000 ) ) ;
#54 = CARTESIAN_POINT ( 'NONE',  ( 0.0000000000000000000, 0.0000000000000000000, 0.0000000000000000000 ) ) ;
#55 = AXIS2_PLACEMENT_3D ( 'NONE', #33, #142, #49 ) ;
#56 = PRESENTATION_STYLE_ASSIGNMENT (( #58 ) ) ;
#57 =( NAMED_UNIT ( * ) SI_UNIT ( $, .STERADIAN. ) SOLID_ANGLE_UNIT ( ) );
#58 = SURFACE_STYLE_USAGE ( .BOTH. , #111 ) ;
#59 = EDGE_CURVE ( 'NONE', #16, #16, #158, .T. ) ;
#60 =( GEOMETRIC_REPRESENTATION_CONTEXT ( 3 ) GLOBAL_UNCERTAINTY_ASSIGNED_CONTEXT ( ( #131 ) ) GLOBAL_UNIT_ASSIGNED_CONTEXT ( ( #46, #168, #102 ) ) REPRESENTATION_CONTEXT ( 'NONE', 'WORKASPACE' ) );
#61 = EDGE_LOOP ( 'NONE', ( #147 ) ) ;
#62 = DIRECTION ( 'NONE',  ( 1.000000000000000000, 0.0000000000000000000, 0.0000000000000000000 ) ) ;
#63 = SURFACE_STYLE_FILL_AREA ( #195 ) ;
#64 = AXIS2_PLACEMENT_3D ( 'NONE', #145, #75, #205 ) ;
#65 = CARTESIAN_POINT ( 'NONE',  ( -3.949485927250214346E-16, 0.0000000000000000000, 0.0000000000000000000 ) ) ;
#66 = DIRECTION ( 'NONE',  ( 0.0000000000000000000, 0.0000000000000000000, 1.000000000000000000 ) ) ;
#67 = EDGE_CURVE ( 'NONE', #51, #51, #30, .T. ) ;
#68 = EDGE_LOOP ( 'NONE', ( #155 ) ) ;
#69 = CLOSED_SHELL ( 'NONE', ( #209, #86, #19 ) ) ;
#70 = EDGE_LOOP ( 'NONE', ( #103 ) ) ;
#71 = FACE_OUTER_BOUND ( 'NONE', #34, .T. ) ;
#72 = FACE_OUTER_BOUND ( 'NONE', #61, .T. ) ;
#73 = MANIFOLD_SOLID_BREP ( 'ºÐÇÒ2[2]', #69 ) ;
#74 = EDGE_CURVE ( 'NONE', #50, #50, #85, .T. ) ;
#75 = DIRECTION ( 'NONE',  ( 1.000000000000000000, 0.0000000000000000000, 0.0000000000000000000 ) ) ;
#76 = ORIENTED_EDGE ( 'NONE', *, *, #47, .F. ) ;
#77 =( NAMED_UNIT ( * ) SI_UNIT ( $, .STERADIAN. ) SOLID_ANGLE_UNIT ( ) );
#78 =( GEOMETRIC_REPRESENTATION_CONTEXT ( 3 ) GLOBAL_UNCERTAINTY_ASSIGNED_CONTEXT ( ( #189 ) ) GLOBAL_UNIT_ASSIGNED_CONTEXT ( ( #119, #94, #80 ) ) REPRESENTATION_CONTEXT ( 'NONE', 'WORKASPACE' ) );
#79 = UNCERTAINTY_MEASURE_WITH_UNIT (LENGTH_MEASURE( 1.000000000000000082E-05 ), #204, 'distance_accuracy_value', 'NONE');
#80 =( NAMED_UNIT ( * ) SI_UNIT ( $, .STERADIAN. ) SOLID_ANGLE_UNIT ( ) );
#81 = CARTESIAN_POINT ( 'NONE',  ( 49.99999999999998579, 0.0000000000000000000, -6.450000000000009948 ) ) ;
#82 = AXIS2_PLACEMENT_3D ( 'NONE', #138, #53, #128 ) ;
#83 = FILL_AREA_STYLE_COLOUR ( '', #12 ) ;
#84 = UNCERTAINTY_MEASURE_WITH_UNIT (LENGTH_MEASURE( 1.000000000000000082E-05 ), #35, 'distance_accuracy_value', 'NONE');
#85 = CIRCLE ( 'NONE', #7, 5.160000000000011688 ) ;
#86 = ADVANCED_FACE ( 'NONE', ( #108, #96 ), #124, .T. ) ;
#87 = COLOUR_RGB ( '',1.000000000000000000, 1.000000000000000000, 0.0000000000000000000 ) ;
#88 = PRODUCT_DEFINITION_CONTEXT ( 'detailed design', #123, 'design' ) ;
#89 = UNCERTAINTY_MEASURE_WITH_UNIT (LENGTH_MEASURE( 1.000000000000000082E-05 ), #24, 'distance_accuracy_value', 'NONE');
#90 = CARTESIAN_POINT ( 'NONE',  ( 148.3283225226934974, 0.0000000000000000000, 0.0000000000000000000 ) ) ;
#91 = SURFACE_SIDE_STYLE ('',( #196 ) ) ;
#92 =( NAMED_UNIT ( * ) PLANE_ANGLE_UNIT ( ) SI_UNIT ( $, .RADIAN. ) );
#93 = FILL_AREA_STYLE ('',( #36 ) ) ;
#94 =( NAMED_UNIT ( * ) PLANE_ANGLE_UNIT ( ) SI_UNIT ( $, .RADIAN. ) );
#95 = COLOUR_RGB ( '',0.7921568627450980005, 0.8196078431372548767, 0.9333333333333333481 ) ;
#96 = FACE_OUTER_BOUND ( 'NONE', #174, .T. ) ;
#97 = CARTESIAN_POINT ( 'NONE',  ( -3.949485927250214346E-16, 0.0000000000000000000, -5.160000000000011688 ) ) ;
#98 = DIRECTION ( 'NONE',  ( 0.0000000000000000000, 0.0000000000000000000, -1.000000000000000000 ) ) ;
#99 = STYLED_ITEM ( 'NONE', ( #167 ), #183 ) ;
#100 = SURFACE_SIDE_STYLE ('',( #63 ) ) ;
#101 = DIRECTION ( 'NONE',  ( 1.000000000000000000, 0.0000000000000000000, 0.0000000000000000000 ) ) ;
#102 =( NAMED_UNIT ( * ) SI_UNIT ( $, .STERADIAN. ) SOLID_ANGLE_UNIT ( ) );
#103 = ORIENTED_EDGE ( 'NONE', *, *, #152, .T. ) ;
#104 = CIRCLE ( 'NONE', #193, 6.450000000000017941 ) ;
#105 = FACE_OUTER_BOUND ( 'NONE', #117, .T. ) ;
#106 = EDGE_LOOP ( 'NONE', ( #45 ) ) ;
#107 = MECHANICAL_DESIGN_GEOMETRIC_PRESENTATION_REPRESENTATION (  '', ( #156 ), #78 ) ;
#108 = FACE_OUTER_BOUND ( 'NONE', #160, .T. ) ;
#109 = AXIS2_PLACEMENT_3D ( 'NONE', #186, #62, #192 ) ;
#110 = DIRECTION ( 'NONE',  ( 0.0000000000000000000, 0.0000000000000000000, -1.000000000000000000 ) ) ;
#111 = SURFACE_SIDE_STYLE ('',( #43 ) ) ;
#112 =( NAMED_UNIT ( * ) PLANE_ANGLE_UNIT ( ) SI_UNIT ( $, .RADIAN. ) );
#113 = CARTESIAN_POINT ( 'NONE',  ( 49.99999999999998579, 0.0000000000000000000, 0.0000000000000000000 ) ) ;
#114 = DIRECTION ( 'NONE',  ( 0.0000000000000000000, 0.0000000000000000000, 1.000000000000000000 ) ) ;
#115 = CARTESIAN_POINT ( 'NONE',  ( -3.949485927250214346E-16, 0.0000000000000000000, 0.0000000000000000000 ) ) ;
#116 = PRESENTATION_LAYER_ASSIGNMENT (  '', '', ( #99 ) ) ;
#117 = EDGE_LOOP ( 'NONE', ( #38 ) ) ;
#118 = DIRECTION ( 'NONE',  ( 0.0000000000000000000, 0.0000000000000000000, 1.000000000000000000 ) ) ;
#119 =( LENGTH_UNIT ( ) NAMED_UNIT ( * ) SI_UNIT ( .MILLI., .METRE. ) );
#120 = CARTESIAN_POINT ( 'NONE',  ( 49.99999999999998579, 0.0000000000000000000, -6.450000000000009948 ) ) ;
#121 = MECHANICAL_DESIGN_GEOMETRIC_PRESENTATION_REPRESENTATION (  '', ( #163 ), #60 ) ;
#122 = SURFACE_STYLE_USAGE ( .BOTH. , #100 ) ;
#123 = APPLICATION_CONTEXT ( 'automotive_design' ) ;
#124 = CYLINDRICAL_SURFACE ( 'NONE', #32, 6.450000000000009948 ) ;
#125 = FILL_AREA_STYLE_COLOUR ( '', #11 ) ;
#126 = FACE_OUTER_BOUND ( 'NONE', #169, .T. ) ;
#127 = PRESENTATION_LAYER_ASSIGNMENT (  '', '', ( #134 ) ) ;
#128 = DIRECTION ( 'NONE',  ( 0.0000000000000000000, 0.0000000000000000000, 1.000000000000000000 ) ) ;
#129 = FILL_AREA_STYLE_COLOUR ( '', #28 ) ;
#130 = CONICAL_SURFACE ( 'NONE', #213, 5.160000000000011688, 0.7853981633974509435 ) ;
#131 = UNCERTAINTY_MEASURE_WITH_UNIT (LENGTH_MEASURE( 1.000000000000000082E-05 ), #46, 'distance_accuracy_value', 'NONE');
#132 = SURFACE_SIDE_STYLE ('',( #207 ) ) ;
#133 = CIRCLE ( 'NONE', #143, 6.450000000000009948 ) ;
#134 = STYLED_ITEM ( 'NONE', ( #29 ), #194 ) ;
#135 =( NAMED_UNIT ( * ) PLANE_ANGLE_UNIT ( ) SI_UNIT ( $, .RADIAN. ) );
#136 = CARTESIAN_POINT ( 'NONE',  ( 49.99999999999998579, 0.0000000000000000000, 0.0000000000000000000 ) ) ;
#137 = ADVANCED_FACE ( 'NONE', ( #71 ), #20, .F. ) ;
#138 = CARTESIAN_POINT ( 'NONE',  ( -849.0000000000000000, 0.0000000000000000000, 0.0000000000000000000 ) ) ;
#139 = PRESENTATION_LAYER_ASSIGNMENT (  '', '', ( #14 ) ) ;
#140 = FACE_OUTER_BOUND ( 'NONE', #70, .T. ) ;
#141 =( GEOMETRIC_REPRESENTATION_CONTEXT ( 3 ) GLOBAL_UNCERTAINTY_ASSIGNED_CONTEXT ( ( #84 ) ) GLOBAL_UNIT_ASSIGNED_CONTEXT ( ( #35, #42, #148 ) ) REPRESENTATION_CONTEXT ( 'NONE', 'WORKASPACE' ) );
#142 = DIRECTION ( 'NONE',  ( 1.000000000000000000, 0.0000000000000000000, 0.0000000000000000000 ) ) ;
#143 = AXIS2_PLACEMENT_3D ( 'NONE', #162, #190, #110 ) ;
#144 = DIRECTION ( 'NONE',  ( -1.000000000000000000, -0.0000000000000000000, -0.0000000000000000000 ) ) ;
#145 = CARTESIAN_POINT ( 'NONE',  ( -3.949485927250214346E-16, 6.450000000000000178, 0.0000000000000000000 ) ) ;
#146 = DIRECTION ( 'NONE',  ( 0.0000000000000000000, 0.0000000000000000000, -1.000000000000000000 ) ) ;
#147 = ORIENTED_EDGE ( 'NONE', *, *, #59, .F. ) ;
#148 =( NAMED_UNIT ( * ) SI_UNIT ( $, .STERADIAN. ) SOLID_ANGLE_UNIT ( ) );
#149 =( GEOMETRIC_REPRESENTATION_CONTEXT ( 3 ) GLOBAL_UNCERTAINTY_ASSIGNED_CONTEXT ( ( #79 ) ) GLOBAL_UNIT_ASSIGNED_CONTEXT ( ( #204, #92, #77 ) ) REPRESENTATION_CONTEXT ( 'NONE', 'WORKASPACE' ) );
#150 = ORIENTED_EDGE ( 'NONE', *, *, #47, .T. ) ;
#151 = ADVANCED_FACE ( 'NONE', ( #157, #22 ), #130, .T. ) ;
#152 = EDGE_CURVE ( 'NONE', #17, #17, #133, .T. ) ;
#153 = UNCERTAINTY_MEASURE_WITH_UNIT (LENGTH_MEASURE( 1.000000000000000082E-05 ), #8, 'distance_accuracy_value', 'NONE');
#154 = MECHANICAL_DESIGN_GEOMETRIC_PRESENTATION_REPRESENTATION (  '', ( #134 ), #184 ) ;
#155 = ORIENTED_EDGE ( 'NONE', *, *, #67, .F. ) ;
#156 = STYLED_ITEM ( 'NONE', ( #212 ), #86 ) ;
#157 = FACE_OUTER_BOUND ( 'NONE', #106, .T. ) ;
#158 = CIRCLE ( 'NONE', #55, 6.450000000000009948 ) ;
#159 = MECHANICAL_DESIGN_GEOMETRIC_PRESENTATION_REPRESENTATION (  '', ( #99 ), #149 ) ;
#160 = EDGE_LOOP ( 'NONE', ( #187 ) ) ;
#161 = CARTESIAN_POINT ( 'NONE',  ( 0.0000000000000000000, 0.0000000000000000000, 0.0000000000000000000 ) ) ;
#162 = CARTESIAN_POINT ( 'NONE',  ( 1.289999999999990266, 0.0000000000000000000, 0.0000000000000000000 ) ) ;
#163 = STYLED_ITEM ( 'NONE', ( #176 ), #19 ) ;
#164 = PLANE ( 'NONE',  #109 ) ;
#165 = PRODUCT_RELATED_PRODUCT_CATEGORY ( 'part', '', ( #211 ) ) ;
#166 = APPLICATION_PROTOCOL_DEFINITION ( 'draft international standard', 'automotive_design', 1998, #180 ) ;
#167 = PRESENTATION_STYLE_ASSIGNMENT (( #18 ) ) ;
#168 =( NAMED_UNIT ( * ) PLANE_ANGLE_UNIT ( ) SI_UNIT ( $, .RADIAN. ) );
#169 = EDGE_LOOP ( 'NONE', ( #76 ) ) ;
#170 = MECHANICAL_DESIGN_GEOMETRIC_PRESENTATION_REPRESENTATION (  '', ( #14 ), #206 ) ;
#171 = PRESENTATION_LAYER_ASSIGNMENT (  '', '', ( #163 ) ) ;
#172 = AXIS2_PLACEMENT_3D ( 'NONE', #54, #198, #101 ) ;
#173 = FILL_AREA_STYLE_COLOUR ( '', #87 ) ;
#174 = EDGE_LOOP ( 'NONE', ( #150 ) ) ;
#175 = SURFACE_STYLE_FILL_AREA ( #199 ) ;
#176 = PRESENTATION_STYLE_ASSIGNMENT (( #6 ) ) ;
#177 = PRESENTATION_LAYER_ASSIGNMENT (  '', '', ( #156 ) ) ;
#178 = PRODUCT_DEFINITION ( 'UNKNOWN', '', #27, #88 ) ;
#179 = CARTESIAN_POINT ( 'NONE',  ( 148.3283225226934974, 0.0000000000000000000, 6.450000000000017941 ) ) ;
#180 = APPLICATION_CONTEXT ( 'automotive_design' ) ;
#181 = PRODUCT_DEFINITION_SHAPE ( 'NONE', 'NONE',  #178 ) ;
#182 = DIRECTION ( 'NONE',  ( 1.000000000000000000, 0.0000000000000000000, 0.0000000000000000000 ) ) ;
#183 = MANIFOLD_SOLID_BREP ( 'ºÐÇÒ2[1]', #4 ) ;
#184 =( GEOMETRIC_REPRESENTATION_CONTEXT ( 3 ) GLOBAL_UNCERTAINTY_ASSIGNED_CONTEXT ( ( #89 ) ) GLOBAL_UNIT_ASSIGNED_CONTEXT ( ( #24, #135, #57 ) ) REPRESENTATION_CONTEXT ( 'NONE', 'WORKASPACE' ) );
#185 = CARTESIAN_POINT ( 'NONE',  ( 0.0000000000000000000, 0.0000000000000000000, 0.0000000000000000000 ) ) ;
#186 = CARTESIAN_POINT ( 'NONE',  ( 49.99999999999998579, 0.0000000000000000000, 0.0000000000000000000 ) ) ;
#187 = ORIENTED_EDGE ( 'NONE', *, *, #59, .T. ) ;
#188 = DIRECTION ( 'NONE',  ( 1.000000000000000000, 0.0000000000000000000, 0.0000000000000000000 ) ) ;
#189 = UNCERTAINTY_MEASURE_WITH_UNIT (LENGTH_MEASURE( 1.000000000000000082E-05 ), #119, 'distance_accuracy_value', 'NONE');
#190 = DIRECTION ( 'NONE',  ( 1.000000000000000000, 0.0000000000000000000, 0.0000000000000000000 ) ) ;
#191 = AXIS2_PLACEMENT_3D ( 'NONE', #161, #144, #118 ) ;
#192 = DIRECTION ( 'NONE',  ( 0.0000000000000000000, 0.0000000000000000000, -1.000000000000000000 ) ) ;
#193 = AXIS2_PLACEMENT_3D ( 'NONE', #90, #202, #114 ) ;
#194 = ADVANCED_BREP_SHAPE_REPRESENTATION ( '03-1735', ( #183, #73, #172 ), #141 ) ;
#195 = FILL_AREA_STYLE ('',( #83 ) ) ;
#196 = SURFACE_STYLE_FILL_AREA ( #93 ) ;
#197 = ADVANCED_FACE ( 'NONE', ( #140, #10 ), #2, .T. ) ;
#198 = DIRECTION ( 'NONE',  ( 0.0000000000000000000, 0.0000000000000000000, 1.000000000000000000 ) ) ;
#199 = FILL_AREA_STYLE ('',( #125 ) ) ;
#200 = PLANE ( 'NONE',  #39 ) ;
#201 = FILL_AREA_STYLE ('',( #129 ) ) ;
#202 = DIRECTION ( 'NONE',  ( -1.000000000000000000, -0.0000000000000000000, -0.0000000000000000000 ) ) ;
#203 = ORIENTED_EDGE ( 'NONE', *, *, #74, .F. ) ;
#204 =( LENGTH_UNIT ( ) NAMED_UNIT ( * ) SI_UNIT ( .MILLI., .METRE. ) );
#205 = DIRECTION ( 'NONE',  ( 0.0000000000000000000, 0.0000000000000000000, -1.000000000000000000 ) ) ;
#206 =( GEOMETRIC_REPRESENTATION_CONTEXT ( 3 ) GLOBAL_UNCERTAINTY_ASSIGNED_CONTEXT ( ( #153 ) ) GLOBAL_UNIT_ASSIGNED_CONTEXT ( ( #8, #112, #31 ) ) REPRESENTATION_CONTEXT ( 'NONE', 'WORKASPACE' ) );
#207 = SURFACE_STYLE_FILL_AREA ( #40 ) ;
#208 = AXIS2_PLACEMENT_3D ( 'NONE', #113, #23, #98 ) ;
#209 = ADVANCED_FACE ( 'NONE', ( #72 ), #164, .F. ) ;
#210 = PRODUCT_CONTEXT ( 'NONE', #180, 'mechanical' ) ;
#211 = PRODUCT ( '03-1735', '03-1735', '', ( #210 ) ) ;
#212 = PRESENTATION_STYLE_ASSIGNMENT (( #21 ) ) ;
#213 = AXIS2_PLACEMENT_3D ( 'NONE', #65, #188, #37 ) ;
ENDSEC;
END-ISO-10303-21;
