ISO-10303-21;
HEADER;
FILE_DESCRIPTION (( 'STEP AP203' ),
    '1' );
FILE_NAME ('03-2053.STEP',
    '2023-05-19T01:42:48',
    ( 'USER' ),
    ( 'Hewlett-Packard Company' ),
    'SwSTEP 2.0',
    'SolidWorks 2014',
    '' );
FILE_SCHEMA (( 'CONFIG_CONTROL_DESIGN' ));
ENDSEC;

DATA;
#1 = DIRECTION ( 'NONE',  ( 0.0000000000000000000, 1.000000000000000000, 0.0000000000000000000 ) ) ;
#2 = CIRCLE ( 'NONE', #345, 4.462500000000000400 ) ;
#3 = EDGE_CURVE ( 'NONE', #312, #275, #265, .T. ) ;
#4 = DIRECTION ( 'NONE',  ( 0.0000000000000000000, 0.0000000000000000000, 1.000000000000000000 ) ) ;
#5 = LINE ( 'NONE', #236, #87 ) ;
#6 = ORIENTED_EDGE ( 'NONE', *, *, #307, .F. ) ;
#7 = CARTESIAN_POINT ( 'NONE',  ( -1.587499999999996100, 4.762499999999999300, 5.832380380939268100E-016 ) ) ;
#8 = CARTESIAN_POINT ( 'NONE',  ( 8.301510569017509600E-016, -3.174999999999999800, 0.0000000000000000000 ) ) ;
#9 = AXIS2_PLACEMENT_3D ( 'NONE', #340, #20, #243 ) ;
#10 = DIRECTION ( 'NONE',  ( -1.365923996832131900E-016, 1.000000000000000000, 0.0000000000000000000 ) ) ;
#11 = ADVANCED_FACE ( 'NONE', ( #350 ), #254, .T. ) ;
#12 = CARTESIAN_POINT ( 'NONE',  ( -44.73749999999999000, 4.762499999999994000, 0.0000000000000000000 ) ) ;
#13 = COORDINATED_UNIVERSAL_TIME_OFFSET ( 9, 0, .AHEAD. ) ;
#14 = CIRCLE ( 'NONE', #372, 4.762500000000000200 ) ;
#15 = CARTESIAN_POINT ( 'NONE',  ( 1.000000000000000900, 3.888253587292847100E-016, -3.174999999999999800 ) ) ;
#16 = APPLICATION_CONTEXT ( 'configuration controlled 3d designs of mechanical parts and assemblies' ) ;
#17 = CIRCLE ( 'NONE', #251, 3.174999999999999800 ) ;
#18 = ORIENTED_EDGE ( 'NONE', *, *, #238, .T. ) ;
#19 = AXIS2_PLACEMENT_3D ( 'NONE', #107, #284, #4 ) ;
#20 = DIRECTION ( 'NONE',  ( 1.000000000000000000, 1.248725001283619600E-016, -0.0000000000000000000 ) ) ;
#21 = LOCAL_TIME ( 10, 42, 48.00000000000000000, #102 ) ;
#22 = VECTOR ( 'NONE', #66, 1000.000000000000100 ) ;
#23 = CC_DESIGN_PERSON_AND_ORGANIZATION_ASSIGNMENT ( #328, #120, ( #351 ) ) ;
#24 = EDGE_CURVE ( 'NONE', #278, #64, #94, .T. ) ;
#25 = FACE_OUTER_BOUND ( 'NONE', #398, .T. ) ;
#26 = ORIENTED_EDGE ( 'NONE', *, *, #46, .F. ) ;
#27 = AXIS2_PLACEMENT_3D ( 'NONE', #113, #335, #196 ) ;
#28 = CALENDAR_DATE ( 2023, 19, 5 ) ;
#29 = ORIENTED_EDGE ( 'NONE', *, *, #175, .F. ) ;
#30 = ORIENTED_EDGE ( 'NONE', *, *, #158, .T. ) ;
#31 = CARTESIAN_POINT ( 'NONE',  ( -1.587499999999995200, -3.231075940821359600E-016, 0.0000000000000000000 ) ) ;
#32 = DESIGN_CONTEXT ( 'detailed design', #348, 'design' ) ;
#33 = CARTESIAN_POINT ( 'NONE',  ( -45.03749999999999400, -5.748817724659462800E-015, 0.0000000000000000000 ) ) ;
#34 = CARTESIAN_POINT ( 'NONE',  ( -44.73749999999999000, -4.762500000000006400, 5.832380380939270100E-016 ) ) ;
#35 = DIRECTION ( 'NONE',  ( 1.000000000000000000, 1.248725001283619600E-016, -0.0000000000000000000 ) ) ;
#36 = VECTOR ( 'NONE', #290, 1000.000000000000000 ) ;
#37 = ORIENTED_EDGE ( 'NONE', *, *, #248, .T. ) ;
#38 = AXIS2_PLACEMENT_3D ( 'NONE', #93, #353, #192 ) ;
#39 = DIRECTION ( 'NONE',  ( 1.000000000000000000, 1.248725001283619600E-016, -0.0000000000000000000 ) ) ;
#40 = PERSON_AND_ORGANIZATION ( #352, #124 ) ;
#41 = ADVANCED_FACE ( 'NONE', ( #342 ), #329, .T. ) ;
#42 = EDGE_LOOP ( 'NONE', ( #30, #37 ) ) ;
#43 = SECURITY_CLASSIFICATION ( '', '', #343 ) ;
#44 = DIRECTION ( 'NONE',  ( 0.7071067811865496800, -0.7071067811865453500, 8.659560562354908200E-017 ) ) ;
#45 = CARTESIAN_POINT ( 'NONE',  ( 1.000000000000000200, 3.174999999999999800, 0.0000000000000000000 ) ) ;
#46 = EDGE_CURVE ( 'NONE', #147, #278, #2, .T. ) ;
#47 = LINE ( 'NONE', #68, #381 ) ;
#48 = ORIENTED_EDGE ( 'NONE', *, *, #380, .F. ) ;
#49 =( NAMED_UNIT ( * ) SI_UNIT ( $, .STERADIAN. ) SOLID_ANGLE_UNIT ( ) );
#50 = DIRECTION ( 'NONE',  ( 1.000000000000000000, 1.248725001283619600E-016, -0.0000000000000000000 ) ) ;
#51 = DIRECTION ( 'NONE',  ( 0.0000000000000000000, 0.0000000000000000000, 1.000000000000000000 ) ) ;
#52 = ORIENTED_EDGE ( 'NONE', *, *, #331, .T. ) ;
#53 = AXIS2_PLACEMENT_3D ( 'NONE', #406, #402, #210 ) ;
#54 = ORIENTED_EDGE ( 'NONE', *, *, #65, .F. ) ;
#55 = FACE_OUTER_BOUND ( 'NONE', #282, .T. ) ;
#56 = VERTEX_POINT ( 'NONE', #388 ) ;
#57 = AXIS2_PLACEMENT_3D ( 'NONE', #166, #39, #260 ) ;
#58 = ORIENTED_EDGE ( 'NONE', *, *, #223, .F. ) ;
#59 = CC_DESIGN_PERSON_AND_ORGANIZATION_ASSIGNMENT ( #246, #150, ( #43 ) ) ;
#60 = DIRECTION ( 'NONE',  ( -1.000000000000000000, -1.248725001283619600E-016, 0.0000000000000000000 ) ) ;
#61 = COORDINATED_UNIVERSAL_TIME_OFFSET ( 9, 0, .AHEAD. ) ;
#62 = FACE_OUTER_BOUND ( 'NONE', #220, .T. ) ;
#63 = PRODUCT ( '03-2053', '03-2053', '', ( #174 ) ) ;
#64 = VERTEX_POINT ( 'NONE', #98 ) ;
#65 = EDGE_CURVE ( 'NONE', #154, #64, #14, .T. ) ;
#66 = DIRECTION ( 'NONE',  ( 0.7071067811865493500, 0.7071067811865455700, 0.0000000000000000000 ) ) ;
#67 = VERTEX_POINT ( 'NONE', #162 ) ;
#68 = CARTESIAN_POINT ( 'NONE',  ( 3.721068108665257400E-017, 3.174999999999999800, 3.888253587292846100E-016 ) ) ;
#69 = ADVANCED_FACE ( 'NONE', ( #84 ), #159, .T. ) ;
#70 =( GEOMETRIC_REPRESENTATION_CONTEXT ( 3 ) GLOBAL_UNCERTAINTY_ASSIGNED_CONTEXT ( ( #279 ) ) GLOBAL_UNIT_ASSIGNED_CONTEXT ( ( #296, #216, #49 ) ) REPRESENTATION_CONTEXT ( 'NONE', 'WORKASPACE' ) );
#71 = DIRECTION ( 'NONE',  ( 1.000000000000000000, 1.248725001283619600E-016, -0.0000000000000000000 ) ) ;
#72 = LOCAL_TIME ( 10, 42, 48.00000000000000000, #157 ) ;
#73 = FACE_OUTER_BOUND ( 'NONE', #404, .T. ) ;
#74 = DIRECTION ( 'NONE',  ( -1.000000000000000000, -1.248725001283619600E-016, 0.0000000000000000000 ) ) ;
#75 = APPLICATION_PROTOCOL_DEFINITION ( 'international standard', 'config_control_design', 1994, #16 ) ;
#76 = AXIS2_PLACEMENT_3D ( 'NONE', #222, #138, #266 ) ;
#77 = EDGE_LOOP ( 'NONE', ( #97, #302, #54, #112 ) ) ;
#78 = DIRECTION ( 'NONE',  ( -1.000000000000000000, -0.0000000000000000000, -0.0000000000000000000 ) ) ;
#79 = CARTESIAN_POINT ( 'NONE',  ( -44.73749999999999000, -5.711355974620954400E-015, 0.0000000000000000000 ) ) ;
#80 = DIRECTION ( 'NONE',  ( 1.000000000000000000, 1.248725001283619600E-016, -0.0000000000000000000 ) ) ;
#81 = APPROVAL_DATE_TIME ( #169, #378 ) ;
#82 = ORIENTED_EDGE ( 'NONE', *, *, #205, .F. ) ;
#83 = APPROVAL_ROLE ( '' ) ;
#84 = FACE_OUTER_BOUND ( 'NONE', #104, .T. ) ;
#85 = CC_DESIGN_DATE_AND_TIME_ASSIGNMENT ( #317, #379, ( #43 ) ) ;
#86 = EDGE_CURVE ( 'NONE', #147, #154, #247, .T. ) ;
#87 = VECTOR ( 'NONE', #206, 1000.000000000000000 ) ;
#88 = ORIENTED_EDGE ( 'NONE', *, *, #131, .T. ) ;
#89 = ORIENTED_EDGE ( 'NONE', *, *, #109, .T. ) ;
#90 = AXIS2_PLACEMENT_3D ( 'NONE', #176, #401, #181 ) ;
#91 = APPROVAL_ROLE ( '' ) ;
#92 = APPROVAL_PERSON_ORGANIZATION ( #180, #378, #83 ) ;
#93 = CARTESIAN_POINT ( 'NONE',  ( 1.000000000000000000, 0.0000000000000000000, 0.0000000000000000000 ) ) ;
#94 = LINE ( 'NONE', #34, #182 ) ;
#95 = CARTESIAN_POINT ( 'NONE',  ( 4.336808689942017700E-016, -1.248725001283619100E-016, 0.0000000000000000000 ) ) ;
#96 = CIRCLE ( 'NONE', #27, 4.762500000000000200 ) ;
#97 = ORIENTED_EDGE ( 'NONE', *, *, #46, .T. ) ;
#98 = CARTESIAN_POINT ( 'NONE',  ( -44.73749999999999000, -4.762500000000006400, 5.832380380939272100E-016 ) ) ;
#99 = AXIS2_PLACEMENT_3D ( 'NONE', #100, #259, #231 ) ;
#100 = CARTESIAN_POINT ( 'NONE',  ( 4.336808689942017700E-016, -1.248725001283619100E-016, 0.0000000000000000000 ) ) ;
#101 = CARTESIAN_POINT ( 'NONE',  ( 4.336808689942017700E-016, -1.248725001283619100E-016, 0.0000000000000000000 ) ) ;
#102 = COORDINATED_UNIVERSAL_TIME_OFFSET ( 9, 0, .AHEAD. ) ;
#103 = ADVANCED_FACE ( 'NONE', ( #73 ), #235, .T. ) ;
#104 = EDGE_LOOP ( 'NONE', ( #6, #203, #288, #411 ) ) ;
#105 = DIRECTION ( 'NONE',  ( 1.000000000000000000, 1.248725001283619600E-016, -0.0000000000000000000 ) ) ;
#106 = APPROVAL ( #183, 'UNSPECIFIED' ) ;
#107 = CARTESIAN_POINT ( 'NONE',  ( 0.0000000000000000000, 0.0000000000000000000, 0.0000000000000000000 ) ) ;
#108 = CARTESIAN_POINT ( 'NONE',  ( 1.000000000000000400, -3.174999999999999800, 3.888253587292846100E-016 ) ) ;
#109 = EDGE_CURVE ( 'NONE', #64, #382, #170, .T. ) ;
#110 = FACE_OUTER_BOUND ( 'NONE', #42, .T. ) ;
#111 = DIRECTION ( 'NONE',  ( -1.365923996832131600E-016, 1.000000000000000000, 0.0000000000000000000 ) ) ;
#112 = ORIENTED_EDGE ( 'NONE', *, *, #86, .F. ) ;
#113 = CARTESIAN_POINT ( 'NONE',  ( -44.73749999999999000, -5.711355974620954400E-015, 0.0000000000000000000 ) ) ;
#114 = DIRECTION ( 'NONE',  ( 0.0000000000000000000, 1.000000000000000000, 0.0000000000000000000 ) ) ;
#115 = AXIS2_PLACEMENT_3D ( 'NONE', #233, #179, #405 ) ;
#116 = LOCAL_TIME ( 10, 42, 48.00000000000000000, #200 ) ;
#117 = ORIENTED_EDGE ( 'NONE', *, *, #268, .T. ) ;
#118 = EDGE_LOOP ( 'NONE', ( #375, #142, #347, #52 ) ) ;
#119 = PLANE ( 'NONE',  #53 ) ;
#120 = PERSON_AND_ORGANIZATION_ROLE ( 'design_supplier' ) ;
#121 = CYLINDRICAL_SURFACE ( 'NONE', #187, 4.762499999999999300 ) ;
#122 = EDGE_LOOP ( 'NONE', ( #29, #297, #88, #215 ) ) ;
#123 = AXIS2_PLACEMENT_3D ( 'NONE', #101, #168, #393 ) ;
#124 = ORGANIZATION ( 'UNSPECIFIED', 'UNSPECIFIED', '' ) ;
#125 = VERTEX_POINT ( 'NONE', #386 ) ;
#126 = APPLICATION_PROTOCOL_DEFINITION ( 'international standard', 'config_control_design', 1994, #348 ) ;
#127 = CC_DESIGN_APPROVAL ( #106, ( #43 ) ) ;
#128 = CARTESIAN_POINT ( 'NONE',  ( -44.73749999999999000, 4.762499999999994000, 0.0000000000000000000 ) ) ;
#129 = LINE ( 'NONE', #197, #36 ) ;
#130 = ORIENTED_EDGE ( 'NONE', *, *, #205, .T. ) ;
#131 = EDGE_CURVE ( 'NONE', #201, #382, #253, .T. ) ;
#132 = DIRECTION ( 'NONE',  ( 1.248725001283619600E-016, -1.000000000000000000, 0.0000000000000000000 ) ) ;
#133 = ADVANCED_BREP_SHAPE_REPRESENTATION ( '03-2053', ( #359, #211, #202 ), #70 ) ;
#134 = DIRECTION ( 'NONE',  ( 1.000000000000000000, 1.248725001283619600E-016, -0.0000000000000000000 ) ) ;
#135 = ORIENTED_EDGE ( 'NONE', *, *, #158, .F. ) ;
#136 = ADVANCED_FACE ( 'NONE', ( #319 ), #189, .F. ) ;
#137 = DIRECTION ( 'NONE',  ( -1.000000000000000000, -0.0000000000000000000, -0.0000000000000000000 ) ) ;
#138 = DIRECTION ( 'NONE',  ( -1.000000000000000000, 0.0000000000000000000, -0.0000000000000000000 ) ) ;
#139 = DIRECTION ( 'NONE',  ( 0.0000000000000000000, 1.000000000000000000, 0.0000000000000000000 ) ) ;
#140 = APPROVAL_DATE_TIME ( #224, #106 ) ;
#141 = VECTOR ( 'NONE', #71, 1000.000000000000000 ) ;
#142 = ORIENTED_EDGE ( 'NONE', *, *, #286, .F. ) ;
#143 = DIRECTION ( 'NONE',  ( 0.0000000000000000000, 1.000000000000000000, 0.0000000000000000000 ) ) ;
#144 = CARTESIAN_POINT ( 'NONE',  ( -1.587499999999994600, -4.762499999999999300, 0.0000000000000000000 ) ) ;
#145 = AXIS2_PLACEMENT_3D ( 'NONE', #362, #137, #365 ) ;
#146 = CARTESIAN_POINT ( 'NONE',  ( 1.000000000000000700, 7.658563077495042400E-032, 0.0000000000000000000 ) ) ;
#147 = VERTEX_POINT ( 'NONE', #316 ) ;
#148 = DIRECTION ( 'NONE',  ( 1.000000000000000000, 1.248725001283619600E-016, -0.0000000000000000000 ) ) ;
#149 = CARTESIAN_POINT ( 'NONE',  ( 16.87500000000000000, 0.0000000000000000000, 0.0000000000000000000 ) ) ;
#150 = PERSON_AND_ORGANIZATION_ROLE ( 'classification_officer' ) ;
#151 = CC_DESIGN_SECURITY_CLASSIFICATION ( #43, ( #351 ) ) ;
#152 = APPROVAL_PERSON_ORGANIZATION ( #234, #106, #408 ) ;
#153 = FACE_OUTER_BOUND ( 'NONE', #122, .T. ) ;
#154 = VERTEX_POINT ( 'NONE', #12 ) ;
#155 = EDGE_CURVE ( 'NONE', #154, #201, #226, .T. ) ;
#156 = ORIENTED_EDGE ( 'NONE', *, *, #223, .T. ) ;
#157 = COORDINATED_UNIVERSAL_TIME_OFFSET ( 9, 0, .AHEAD. ) ;
#158 = EDGE_CURVE ( 'NONE', #301, #56, #308, .T. ) ;
#159 = CYLINDRICAL_SURFACE ( 'NONE', #19, 3.175000000000001600 ) ;
#160 = DIRECTION ( 'NONE',  ( 1.000000000000000000, 1.248725001283619600E-016, -0.0000000000000000000 ) ) ;
#161 = DIRECTION ( 'NONE',  ( 0.0000000000000000000, 0.0000000000000000000, 1.000000000000000000 ) ) ;
#162 = CARTESIAN_POINT ( 'NONE',  ( 8.301510569017509600E-016, -3.174999999999999800, 3.888253587292846100E-016 ) ) ;
#163 = FACE_OUTER_BOUND ( 'NONE', #195, .T. ) ;
#164 = EDGE_LOOP ( 'NONE', ( #371, #156, #190, #48 ) ) ;
#165 = AXIS2_PLACEMENT_3D ( 'NONE', #323, #134, #143 ) ;
#166 = CARTESIAN_POINT ( 'NONE',  ( 1.000000000000000700, 7.658563077495042400E-032, 0.0000000000000000000 ) ) ;
#167 = ADVANCED_FACE ( 'NONE', ( #55 ), #295, .T. ) ;
#168 = DIRECTION ( 'NONE',  ( 1.000000000000000000, 1.248725001283619600E-016, -0.0000000000000000000 ) ) ;
#169 = DATE_AND_TIME ( #252, #341 ) ;
#170 = LINE ( 'NONE', #355, #409 ) ;
#171 = CARTESIAN_POINT ( 'NONE',  ( 0.0000000000000000000, 0.0000000000000000000, 0.0000000000000000000 ) ) ;
#172 = PRODUCT_RELATED_PRODUCT_CATEGORY ( 'detail', '', ( #63 ) ) ;
#173 = PLANE ( 'NONE',  #9 ) ;
#174 = MECHANICAL_CONTEXT ( 'NONE', #16, 'mechanical' ) ;
#175 = EDGE_CURVE ( 'NONE', #240, #67, #384, .T. ) ;
#176 = CARTESIAN_POINT ( 'NONE',  ( 16.87500000000000000, 0.0000000000000000000, 0.0000000000000000000 ) ) ;
#177 = CIRCLE ( 'NONE', #360, 3.175000000000002900 ) ;
#178 = ORIENTED_EDGE ( 'NONE', *, *, #354, .F. ) ;
#179 = DIRECTION ( 'NONE',  ( 1.000000000000000000, 1.248725001283619600E-016, -0.0000000000000000000 ) ) ;
#180 = PERSON_AND_ORGANIZATION ( #352, #124 ) ;
#181 = DIRECTION ( 'NONE',  ( 0.0000000000000000000, 0.0000000000000000000, 1.000000000000000000 ) ) ;
#182 = VECTOR ( 'NONE', #44, 1000.000000000000000 ) ;
#183 = APPROVAL_STATUS ( 'not_yet_approved' ) ;
#184 = EDGE_CURVE ( 'NONE', #125, #275, #396, .T. ) ;
#185 = CONICAL_SURFACE ( 'NONE', #99, 3.174999999999999800, 0.7853981633974495000 ) ;
#186 = VERTEX_POINT ( 'NONE', #204 ) ;
#187 = AXIS2_PLACEMENT_3D ( 'NONE', #199, #324, #10 ) ;
#188 = PERSON_AND_ORGANIZATION ( #352, #124 ) ;
#189 = PLANE ( 'NONE',  #76 ) ;
#190 = ORIENTED_EDGE ( 'NONE', *, *, #86, .T. ) ;
#191 = DIRECTION ( 'NONE',  ( 1.000000000000000000, 1.248725001283619600E-016, -0.0000000000000000000 ) ) ;
#192 = DIRECTION ( 'NONE',  ( -1.365923996832131900E-016, 1.000000000000000000, 0.0000000000000000000 ) ) ;
#193 = EDGE_CURVE ( 'NONE', #240, #201, #47, .T. ) ;
#194 = LINE ( 'NONE', #108, #356 ) ;
#195 = EDGE_LOOP ( 'NONE', ( #117, #385 ) ) ;
#196 = DIRECTION ( 'NONE',  ( 0.0000000000000000000, 1.000000000000000000, 0.0000000000000000000 ) ) ;
#197 = CARTESIAN_POINT ( 'NONE',  ( 0.9999999999999995600, 3.174999999999999800, 0.0000000000000000000 ) ) ;
#198 = ADVANCED_FACE ( 'NONE', ( #62 ), #121, .T. ) ;
#199 = CARTESIAN_POINT ( 'NONE',  ( 1.000000000000000000, 0.0000000000000000000, 0.0000000000000000000 ) ) ;
#200 = COORDINATED_UNIVERSAL_TIME_OFFSET ( 9, 0, .AHEAD. ) ;
#201 = VERTEX_POINT ( 'NONE', #7 ) ;
#202 = AXIS2_PLACEMENT_3D ( 'NONE', #171, #237, #369 ) ;
#203 = ORIENTED_EDGE ( 'NONE', *, *, #399, .T. ) ;
#204 = CARTESIAN_POINT ( 'NONE',  ( 16.87500000000000000, 3.888253587292850000E-016, -3.175000000000002900 ) ) ;
#205 = EDGE_CURVE ( 'NONE', #240, #301, #129, .T. ) ;
#206 = DIRECTION ( 'NONE',  ( -1.000000000000000000, -0.0000000000000000000, -0.0000000000000000000 ) ) ;
#207 = LINE ( 'NONE', #8, #287 ) ;
#208 = ORIENTED_EDGE ( 'NONE', *, *, #131, .F. ) ;
#209 = DIRECTION ( 'NONE',  ( -1.365923996832131600E-016, 1.000000000000000000, 0.0000000000000000000 ) ) ;
#210 = DIRECTION ( 'NONE',  ( 0.0000000000000000000, 0.0000000000000000000, -1.000000000000000000 ) ) ;
#211 = MANIFOLD_SOLID_BREP ( 'È¸Àü4', #250 ) ;
#212 = AXIS2_PLACEMENT_3D ( 'NONE', #146, #50, #209 ) ;
#213 = DIRECTION ( 'NONE',  ( 0.0000000000000000000, 0.0000000000000000000, 1.000000000000000000 ) ) ;
#214 = SHAPE_DEFINITION_REPRESENTATION ( #267, #133 ) ;
#215 = ORIENTED_EDGE ( 'NONE', *, *, #219, .F. ) ;
#216 =( NAMED_UNIT ( * ) PLANE_ANGLE_UNIT ( ) SI_UNIT ( $, .RADIAN. ) );
#217 = VECTOR ( 'NONE', #293, 1000.000000000000000 ) ;
#218 = EDGE_LOOP ( 'NONE', ( #178, #291 ) ) ;
#219 = EDGE_CURVE ( 'NONE', #67, #382, #207, .T. ) ;
#220 = EDGE_LOOP ( 'NONE', ( #230, #89, #208, #322 ) ) ;
#221 = CC_DESIGN_PERSON_AND_ORGANIZATION_ASSIGNMENT ( #40, #400, ( #63 ) ) ;
#222 = CARTESIAN_POINT ( 'NONE',  ( 16.87500000000000000, 0.0000000000000000000, 0.0000000000000000000 ) ) ;
#223 = EDGE_CURVE ( 'NONE', #278, #147, #370, .T. ) ;
#224 = DATE_AND_TIME ( #306, #395 ) ;
#225 = DIRECTION ( 'NONE',  ( 1.248725001283619600E-016, -1.000000000000000000, 0.0000000000000000000 ) ) ;
#226 = LINE ( 'NONE', #294, #141 ) ;
#227 = EDGE_LOOP ( 'NONE', ( #26, #58 ) ) ;
#228 = CARTESIAN_POINT ( 'NONE',  ( -45.03749999999999400, -5.748817724659462800E-015, 0.0000000000000000000 ) ) ;
#229 = AXIS2_PLACEMENT_3D ( 'NONE', #339, #148, #374 ) ;
#230 = ORIENTED_EDGE ( 'NONE', *, *, #65, .T. ) ;
#231 = DIRECTION ( 'NONE',  ( 1.248725001283619600E-016, -1.000000000000000000, 0.0000000000000000000 ) ) ;
#232 = ADVANCED_FACE ( 'NONE', ( #153 ), #185, .T. ) ;
#233 = CARTESIAN_POINT ( 'NONE',  ( 1.000000000000000000, 0.0000000000000000000, 0.0000000000000000000 ) ) ;
#234 = PERSON_AND_ORGANIZATION ( #352, #124 ) ;
#235 = CYLINDRICAL_SURFACE ( 'NONE', #38, 4.762499999999999300 ) ;
#236 = CARTESIAN_POINT ( 'NONE',  ( 0.0000000000000000000, 3.888253587292848100E-016, -3.175000000000001600 ) ) ;
#237 = DIRECTION ( 'NONE',  ( 0.0000000000000000000, 0.0000000000000000000, 1.000000000000000000 ) ) ;
#238 = EDGE_CURVE ( 'NONE', #67, #56, #194, .T. ) ;
#239 = CARTESIAN_POINT ( 'NONE',  ( -45.03749999999999400, -4.462500000000006600, 5.648683361067168800E-016 ) ) ;
#240 = VERTEX_POINT ( 'NONE', #245 ) ;
#241 = FACE_OUTER_BOUND ( 'NONE', #258, .T. ) ;
#242 = ORIENTED_EDGE ( 'NONE', *, *, #238, .F. ) ;
#243 = DIRECTION ( 'NONE',  ( -1.248725001283619600E-016, 1.000000000000000000, 0.0000000000000000000 ) ) ;
#244 = PRODUCT_DEFINITION ( 'UNKNOWN', '', #351, #32 ) ;
#245 = CARTESIAN_POINT ( 'NONE',  ( 3.721068108665257400E-017, 3.174999999999999800, 0.0000000000000000000 ) ) ;
#246 = PERSON_AND_ORGANIZATION ( #352, #124 ) ;
#247 = LINE ( 'NONE', #128, #22 ) ;
#248 = EDGE_CURVE ( 'NONE', #56, #301, #269, .T. ) ;
#249 = CONICAL_SURFACE ( 'NONE', #289, 4.762500000000000200, 0.7853981633974453900 ) ;
#250 = CLOSED_SHELL ( 'NONE', ( #325, #198, #232, #392, #11, #361, #262, #41, #103, #292 ) ) ;
#251 = AXIS2_PLACEMENT_3D ( 'NONE', #300, #78, #51 ) ;
#252 = CALENDAR_DATE ( 2023, 19, 5 ) ;
#253 = CIRCLE ( 'NONE', #387, 4.762499999999999300 ) ;
#254 = PLANE ( 'NONE',  #320 ) ;
#255 = DIRECTION ( 'NONE',  ( 0.0000000000000000000, 1.000000000000000000, 0.0000000000000000000 ) ) ;
#256 = AXIS2_PLACEMENT_3D ( 'NONE', #318, #285, #161 ) ;
#257 = FACE_OUTER_BOUND ( 'NONE', #164, .T. ) ;
#258 = EDGE_LOOP ( 'NONE', ( #309, #18, #135, #82 ) ) ;
#259 = DIRECTION ( 'NONE',  ( -1.000000000000000000, -1.248725001283619600E-016, 0.0000000000000000000 ) ) ;
#260 = DIRECTION ( 'NONE',  ( -1.365923996832131600E-016, 1.000000000000000000, 0.0000000000000000000 ) ) ;
#261 = CARTESIAN_POINT ( 'NONE',  ( 0.0000000000000000000, 0.0000000000000000000, 3.175000000000001600 ) ) ;
#262 = ADVANCED_FACE ( 'NONE', ( #25 ), #346, .T. ) ;
#263 = APPROVAL ( #315, 'UNSPECIFIED' ) ;
#264 = DATE_AND_TIME ( #349, #21 ) ;
#265 = CIRCLE ( 'NONE', #256, 3.174999999999999800 ) ;
#266 = DIRECTION ( 'NONE',  ( -0.0000000000000000000, 0.0000000000000000000, 1.000000000000000000 ) ) ;
#267 = PRODUCT_DEFINITION_SHAPE ( 'NONE', 'NONE',  #244 ) ;
#268 = EDGE_CURVE ( 'NONE', #275, #312, #17, .T. ) ;
#269 = CIRCLE ( 'NONE', #212, 3.174999999999999800 ) ;
#270 = ORIENTED_EDGE ( 'NONE', *, *, #184, .F. ) ;
#271 = DIRECTION ( 'NONE',  ( 1.000000000000000000, 1.248725001283619600E-016, -0.0000000000000000000 ) ) ;
#272 = AXIS2_PLACEMENT_3D ( 'NONE', #332, #333, #111 ) ;
#273 = APPROVAL_DATE_TIME ( #363, #263 ) ;
#274 = CARTESIAN_POINT ( 'NONE',  ( -1.587499999999995200, -3.231075940821359600E-016, 0.0000000000000000000 ) ) ;
#275 = VERTEX_POINT ( 'NONE', #337 ) ;
#276 = APPROVAL_STATUS ( 'not_yet_approved' ) ;
#277 = CIRCLE ( 'NONE', #229, 3.174999999999999800 ) ;
#278 = VERTEX_POINT ( 'NONE', #239 ) ;
#279 = UNCERTAINTY_MEASURE_WITH_UNIT (LENGTH_MEASURE( 1.000000000000000100E-005 ), #296, 'distance_accuracy_value', 'NONE');
#280 = APPROVAL_PERSON_ORGANIZATION ( #373, #263, #91 ) ;
#281 = PERSON_AND_ORGANIZATION_ROLE ( 'creator' ) ;
#282 = EDGE_LOOP ( 'NONE', ( #383, #376, #344, #270 ) ) ;
#283 = CC_DESIGN_APPROVAL ( #263, ( #244 ) ) ;
#284 = DIRECTION ( 'NONE',  ( -1.000000000000000000, -0.0000000000000000000, -0.0000000000000000000 ) ) ;
#285 = DIRECTION ( 'NONE',  ( -1.000000000000000000, -0.0000000000000000000, -0.0000000000000000000 ) ) ;
#286 = EDGE_CURVE ( 'NONE', #67, #240, #277, .T. ) ;
#287 = VECTOR ( 'NONE', #389, 1000.000000000000000 ) ;
#288 = ORIENTED_EDGE ( 'NONE', *, *, #184, .T. ) ;
#289 = AXIS2_PLACEMENT_3D ( 'NONE', #79, #271, #114 ) ;
#290 = DIRECTION ( 'NONE',  ( 1.000000000000000000, 1.248725001283619600E-016, -0.0000000000000000000 ) ) ;
#291 = ORIENTED_EDGE ( 'NONE', *, *, #399, .F. ) ;
#292 = ADVANCED_FACE ( 'NONE', ( #257 ), #249, .T. ) ;
#293 = DIRECTION ( 'NONE',  ( -1.000000000000000000, -0.0000000000000000000, -0.0000000000000000000 ) ) ;
#294 = CARTESIAN_POINT ( 'NONE',  ( 0.9999999999999993300, 4.762499999999999300, 0.0000000000000000000 ) ) ;
#295 = CYLINDRICAL_SURFACE ( 'NONE', #145, 3.175000000000001600 ) ;
#296 =( LENGTH_UNIT ( ) NAMED_UNIT ( * ) SI_UNIT ( .MILLI., .METRE. ) );
#297 = ORIENTED_EDGE ( 'NONE', *, *, #193, .T. ) ;
#298 = DIRECTION ( 'NONE',  ( 1.000000000000000000, 1.248725001283619600E-016, -0.0000000000000000000 ) ) ;
#299 = AXIS2_PLACEMENT_3D ( 'NONE', #95, #74, #132 ) ;
#300 = CARTESIAN_POINT ( 'NONE',  ( 1.000000000000000900, 0.0000000000000000000, 0.0000000000000000000 ) ) ;
#301 = VERTEX_POINT ( 'NONE', #45 ) ;
#302 = ORIENTED_EDGE ( 'NONE', *, *, #24, .T. ) ;
#303 = DIRECTION ( 'NONE',  ( -1.365923996832131900E-016, 1.000000000000000000, 0.0000000000000000000 ) ) ;
#304 = CC_DESIGN_PERSON_AND_ORGANIZATION_ASSIGNMENT ( #188, #281, ( #244 ) ) ;
#305 = PERSON_AND_ORGANIZATION_ROLE ( 'creator' ) ;
#306 = CALENDAR_DATE ( 2023, 19, 5 ) ;
#307 = EDGE_CURVE ( 'NONE', #186, #312, #5, .T. ) ;
#308 = CIRCLE ( 'NONE', #57, 3.174999999999999800 ) ;
#309 = ORIENTED_EDGE ( 'NONE', *, *, #175, .T. ) ;
#310 = ORIENTED_EDGE ( 'NONE', *, *, #109, .F. ) ;
#311 = CYLINDRICAL_SURFACE ( 'NONE', #115, 3.174999999999999800 ) ;
#312 = VERTEX_POINT ( 'NONE', #15 ) ;
#313 = AXIS2_PLACEMENT_3D ( 'NONE', #368, #397, #139 ) ;
#314 = ORIENTED_EDGE ( 'NONE', *, *, #331, .F. ) ;
#315 = APPROVAL_STATUS ( 'not_yet_approved' ) ;
#316 = CARTESIAN_POINT ( 'NONE',  ( -45.03749999999999400, 4.462499999999994100, 0.0000000000000000000 ) ) ;
#317 = DATE_AND_TIME ( #407, #72 ) ;
#318 = CARTESIAN_POINT ( 'NONE',  ( 1.000000000000000900, 0.0000000000000000000, 0.0000000000000000000 ) ) ;
#319 = FACE_OUTER_BOUND ( 'NONE', #218, .T. ) ;
#320 = AXIS2_PLACEMENT_3D ( 'NONE', #33, #60, #225 ) ;
#321 = CONICAL_SURFACE ( 'NONE', #313, 4.762500000000000200, 0.7853981633974453900 ) ;
#322 = ORIENTED_EDGE ( 'NONE', *, *, #155, .F. ) ;
#323 = CARTESIAN_POINT ( 'NONE',  ( -45.03749999999999400, -5.748817724659462800E-015, 0.0000000000000000000 ) ) ;
#324 = DIRECTION ( 'NONE',  ( 1.000000000000000000, 1.248725001283619600E-016, -0.0000000000000000000 ) ) ;
#325 = ADVANCED_FACE ( 'NONE', ( #334 ), #321, .T. ) ;
#326 = CC_DESIGN_DATE_AND_TIME_ASSIGNMENT ( #264, #358, ( #244 ) ) ;
#327 = DIRECTION ( 'NONE',  ( -1.365923996832131900E-016, 1.000000000000000000, 0.0000000000000000000 ) ) ;
#328 = PERSON_AND_ORGANIZATION ( #352, #124 ) ;
#329 = CONICAL_SURFACE ( 'NONE', #299, 3.174999999999999800, 0.7853981633974495000 ) ;
#330 = CARTESIAN_POINT ( 'NONE',  ( -44.73749999999999000, -5.711355974620954400E-015, 0.0000000000000000000 ) ) ;
#331 = EDGE_CURVE ( 'NONE', #382, #201, #410, .T. ) ;
#332 = CARTESIAN_POINT ( 'NONE',  ( 1.000000000000000000, 0.0000000000000000000, 0.0000000000000000000 ) ) ;
#333 = DIRECTION ( 'NONE',  ( 1.000000000000000000, 1.248725001283619600E-016, -0.0000000000000000000 ) ) ;
#334 = FACE_OUTER_BOUND ( 'NONE', #77, .T. ) ;
#335 = DIRECTION ( 'NONE',  ( 1.000000000000000000, 1.248725001283619600E-016, -0.0000000000000000000 ) ) ;
#336 = ORIENTED_EDGE ( 'NONE', *, *, #248, .F. ) ;
#337 = CARTESIAN_POINT ( 'NONE',  ( 1.000000000000000900, 0.0000000000000000000, 3.174999999999999800 ) ) ;
#338 = AXIS2_PLACEMENT_3D ( 'NONE', #274, #80, #303 ) ;
#339 = CARTESIAN_POINT ( 'NONE',  ( 4.336808689942017700E-016, -1.248725001283619100E-016, 0.0000000000000000000 ) ) ;
#340 = CARTESIAN_POINT ( 'NONE',  ( 0.9999999999999997800, 3.174999999999999800, 0.0000000000000000000 ) ) ;
#341 = LOCAL_TIME ( 10, 42, 48.00000000000000000, #13 ) ;
#342 = FACE_OUTER_BOUND ( 'NONE', #118, .T. ) ;
#343 = SECURITY_CLASSIFICATION_LEVEL ( 'unclassified' ) ;
#344 = ORIENTED_EDGE ( 'NONE', *, *, #268, .F. ) ;
#345 = AXIS2_PLACEMENT_3D ( 'NONE', #228, #35, #255 ) ;
#346 = CYLINDRICAL_SURFACE ( 'NONE', #272, 3.174999999999999800 ) ;
#347 = ORIENTED_EDGE ( 'NONE', *, *, #219, .T. ) ;
#348 = APPLICATION_CONTEXT ( 'configuration controlled 3d designs of mechanical parts and assemblies' ) ;
#349 = CALENDAR_DATE ( 2023, 19, 5 ) ;
#350 = FACE_OUTER_BOUND ( 'NONE', #227, .T. ) ;
#351 = PRODUCT_DEFINITION_FORMATION_WITH_SPECIFIED_SOURCE ( 'ANY', '', #63, .NOT_KNOWN. ) ;
#352 = PERSON ( 'UNSPECIFIED', 'UNSPECIFIED', 'UNSPECIFIED', ('UNSPECIFIED'), ('UNSPECIFIED'), ('UNSPECIFIED') ) ;
#353 = DIRECTION ( 'NONE',  ( 1.000000000000000000, 1.248725001283619600E-016, -0.0000000000000000000 ) ) ;
#354 = EDGE_CURVE ( 'NONE', #125, #186, #177, .T. ) ;
#355 = CARTESIAN_POINT ( 'NONE',  ( 1.000000000000000700, -4.762499999999999300, 5.832380380939268100E-016 ) ) ;
#356 = VECTOR ( 'NONE', #298, 1000.000000000000000 ) ;
#357 = ORIENTED_EDGE ( 'NONE', *, *, #380, .T. ) ;
#358 = DATE_TIME_ROLE ( 'creation_date' ) ;
#359 = MANIFOLD_SOLID_BREP ( 'È¸Àü3', #366 ) ;
#360 = AXIS2_PLACEMENT_3D ( 'NONE', #149, #377, #213 ) ;
#361 = ADVANCED_FACE ( 'NONE', ( #110 ), #173, .T. ) ;
#362 = CARTESIAN_POINT ( 'NONE',  ( 0.0000000000000000000, 0.0000000000000000000, 0.0000000000000000000 ) ) ;
#363 = DATE_AND_TIME ( #28, #116 ) ;
#364 = ORIENTED_EDGE ( 'NONE', *, *, #286, .T. ) ;
#365 = DIRECTION ( 'NONE',  ( 0.0000000000000000000, 0.0000000000000000000, 1.000000000000000000 ) ) ;
#366 = CLOSED_SHELL ( 'NONE', ( #167, #69, #367, #136 ) ) ;
#367 = ADVANCED_FACE ( 'NONE', ( #163 ), #119, .F. ) ;
#368 = CARTESIAN_POINT ( 'NONE',  ( -44.73749999999999000, -5.711355974620954400E-015, 0.0000000000000000000 ) ) ;
#369 = DIRECTION ( 'NONE',  ( 1.000000000000000000, 0.0000000000000000000, 0.0000000000000000000 ) ) ;
#370 = CIRCLE ( 'NONE', #165, 4.462500000000000400 ) ;
#371 = ORIENTED_EDGE ( 'NONE', *, *, #24, .F. ) ;
#372 = AXIS2_PLACEMENT_3D ( 'NONE', #330, #191, #1 ) ;
#373 = PERSON_AND_ORGANIZATION ( #352, #124 ) ;
#374 = DIRECTION ( 'NONE',  ( -1.248725001283619600E-016, 1.000000000000000000, 0.0000000000000000000 ) ) ;
#375 = ORIENTED_EDGE ( 'NONE', *, *, #193, .F. ) ;
#376 = ORIENTED_EDGE ( 'NONE', *, *, #307, .T. ) ;
#377 = DIRECTION ( 'NONE',  ( -1.000000000000000000, -0.0000000000000000000, -0.0000000000000000000 ) ) ;
#378 = APPROVAL ( #276, 'UNSPECIFIED' ) ;
#379 = DATE_TIME_ROLE ( 'classification_date' ) ;
#380 = EDGE_CURVE ( 'NONE', #64, #154, #96, .T. ) ;
#381 = VECTOR ( 'NONE', #391, 999.9999999999998900 ) ;
#382 = VERTEX_POINT ( 'NONE', #144 ) ;
#383 = ORIENTED_EDGE ( 'NONE', *, *, #354, .T. ) ;
#384 = CIRCLE ( 'NONE', #123, 3.174999999999999800 ) ;
#385 = ORIENTED_EDGE ( 'NONE', *, *, #3, .T. ) ;
#386 = CARTESIAN_POINT ( 'NONE',  ( 16.87500000000000000, 0.0000000000000000000, 3.175000000000002900 ) ) ;
#387 = AXIS2_PLACEMENT_3D ( 'NONE', #31, #105, #327 ) ;
#388 = CARTESIAN_POINT ( 'NONE',  ( 1.000000000000001100, -3.174999999999999800, 3.888253587292846100E-016 ) ) ;
#389 = DIRECTION ( 'NONE',  ( -0.7071067811865465700, -0.7071067811865484600, 0.0000000000000000000 ) ) ;
#390 = ORIENTED_EDGE ( 'NONE', *, *, #155, .T. ) ;
#391 = DIRECTION ( 'NONE',  ( -0.7071067811865468000, 0.7071067811865483500, 8.659560562354944000E-017 ) ) ;
#392 = ADVANCED_FACE ( 'NONE', ( #241 ), #311, .T. ) ;
#393 = DIRECTION ( 'NONE',  ( -1.248725001283619600E-016, 1.000000000000000000, 0.0000000000000000000 ) ) ;
#394 = CC_DESIGN_APPROVAL ( #378, ( #351 ) ) ;
#395 = LOCAL_TIME ( 10, 42, 48.00000000000000000, #61 ) ;
#396 = LINE ( 'NONE', #261, #217 ) ;
#397 = DIRECTION ( 'NONE',  ( 1.000000000000000000, 1.248725001283619600E-016, -0.0000000000000000000 ) ) ;
#398 = EDGE_LOOP ( 'NONE', ( #242, #364, #130, #336 ) ) ;
#399 = EDGE_CURVE ( 'NONE', #186, #125, #403, .T. ) ;
#400 = PERSON_AND_ORGANIZATION_ROLE ( 'design_owner' ) ;
#401 = DIRECTION ( 'NONE',  ( -1.000000000000000000, -0.0000000000000000000, -0.0000000000000000000 ) ) ;
#402 = DIRECTION ( 'NONE',  ( 1.000000000000000000, 0.0000000000000000000, 0.0000000000000000000 ) ) ;
#403 = CIRCLE ( 'NONE', #90, 3.175000000000002900 ) ;
#404 = EDGE_LOOP ( 'NONE', ( #310, #357, #390, #314 ) ) ;
#405 = DIRECTION ( 'NONE',  ( -1.365923996832131600E-016, 1.000000000000000000, 0.0000000000000000000 ) ) ;
#406 = CARTESIAN_POINT ( 'NONE',  ( 1.000000000000000900, 0.0000000000000000000, 0.0000000000000000000 ) ) ;
#407 = CALENDAR_DATE ( 2023, 19, 5 ) ;
#408 = APPROVAL_ROLE ( '' ) ;
#409 = VECTOR ( 'NONE', #160, 1000.000000000000000 ) ;
#410 = CIRCLE ( 'NONE', #338, 4.762499999999999300 ) ;
#411 = ORIENTED_EDGE ( 'NONE', *, *, #3, .F. ) ;
#412 = CC_DESIGN_PERSON_AND_ORGANIZATION_ASSIGNMENT ( #413, #305, ( #351 ) ) ;
#413 = PERSON_AND_ORGANIZATION ( #352, #124 ) ;
ENDSEC;
END-ISO-10303-21;
