ISO-10303-21;
HEADER;
FILE_DESCRIPTION (( 'STEP AP203' ),
    '1' );
FILE_NAME ('03-2056.STEP',
    '2023-05-19T01:43:04',
    ( 'USER' ),
    ( 'Hewlett-Packard Company' ),
    'SwSTEP 2.0',
    'SolidWorks 2014',
    '' );
FILE_SCHEMA (( 'CONFIG_CONTROL_DESIGN' ));
ENDSEC;

DATA;
#1 = APPROVAL_ROLE ( '' ) ;
#2 = AXIS2_PLACEMENT_3D ( 'NONE', #388, #207, #294 ) ;
#3 = CYLINDRICAL_SURFACE ( 'NONE', #33, 3.968750000000001800 ) ;
#4 = DIRECTION ( 'NONE',  ( -0.0000000000000000000, 0.0000000000000000000, 1.000000000000000000 ) ) ;
#5 = APPROVAL ( #138, 'UNSPECIFIED' ) ;
#6 = AXIS2_PLACEMENT_3D ( 'NONE', #83, #237, #236 ) ;
#7 = DIRECTION ( 'NONE',  ( -1.000000000000000000, -0.0000000000000000000, -0.0000000000000000000 ) ) ;
#8 = CIRCLE ( 'NONE', #40, 4.762499999999999300 ) ;
#9 = DIRECTION ( 'NONE',  ( -1.000000000000000000, -0.0000000000000000000, -0.0000000000000000000 ) ) ;
#10 = ORIENTED_EDGE ( 'NONE', *, *, #117, .F. ) ;
#11 = COORDINATED_UNIVERSAL_TIME_OFFSET ( 9, 0, .AHEAD. ) ;
#12 = CARTESIAN_POINT ( 'NONE',  ( 1.000000000000000000, 0.0000000000000000000, 0.0000000000000000000 ) ) ;
#13 = AXIS2_PLACEMENT_3D ( 'NONE', #148, #142, #324 ) ;
#14 = FACE_OUTER_BOUND ( 'NONE', #211, .T. ) ;
#15 = EDGE_LOOP ( 'NONE', ( #317, #115, #312, #354 ) ) ;
#16 = CARTESIAN_POINT ( 'NONE',  ( 0.9999999999999997800, -3.968750000000000000, 4.860316984116058100E-016 ) ) ;
#17 = AXIS2_PLACEMENT_3D ( 'NONE', #84, #94, #311 ) ;
#18 = CARTESIAN_POINT ( 'NONE',  ( 1.000000000000000700, -4.762499999999999300, 5.832380380939268100E-016 ) ) ;
#19 = CARTESIAN_POINT ( 'NONE',  ( -43.14999999999999100, -5.386952638225978800E-015, 0.0000000000000000000 ) ) ;
#20 = DIRECTION ( 'NONE',  ( -1.092739197465705300E-016, 1.000000000000000000, 0.0000000000000000000 ) ) ;
#21 = CIRCLE ( 'NONE', #344, 3.968750000000000000 ) ;
#22 = ORIENTED_EDGE ( 'NONE', *, *, #158, .T. ) ;
#23 = LOCAL_TIME ( 10, 43, 4.000000000000000000, #116 ) ;
#24 = CARTESIAN_POINT ( 'NONE',  ( 9.179270362186493400E-016, -3.968750000000000000, 4.860316984116058100E-016 ) ) ;
#25 = AXIS2_PLACEMENT_3D ( 'NONE', #78, #328, #146 ) ;
#26 = DIRECTION ( 'NONE',  ( -1.000000000000000000, -0.0000000000000000000, -0.0000000000000000000 ) ) ;
#27 = ADVANCED_FACE ( 'NONE', ( #14 ), #3, .T. ) ;
#28 = AXIS2_PLACEMENT_3D ( 'NONE', #248, #384, #81 ) ;
#29 = ADVANCED_FACE ( 'NONE', ( #264 ), #56, .T. ) ;
#30 = VERTEX_POINT ( 'NONE', #239 ) ;
#31 = ORIENTED_EDGE ( 'NONE', *, *, #75, .F. ) ;
#32 = CC_DESIGN_APPROVAL ( #5, ( #396 ) ) ;
#33 = AXIS2_PLACEMENT_3D ( 'NONE', #360, #41, #299 ) ;
#34 = CIRCLE ( 'NONE', #323, 3.968750000000000000 ) ;
#35 = ORIENTED_EDGE ( 'NONE', *, *, #127, .T. ) ;
#36 = CALENDAR_DATE ( 2023, 19, 5 ) ;
#37 = DIRECTION ( 'NONE',  ( 0.0000000000000000000, 0.0000000000000000000, 1.000000000000000000 ) ) ;
#38 = PERSON_AND_ORGANIZATION_ROLE ( 'design_supplier' ) ;
#39 = ORIENTED_EDGE ( 'NONE', *, *, #64, .F. ) ;
#40 = AXIS2_PLACEMENT_3D ( 'NONE', #371, #189, #401 ) ;
#41 = DIRECTION ( 'NONE',  ( -1.000000000000000000, -0.0000000000000000000, -0.0000000000000000000 ) ) ;
#42 = LINE ( 'NONE', #394, #114 ) ;
#43 = VERTEX_POINT ( 'NONE', #296 ) ;
#44 = PERSON_AND_ORGANIZATION ( #90, #137 ) ;
#45 = MANIFOLD_SOLID_BREP ( 'È¸Àü3', #125 ) ;
#46 = AXIS2_PLACEMENT_3D ( 'NONE', #298, #334, #361 ) ;
#47 = DIRECTION ( 'NONE',  ( 1.000000000000000000, 1.220147822927741600E-016, -0.0000000000000000000 ) ) ;
#48 = ORIENTED_EDGE ( 'NONE', *, *, #141, .F. ) ;
#49 = EDGE_CURVE ( 'NONE', #131, #301, #101, .T. ) ;
#50 = DIRECTION ( 'NONE',  ( 1.000000000000000000, 1.220147822927741600E-016, -0.0000000000000000000 ) ) ;
#51 = DIRECTION ( 'NONE',  ( 1.220147822927741900E-016, -1.000000000000000000, 0.0000000000000000000 ) ) ;
#52 = CC_DESIGN_PERSON_AND_ORGANIZATION_ASSIGNMENT ( #198, #168, ( #396 ) ) ;
#53 = CARTESIAN_POINT ( 'NONE',  ( -43.14999999999999100, 4.762499999999994000, 0.0000000000000000000 ) ) ;
#54 = CIRCLE ( 'NONE', #280, 3.968750000000000000 ) ;
#55 = EDGE_LOOP ( 'NONE', ( #48, #235, #22, #230 ) ) ;
#56 = PLANE ( 'NONE',  #28 ) ;
#57 = EDGE_CURVE ( 'NONE', #301, #259, #182, .T. ) ;
#58 = DIRECTION ( 'NONE',  ( 1.000000000000000000, 1.220147822927741600E-016, -0.0000000000000000000 ) ) ;
#59 = DIRECTION ( 'NONE',  ( 1.000000000000000000, 1.220147822927741600E-016, -0.0000000000000000000 ) ) ;
#60 = CONICAL_SURFACE ( 'NONE', #88, 4.762499999999999300, 0.7853981633974425100 ) ;
#61 = EDGE_LOOP ( 'NONE', ( #320, #270, #297, #412 ) ) ;
#62 = ADVANCED_FACE ( 'NONE', ( #336 ), #325, .T. ) ;
#63 = AXIS2_PLACEMENT_3D ( 'NONE', #293, #111, #76 ) ;
#64 = EDGE_CURVE ( 'NONE', #291, #259, #172, .T. ) ;
#65 = CIRCLE ( 'NONE', #221, 4.762499999999999300 ) ;
#66 = ORIENTED_EDGE ( 'NONE', *, *, #75, .T. ) ;
#67 = DIRECTION ( 'NONE',  ( 0.0000000000000000000, 1.000000000000000000, 0.0000000000000000000 ) ) ;
#68 = MECHANICAL_CONTEXT ( 'NONE', #228, 'mechanical' ) ;
#69 = EDGE_CURVE ( 'NONE', #131, #291, #256, .T. ) ;
#70 = CYLINDRICAL_SURFACE ( 'NONE', #233, 3.968750000000000000 ) ;
#71 = VERTEX_POINT ( 'NONE', #179 ) ;
#72 = PERSON_AND_ORGANIZATION_ROLE ( 'classification_officer' ) ;
#73 = COORDINATED_UNIVERSAL_TIME_OFFSET ( 9, 0, .AHEAD. ) ;
#74 = DESIGN_CONTEXT ( 'detailed design', #107, 'design' ) ;
#75 = EDGE_CURVE ( 'NONE', #291, #131, #245, .T. ) ;
#76 = DIRECTION ( 'NONE',  ( 1.220147822927741900E-016, -1.000000000000000000, 0.0000000000000000000 ) ) ;
#77 = LINE ( 'NONE', #123, #316 ) ;
#78 = CARTESIAN_POINT ( 'NONE',  ( 20.05000000000000400, 0.0000000000000000000, 0.0000000000000000000 ) ) ;
#79 = CC_DESIGN_DATE_AND_TIME_ASSIGNMENT ( #268, #381, ( #396 ) ) ;
#80 = EDGE_LOOP ( 'NONE', ( #391, #31 ) ) ;
#81 = DIRECTION ( 'NONE',  ( -1.220147822927741600E-016, 1.000000000000000000, 0.0000000000000000000 ) ) ;
#82 = EDGE_CURVE ( 'NONE', #259, #301, #161, .T. ) ;
#83 = CARTESIAN_POINT ( 'NONE',  ( 1.000000000000000000, 0.0000000000000000000, 0.0000000000000000000 ) ) ;
#84 = CARTESIAN_POINT ( 'NONE',  ( 20.05000000000000400, 0.0000000000000000000, 0.0000000000000000000 ) ) ;
#85 = FACE_OUTER_BOUND ( 'NONE', #212, .T. ) ;
#86 = EDGE_LOOP ( 'NONE', ( #364, #387, #10, #140 ) ) ;
#87 = LOCAL_TIME ( 10, 43, 4.000000000000000000, #169 ) ;
#88 = AXIS2_PLACEMENT_3D ( 'NONE', #227, #378, #67 ) ;
#89 = DIRECTION ( 'NONE',  ( -0.7071067811865462400, -0.7071067811865489100, 0.0000000000000000000 ) ) ;
#90 = PERSON ( 'UNSPECIFIED', 'UNSPECIFIED', 'UNSPECIFIED', ('UNSPECIFIED'), ('UNSPECIFIED'), ('UNSPECIFIED') ) ;
#91 = VECTOR ( 'NONE', #9, 1000.000000000000000 ) ;
#92 = EDGE_CURVE ( 'NONE', #145, #267, #77, .T. ) ;
#93 = DIRECTION ( 'NONE',  ( 1.000000000000000000, 1.220147822927741600E-016, -0.0000000000000000000 ) ) ;
#94 = DIRECTION ( 'NONE',  ( -1.000000000000000000, -0.0000000000000000000, -0.0000000000000000000 ) ) ;
#95 = ORIENTED_EDGE ( 'NONE', *, *, #49, .F. ) ;
#96 = APPROVAL_DATE_TIME ( #177, #122 ) ;
#97 = EDGE_CURVE ( 'NONE', #71, #145, #409, .T. ) ;
#98 = CARTESIAN_POINT ( 'NONE',  ( -0.7937499999999977400, 4.762500000000000200, 5.832380380939269100E-016 ) ) ;
#99 = ADVANCED_FACE ( 'NONE', ( #234 ), #330, .F. ) ;
#100 = EDGE_CURVE ( 'NONE', #188, #267, #65, .T. ) ;
#101 = LINE ( 'NONE', #232, #346 ) ;
#102 = PRODUCT_DEFINITION_FORMATION_WITH_SPECIFIED_SOURCE ( 'ANY', '', #214, .NOT_KNOWN. ) ;
#103 = DIRECTION ( 'NONE',  ( -1.092739197465705300E-016, 1.000000000000000000, 0.0000000000000000000 ) ) ;
#104 = EDGE_CURVE ( 'NONE', #71, #188, #398, .T. ) ;
#105 = ORIENTED_EDGE ( 'NONE', *, *, #49, .T. ) ;
#106 = APPROVAL_PERSON_ORGANIZATION ( #190, #122, #1 ) ;
#107 = APPLICATION_CONTEXT ( 'configuration controlled 3d designs of mechanical parts and assemblies' ) ;
#108 = APPROVAL_STATUS ( 'not_yet_approved' ) ;
#109 = AXIS2_PLACEMENT_3D ( 'NONE', #19, #400, #367 ) ;
#110 = ORIENTED_EDGE ( 'NONE', *, *, #178, .T. ) ;
#111 = DIRECTION ( 'NONE',  ( -1.000000000000000000, -1.220147822927741600E-016, 0.0000000000000000000 ) ) ;
#112 = EDGE_CURVE ( 'NONE', #267, #149, #386, .T. ) ;
#113 = CARTESIAN_POINT ( 'NONE',  ( 20.05000000000000400, -1.752753672734991200E-014, 0.0000000000000000000 ) ) ;
#114 = VECTOR ( 'NONE', #47, 1000.000000000000000 ) ;
#115 = ORIENTED_EDGE ( 'NONE', *, *, #133, .T. ) ;
#116 = COORDINATED_UNIVERSAL_TIME_OFFSET ( 9, 0, .AHEAD. ) ;
#117 = EDGE_CURVE ( 'NONE', #292, #149, #224, .T. ) ;
#118 = DIRECTION ( 'NONE',  ( 1.000000000000000000, 1.220147822927741600E-016, -0.0000000000000000000 ) ) ;
#119 = EDGE_CURVE ( 'NONE', #188, #292, #154, .T. ) ;
#120 = VERTEX_POINT ( 'NONE', #16 ) ;
#121 = DIRECTION ( 'NONE',  ( 1.000000000000000000, 1.220147822927741600E-016, -0.0000000000000000000 ) ) ;
#122 = APPROVAL ( #201, 'UNSPECIFIED' ) ;
#123 = CARTESIAN_POINT ( 'NONE',  ( -43.14999999999999100, -4.762500000000004600, 5.832380380939268100E-016 ) ) ;
#124 = CONICAL_SURFACE ( 'NONE', #302, 3.968750000000000000, 0.7853981633974499400 ) ;
#125 = CLOSED_SHELL ( 'NONE', ( #27, #279, #315, #99 ) ) ;
#126 = LOCAL_TIME ( 10, 43, 4.000000000000000000, #209 ) ;
#127 = EDGE_CURVE ( 'NONE', #30, #208, #54, .T. ) ;
#128 = DIRECTION ( 'NONE',  ( -1.365923996832131900E-016, 1.000000000000000000, 0.0000000000000000000 ) ) ;
#129 = UNCERTAINTY_MEASURE_WITH_UNIT (LENGTH_MEASURE( 1.000000000000000100E-005 ), #347, 'distance_accuracy_value', 'NONE');
#130 = ADVANCED_FACE ( 'NONE', ( #216 ), #124, .T. ) ;
#131 = VERTEX_POINT ( 'NONE', #304 ) ;
#132 = AXIS2_PLACEMENT_3D ( 'NONE', #219, #58, #389 ) ;
#133 = EDGE_CURVE ( 'NONE', #30, #292, #206, .T. ) ;
#134 = LINE ( 'NONE', #395, #356 ) ;
#135 = ORIENTED_EDGE ( 'NONE', *, *, #112, .F. ) ;
#136 = PLANE ( 'NONE',  #255 ) ;
#137 = ORGANIZATION ( 'UNSPECIFIED', 'UNSPECIFIED', '' ) ;
#138 = APPROVAL_STATUS ( 'not_yet_approved' ) ;
#139 = EDGE_CURVE ( 'NONE', #208, #149, #368, .T. ) ;
#140 = ORIENTED_EDGE ( 'NONE', *, *, #119, .F. ) ;
#141 = EDGE_CURVE ( 'NONE', #208, #120, #134, .T. ) ;
#142 = DIRECTION ( 'NONE',  ( 1.000000000000000000, 1.220147822927741600E-016, -0.0000000000000000000 ) ) ;
#143 = CC_DESIGN_APPROVAL ( #122, ( #102 ) ) ;
#144 = VECTOR ( 'NONE', #338, 1000.000000000000000 ) ;
#145 = VERTEX_POINT ( 'NONE', #363 ) ;
#146 = DIRECTION ( 'NONE',  ( 0.0000000000000000000, 0.0000000000000000000, 1.000000000000000000 ) ) ;
#147 = AXIS2_PLACEMENT_3D ( 'NONE', #359, #174, #385 ) ;
#148 = CARTESIAN_POINT ( 'NONE',  ( -0.7937499999999971800, -2.188640157376633000E-016, 0.0000000000000000000 ) ) ;
#149 = VERTEX_POINT ( 'NONE', #180 ) ;
#150 = APPROVAL_DATE_TIME ( #231, #265 ) ;
#151 = DIRECTION ( 'NONE',  ( -1.000000000000000000, -1.220147822927741600E-016, 0.0000000000000000000 ) ) ;
#152 = CARTESIAN_POINT ( 'NONE',  ( -5.056529823024571500E-017, 3.968750000000000000, 4.860316984116058100E-016 ) ) ;
#153 = EDGE_CURVE ( 'NONE', #43, #120, #34, .T. ) ;
#154 = LINE ( 'NONE', #365, #295 ) ;
#155 = ORIENTED_EDGE ( 'NONE', *, *, #104, .T. ) ;
#156 = ORIENTED_EDGE ( 'NONE', *, *, #139, .T. ) ;
#157 = APPROVAL_PERSON_ORGANIZATION ( #241, #265, #322 ) ;
#158 = EDGE_CURVE ( 'NONE', #30, #43, #42, .T. ) ;
#159 = ADVANCED_FACE ( 'NONE', ( #196 ), #187, .T. ) ;
#160 = EDGE_CURVE ( 'NONE', #145, #71, #266, .T. ) ;
#161 = CIRCLE ( 'NONE', #2, 3.968750000000000000 ) ;
#162 = EDGE_LOOP ( 'NONE', ( #332, #281 ) ) ;
#163 = CC_DESIGN_PERSON_AND_ORGANIZATION_ASSIGNMENT ( #413, #229, ( #102 ) ) ;
#164 = CARTESIAN_POINT ( 'NONE',  ( -43.44999999999999600, -5.423557072913811400E-015, 0.0000000000000000000 ) ) ;
#165 =( NAMED_UNIT ( * ) SI_UNIT ( $, .STERADIAN. ) SOLID_ANGLE_UNIT ( ) );
#166 = CYLINDRICAL_SURFACE ( 'NONE', #171, 3.968750000000001800 ) ;
#167 = EDGE_LOOP ( 'NONE', ( #399, #197 ) ) ;
#168 = PERSON_AND_ORGANIZATION_ROLE ( 'creator' ) ;
#169 = COORDINATED_UNIVERSAL_TIME_OFFSET ( 9, 0, .AHEAD. ) ;
#170 = EDGE_CURVE ( 'NONE', #120, #43, #21, .T. ) ;
#171 = AXIS2_PLACEMENT_3D ( 'NONE', #186, #26, #185 ) ;
#172 = LINE ( 'NONE', #210, #91 ) ;
#173 = EDGE_CURVE ( 'NONE', #208, #30, #348, .T. ) ;
#174 = DIRECTION ( 'NONE',  ( 1.000000000000000000, 1.220147822927741600E-016, -0.0000000000000000000 ) ) ;
#175 = FACE_OUTER_BOUND ( 'NONE', #15, .T. ) ;
#176 = ORIENTED_EDGE ( 'NONE', *, *, #92, .F. ) ;
#177 = DATE_AND_TIME ( #261, #342 ) ;
#178 = EDGE_CURVE ( 'NONE', #149, #292, #274, .T. ) ;
#179 = CARTESIAN_POINT ( 'NONE',  ( -43.44999999999999600, 4.462499999999995900, 0.0000000000000000000 ) ) ;
#180 = CARTESIAN_POINT ( 'NONE',  ( -0.7937499999999966200, -4.762500000000000200, 0.0000000000000000000 ) ) ;
#181 = EDGE_CURVE ( 'NONE', #267, #188, #8, .T. ) ;
#182 = CIRCLE ( 'NONE', #46, 3.968750000000000000 ) ;
#183 = DIRECTION ( 'NONE',  ( 1.000000000000000000, 1.220147822927741600E-016, -0.0000000000000000000 ) ) ;
#184 = CC_DESIGN_PERSON_AND_ORGANIZATION_ASSIGNMENT ( #333, #38, ( #102 ) ) ;
#185 = DIRECTION ( 'NONE',  ( 0.0000000000000000000, 0.0000000000000000000, 1.000000000000000000 ) ) ;
#186 = CARTESIAN_POINT ( 'NONE',  ( 0.0000000000000000000, 0.0000000000000000000, 0.0000000000000000000 ) ) ;
#187 = CYLINDRICAL_SURFACE ( 'NONE', #383, 4.762499999999999300 ) ;
#188 = VERTEX_POINT ( 'NONE', #407 ) ;
#189 = DIRECTION ( 'NONE',  ( 1.000000000000000000, 1.220147822927741600E-016, -0.0000000000000000000 ) ) ;
#190 = PERSON_AND_ORGANIZATION ( #90, #137 ) ;
#191 = CARTESIAN_POINT ( 'NONE',  ( -43.44999999999999600, -5.423557072913811400E-015, 0.0000000000000000000 ) ) ;
#192 = ADVANCED_FACE ( 'NONE', ( #175 ), #250, .T. ) ;
#193 = ORIENTED_EDGE ( 'NONE', *, *, #153, .F. ) ;
#194 = AXIS2_PLACEMENT_3D ( 'NONE', #327, #380, #306 ) ;
#195 = DIRECTION ( 'NONE',  ( -1.000000000000000000, -1.220147822927741600E-016, 0.0000000000000000000 ) ) ;
#196 = FACE_OUTER_BOUND ( 'NONE', #86, .T. ) ;
#197 = ORIENTED_EDGE ( 'NONE', *, *, #82, .T. ) ;
#198 = PERSON_AND_ORGANIZATION ( #90, #137 ) ;
#199 = MANIFOLD_SOLID_BREP ( 'È¸Àü4', #271 ) ;
#200 = APPLICATION_PROTOCOL_DEFINITION ( 'international standard', 'config_control_design', 1994, #228 ) ;
#201 = APPROVAL_STATUS ( 'not_yet_approved' ) ;
#202 = ORIENTED_EDGE ( 'NONE', *, *, #119, .T. ) ;
#203 = DIRECTION ( 'NONE',  ( -1.000000000000000000, 0.0000000000000000000, -0.0000000000000000000 ) ) ;
#204 = DIRECTION ( 'NONE',  ( 0.7071067811865517900, -0.7071067811865433500, 8.659560562354883600E-017 ) ) ;
#205 = SECURITY_CLASSIFICATION ( '', '', #262 ) ;
#206 = LINE ( 'NONE', #152, #284 ) ;
#207 = DIRECTION ( 'NONE',  ( -1.000000000000000000, -0.0000000000000000000, -0.0000000000000000000 ) ) ;
#208 = VERTEX_POINT ( 'NONE', #24 ) ;
#209 = COORDINATED_UNIVERSAL_TIME_OFFSET ( 9, 0, .AHEAD. ) ;
#210 = CARTESIAN_POINT ( 'NONE',  ( 0.0000000000000000000, 4.860316984116060100E-016, -3.968750000000001800 ) ) ;
#211 = EDGE_LOOP ( 'NONE', ( #353, #403, #377, #95 ) ) ;
#212 = EDGE_LOOP ( 'NONE', ( #39, #66, #105, #222 ) ) ;
#213 = DIRECTION ( 'NONE',  ( -0.7071067811865464600, 0.7071067811865486800, 8.659560562354948900E-017 ) ) ;
#214 = PRODUCT ( '03-2056', '03-2056', '', ( #68 ) ) ;
#215 = DIRECTION ( 'NONE',  ( 0.0000000000000000000, 1.000000000000000000, 0.0000000000000000000 ) ) ;
#216 = FACE_OUTER_BOUND ( 'NONE', #285, .T. ) ;
#217 = ORIENTED_EDGE ( 'NONE', *, *, #158, .F. ) ;
#218 = SHAPE_DEFINITION_REPRESENTATION ( #300, #379 ) ;
#219 = CARTESIAN_POINT ( 'NONE',  ( 1.000000000000000000, 0.0000000000000000000, 0.0000000000000000000 ) ) ;
#220 = DIRECTION ( 'NONE',  ( 0.0000000000000000000, 1.000000000000000000, 0.0000000000000000000 ) ) ;
#221 = AXIS2_PLACEMENT_3D ( 'NONE', #273, #93, #215 ) ;
#222 = ORIENTED_EDGE ( 'NONE', *, *, #82, .F. ) ;
#223 = ADVANCED_FACE ( 'NONE', ( #331 ), #340, .T. ) ;
#224 = CIRCLE ( 'NONE', #263, 4.762500000000000200 ) ;
#225 = CC_DESIGN_PERSON_AND_ORGANIZATION_ASSIGNMENT ( #252, #72, ( #205 ) ) ;
#226 = ORIENTED_EDGE ( 'NONE', *, *, #178, .F. ) ;
#227 = CARTESIAN_POINT ( 'NONE',  ( -43.14999999999999100, -5.386952638225978800E-015, 0.0000000000000000000 ) ) ;
#228 = APPLICATION_CONTEXT ( 'configuration controlled 3d designs of mechanical parts and assemblies' ) ;
#229 = PERSON_AND_ORGANIZATION_ROLE ( 'creator' ) ;
#230 = ORIENTED_EDGE ( 'NONE', *, *, #170, .F. ) ;
#231 = DATE_AND_TIME ( #314, #392 ) ;
#232 = CARTESIAN_POINT ( 'NONE',  ( 0.0000000000000000000, 0.0000000000000000000, 3.968750000000001800 ) ) ;
#233 = AXIS2_PLACEMENT_3D ( 'NONE', #257, #283, #103 ) ;
#234 = FACE_OUTER_BOUND ( 'NONE', #80, .T. ) ;
#235 = ORIENTED_EDGE ( 'NONE', *, *, #173, .T. ) ;
#236 = DIRECTION ( 'NONE',  ( -1.365923996832131900E-016, 1.000000000000000000, 0.0000000000000000000 ) ) ;
#237 = DIRECTION ( 'NONE',  ( 1.000000000000000000, 1.220147822927741600E-016, -0.0000000000000000000 ) ) ;
#238 = FACE_OUTER_BOUND ( 'NONE', #162, .T. ) ;
#239 = CARTESIAN_POINT ( 'NONE',  ( -5.056529823024571500E-017, 3.968750000000000000, 0.0000000000000000000 ) ) ;
#240 = ORIENTED_EDGE ( 'NONE', *, *, #141, .T. ) ;
#241 = PERSON_AND_ORGANIZATION ( #90, #137 ) ;
#242 = AXIS2_PLACEMENT_3D ( 'NONE', #113, #203, #4 ) ;
#243 = CARTESIAN_POINT ( 'NONE',  ( -43.14999999999999100, -4.762500000000003700, 5.832380380939271100E-016 ) ) ;
#244 = CARTESIAN_POINT ( 'NONE',  ( -0.7937499999999971800, -2.188640157376633000E-016, 0.0000000000000000000 ) ) ;
#245 = CIRCLE ( 'NONE', #25, 3.968750000000003600 ) ;
#246 = ORIENTED_EDGE ( 'NONE', *, *, #133, .F. ) ;
#247 = CC_DESIGN_DATE_AND_TIME_ASSIGNMENT ( #321, #289, ( #205 ) ) ;
#248 = CARTESIAN_POINT ( 'NONE',  ( 0.9999999999999993300, 3.968750000000000000, 0.0000000000000000000 ) ) ;
#249 = DIRECTION ( 'NONE',  ( -1.220147822927741600E-016, 1.000000000000000000, 0.0000000000000000000 ) ) ;
#250 = CONICAL_SURFACE ( 'NONE', #63, 3.968750000000000000, 0.7853981633974499400 ) ;
#251 = ORIENTED_EDGE ( 'NONE', *, *, #181, .T. ) ;
#252 = PERSON_AND_ORGANIZATION ( #90, #137 ) ;
#253 = CARTESIAN_POINT ( 'NONE',  ( 1.000000000000000000, 0.0000000000000000000, 3.968750000000000000 ) ) ;
#254 = ADVANCED_FACE ( 'NONE', ( #411 ), #319, .T. ) ;
#255 = AXIS2_PLACEMENT_3D ( 'NONE', #164, #195, #410 ) ;
#256 = CIRCLE ( 'NONE', #17, 3.968750000000003600 ) ;
#257 = CARTESIAN_POINT ( 'NONE',  ( 1.000000000000000000, 0.0000000000000000000, 0.0000000000000000000 ) ) ;
#258 = FACE_OUTER_BOUND ( 'NONE', #369, .T. ) ;
#259 = VERTEX_POINT ( 'NONE', #276 ) ;
#260 = DIRECTION ( 'NONE',  ( 1.000000000000000000, 0.0000000000000000000, 0.0000000000000000000 ) ) ;
#261 = CALENDAR_DATE ( 2023, 19, 5 ) ;
#262 = SECURITY_CLASSIFICATION_LEVEL ( 'unclassified' ) ;
#263 = AXIS2_PLACEMENT_3D ( 'NONE', #244, #50, #269 ) ;
#264 = FACE_OUTER_BOUND ( 'NONE', #326, .T. ) ;
#265 = APPROVAL ( #108, 'UNSPECIFIED' ) ;
#266 = CIRCLE ( 'NONE', #362, 4.462500000000001200 ) ;
#267 = VERTEX_POINT ( 'NONE', #243 ) ;
#268 = DATE_AND_TIME ( #351, #23 ) ;
#269 = DIRECTION ( 'NONE',  ( -1.138269997360109700E-016, 1.000000000000000000, 0.0000000000000000000 ) ) ;
#270 = ORIENTED_EDGE ( 'NONE', *, *, #92, .T. ) ;
#271 = CLOSED_SHELL ( 'NONE', ( #406, #159, #192, #345, #373, #29, #223, #130, #62, #254 ) ) ;
#272 =( GEOMETRIC_REPRESENTATION_CONTEXT ( 3 ) GLOBAL_UNCERTAINTY_ASSIGNED_CONTEXT ( ( #129 ) ) GLOBAL_UNIT_ASSIGNED_CONTEXT ( ( #347, #350, #165 ) ) REPRESENTATION_CONTEXT ( 'NONE', 'WORKASPACE' ) );
#273 = CARTESIAN_POINT ( 'NONE',  ( -43.14999999999999100, -5.386952638225978800E-015, 0.0000000000000000000 ) ) ;
#274 = CIRCLE ( 'NONE', #13, 4.762500000000000200 ) ;
#275 = EDGE_LOOP ( 'NONE', ( #135, #251, #202, #226 ) ) ;
#276 = CARTESIAN_POINT ( 'NONE',  ( 1.000000000000000000, 4.860316984116059100E-016, -3.968750000000000000 ) ) ;
#277 = APPROVAL_DATE_TIME ( #358, #5 ) ;
#278 = CARTESIAN_POINT ( 'NONE',  ( 4.336808689942017700E-016, -1.220147822927741200E-016, 0.0000000000000000000 ) ) ;
#279 = ADVANCED_FACE ( 'NONE', ( #85 ), #166, .T. ) ;
#280 = AXIS2_PLACEMENT_3D ( 'NONE', #366, #183, #397 ) ;
#281 = ORIENTED_EDGE ( 'NONE', *, *, #160, .F. ) ;
#282 = CC_DESIGN_APPROVAL ( #265, ( #205 ) ) ;
#283 = DIRECTION ( 'NONE',  ( 1.000000000000000000, 1.220147822927741600E-016, -0.0000000000000000000 ) ) ;
#284 = VECTOR ( 'NONE', #213, 999.9999999999998900 ) ;
#285 = EDGE_LOOP ( 'NONE', ( #246, #357, #156, #110 ) ) ;
#286 = APPROVAL_PERSON_ORGANIZATION ( #370, #5, #352 ) ;
#287 = CARTESIAN_POINT ( 'NONE',  ( 0.0000000000000000000, 0.0000000000000000000, 0.0000000000000000000 ) ) ;
#288 = PERSON_AND_ORGANIZATION_ROLE ( 'design_owner' ) ;
#289 = DATE_TIME_ROLE ( 'classification_date' ) ;
#290 = PLANE ( 'NONE',  #194 ) ;
#291 = VERTEX_POINT ( 'NONE', #313 ) ;
#292 = VERTEX_POINT ( 'NONE', #98 ) ;
#293 = CARTESIAN_POINT ( 'NONE',  ( 4.336808689942017700E-016, -1.220147822927741200E-016, 0.0000000000000000000 ) ) ;
#294 = DIRECTION ( 'NONE',  ( 0.0000000000000000000, 0.0000000000000000000, 1.000000000000000000 ) ) ;
#295 = VECTOR ( 'NONE', #337, 1000.000000000000000 ) ;
#296 = CARTESIAN_POINT ( 'NONE',  ( 0.9999999999999988900, 3.968750000000000000, 0.0000000000000000000 ) ) ;
#297 = ORIENTED_EDGE ( 'NONE', *, *, #100, .F. ) ;
#298 = CARTESIAN_POINT ( 'NONE',  ( 1.000000000000000000, 0.0000000000000000000, 0.0000000000000000000 ) ) ;
#299 = DIRECTION ( 'NONE',  ( 0.0000000000000000000, 0.0000000000000000000, 1.000000000000000000 ) ) ;
#300 = PRODUCT_DEFINITION_SHAPE ( 'NONE', 'NONE',  #396 ) ;
#301 = VERTEX_POINT ( 'NONE', #253 ) ;
#302 = AXIS2_PLACEMENT_3D ( 'NONE', #305, #151, #51 ) ;
#303 = CARTESIAN_POINT ( 'NONE',  ( 0.9999999999999993300, -7.320350136717033300E-032, 0.0000000000000000000 ) ) ;
#304 = CARTESIAN_POINT ( 'NONE',  ( 20.05000000000000400, 0.0000000000000000000, 3.968750000000003600 ) ) ;
#305 = CARTESIAN_POINT ( 'NONE',  ( 4.336808689942017700E-016, -1.220147822927741200E-016, 0.0000000000000000000 ) ) ;
#306 = DIRECTION ( 'NONE',  ( 0.0000000000000000000, 0.0000000000000000000, -1.000000000000000000 ) ) ;
#307 = DIRECTION ( 'NONE',  ( 0.7071067811865515700, 0.7071067811865435800, 0.0000000000000000000 ) ) ;
#308 = VECTOR ( 'NONE', #307, 1000.000000000000000 ) ;
#309 = ORIENTED_EDGE ( 'NONE', *, *, #153, .T. ) ;
#310 = CC_DESIGN_SECURITY_CLASSIFICATION ( #205, ( #102 ) ) ;
#311 = DIRECTION ( 'NONE',  ( 0.0000000000000000000, 0.0000000000000000000, 1.000000000000000000 ) ) ;
#312 = ORIENTED_EDGE ( 'NONE', *, *, #117, .T. ) ;
#313 = CARTESIAN_POINT ( 'NONE',  ( 20.05000000000000400, 4.860316984116062000E-016, -3.968750000000003600 ) ) ;
#314 = CALENDAR_DATE ( 2023, 19, 5 ) ;
#315 = ADVANCED_FACE ( 'NONE', ( #402 ), #290, .F. ) ;
#316 = VECTOR ( 'NONE', #204, 1000.000000000000000 ) ;
#317 = ORIENTED_EDGE ( 'NONE', *, *, #127, .F. ) ;
#318 = APPLICATION_PROTOCOL_DEFINITION ( 'international standard', 'config_control_design', 1994, #107 ) ;
#319 = CONICAL_SURFACE ( 'NONE', #109, 4.762499999999999300, 0.7853981633974425100 ) ;
#320 = ORIENTED_EDGE ( 'NONE', *, *, #97, .T. ) ;
#321 = DATE_AND_TIME ( #405, #87 ) ;
#322 = APPROVAL_ROLE ( '' ) ;
#323 = AXIS2_PLACEMENT_3D ( 'NONE', #303, #118, #335 ) ;
#324 = DIRECTION ( 'NONE',  ( -1.138269997360109700E-016, 1.000000000000000000, 0.0000000000000000000 ) ) ;
#325 = CYLINDRICAL_SURFACE ( 'NONE', #6, 4.762499999999999300 ) ;
#326 = EDGE_LOOP ( 'NONE', ( #309, #341 ) ) ;
#327 = CARTESIAN_POINT ( 'NONE',  ( 1.000000000000000400, 2.185478394931412300E-016, 0.0000000000000000000 ) ) ;
#328 = DIRECTION ( 'NONE',  ( -1.000000000000000000, -0.0000000000000000000, -0.0000000000000000000 ) ) ;
#329 = PRODUCT_RELATED_PRODUCT_CATEGORY ( 'detail', '', ( #214 ) ) ;
#330 = PLANE ( 'NONE',  #242 ) ;
#331 = FACE_OUTER_BOUND ( 'NONE', #55, .T. ) ;
#332 = ORIENTED_EDGE ( 'NONE', *, *, #97, .F. ) ;
#333 = PERSON_AND_ORGANIZATION ( #90, #137 ) ;
#334 = DIRECTION ( 'NONE',  ( -1.000000000000000000, -0.0000000000000000000, -0.0000000000000000000 ) ) ;
#335 = DIRECTION ( 'NONE',  ( -1.092739197465705300E-016, 1.000000000000000000, 0.0000000000000000000 ) ) ;
#336 = FACE_OUTER_BOUND ( 'NONE', #275, .T. ) ;
#337 = DIRECTION ( 'NONE',  ( 1.000000000000000000, 1.220147822927741600E-016, -0.0000000000000000000 ) ) ;
#338 = DIRECTION ( 'NONE',  ( 1.000000000000000000, 1.220147822927741600E-016, -0.0000000000000000000 ) ) ;
#339 = DIRECTION ( 'NONE',  ( 1.000000000000000000, 1.220147822927741600E-016, -0.0000000000000000000 ) ) ;
#340 = CYLINDRICAL_SURFACE ( 'NONE', #132, 3.968750000000000000 ) ;
#341 = ORIENTED_EDGE ( 'NONE', *, *, #170, .T. ) ;
#342 = LOCAL_TIME ( 10, 43, 4.000000000000000000, #11 ) ;
#343 = DIRECTION ( 'NONE',  ( 1.000000000000000000, 1.220147822927741600E-016, -0.0000000000000000000 ) ) ;
#344 = AXIS2_PLACEMENT_3D ( 'NONE', #372, #343, #20 ) ;
#345 = ADVANCED_FACE ( 'NONE', ( #258 ), #70, .T. ) ;
#346 = VECTOR ( 'NONE', #7, 1000.000000000000000 ) ;
#347 =( LENGTH_UNIT ( ) NAMED_UNIT ( * ) SI_UNIT ( .MILLI., .METRE. ) );
#348 = CIRCLE ( 'NONE', #408, 3.968750000000000000 ) ;
#349 = ORIENTED_EDGE ( 'NONE', *, *, #181, .F. ) ;
#350 =( NAMED_UNIT ( * ) PLANE_ANGLE_UNIT ( ) SI_UNIT ( $, .RADIAN. ) );
#351 = CALENDAR_DATE ( 2023, 19, 5 ) ;
#352 = APPROVAL_ROLE ( '' ) ;
#353 = ORIENTED_EDGE ( 'NONE', *, *, #69, .T. ) ;
#354 = ORIENTED_EDGE ( 'NONE', *, *, #139, .F. ) ;
#355 = AXIS2_PLACEMENT_3D ( 'NONE', #287, #37, #260 ) ;
#356 = VECTOR ( 'NONE', #121, 1000.000000000000000 ) ;
#357 = ORIENTED_EDGE ( 'NONE', *, *, #173, .F. ) ;
#358 = DATE_AND_TIME ( #36, #126 ) ;
#359 = CARTESIAN_POINT ( 'NONE',  ( -43.44999999999999600, -5.423557072913811400E-015, 0.0000000000000000000 ) ) ;
#360 = CARTESIAN_POINT ( 'NONE',  ( 0.0000000000000000000, 0.0000000000000000000, 0.0000000000000000000 ) ) ;
#361 = DIRECTION ( 'NONE',  ( 0.0000000000000000000, 0.0000000000000000000, 1.000000000000000000 ) ) ;
#362 = AXIS2_PLACEMENT_3D ( 'NONE', #191, #404, #220 ) ;
#363 = CARTESIAN_POINT ( 'NONE',  ( -43.44999999999999600, -4.462500000000006600, 5.648683361067168800E-016 ) ) ;
#364 = ORIENTED_EDGE ( 'NONE', *, *, #100, .T. ) ;
#365 = CARTESIAN_POINT ( 'NONE',  ( 0.9999999999999993300, 4.762499999999999300, 0.0000000000000000000 ) ) ;
#366 = CARTESIAN_POINT ( 'NONE',  ( 4.336808689942017700E-016, -1.220147822927741200E-016, 0.0000000000000000000 ) ) ;
#367 = DIRECTION ( 'NONE',  ( 0.0000000000000000000, 1.000000000000000000, 0.0000000000000000000 ) ) ;
#368 = LINE ( 'NONE', #393, #376 ) ;
#369 = EDGE_LOOP ( 'NONE', ( #35, #240, #193, #217 ) ) ;
#370 = PERSON_AND_ORGANIZATION ( #90, #137 ) ;
#371 = CARTESIAN_POINT ( 'NONE',  ( -43.14999999999999100, -5.386952638225978800E-015, 0.0000000000000000000 ) ) ;
#372 = CARTESIAN_POINT ( 'NONE',  ( 0.9999999999999993300, -7.320350136717033300E-032, 0.0000000000000000000 ) ) ;
#373 = ADVANCED_FACE ( 'NONE', ( #238 ), #136, .T. ) ;
#374 = ORIENTED_EDGE ( 'NONE', *, *, #160, .T. ) ;
#375 = CC_DESIGN_PERSON_AND_ORGANIZATION_ASSIGNMENT ( #44, #288, ( #214 ) ) ;
#376 = VECTOR ( 'NONE', #89, 999.9999999999998900 ) ;
#377 = ORIENTED_EDGE ( 'NONE', *, *, #57, .F. ) ;
#378 = DIRECTION ( 'NONE',  ( 1.000000000000000000, 1.220147822927741600E-016, -0.0000000000000000000 ) ) ;
#379 = ADVANCED_BREP_SHAPE_REPRESENTATION ( '03-2056', ( #45, #199, #355 ), #272 ) ;
#380 = DIRECTION ( 'NONE',  ( 1.000000000000000000, 0.0000000000000000000, 0.0000000000000000000 ) ) ;
#381 = DATE_TIME_ROLE ( 'creation_date' ) ;
#382 = EDGE_LOOP ( 'NONE', ( #176, #374, #155, #349 ) ) ;
#383 = AXIS2_PLACEMENT_3D ( 'NONE', #12, #339, #128 ) ;
#384 = DIRECTION ( 'NONE',  ( 1.000000000000000000, 1.220147822927741600E-016, -0.0000000000000000000 ) ) ;
#385 = DIRECTION ( 'NONE',  ( 0.0000000000000000000, 1.000000000000000000, 0.0000000000000000000 ) ) ;
#386 = LINE ( 'NONE', #18, #144 ) ;
#387 = ORIENTED_EDGE ( 'NONE', *, *, #112, .T. ) ;
#388 = CARTESIAN_POINT ( 'NONE',  ( 1.000000000000000000, 0.0000000000000000000, 0.0000000000000000000 ) ) ;
#389 = DIRECTION ( 'NONE',  ( -1.092739197465705300E-016, 1.000000000000000000, 0.0000000000000000000 ) ) ;
#390 = FACE_OUTER_BOUND ( 'NONE', #61, .T. ) ;
#391 = ORIENTED_EDGE ( 'NONE', *, *, #69, .F. ) ;
#392 = LOCAL_TIME ( 10, 43, 4.000000000000000000, #73 ) ;
#393 = CARTESIAN_POINT ( 'NONE',  ( 9.179270362186493400E-016, -3.968750000000000000, 0.0000000000000000000 ) ) ;
#394 = CARTESIAN_POINT ( 'NONE',  ( 0.9999999999999995600, 3.968750000000000000, 0.0000000000000000000 ) ) ;
#395 = CARTESIAN_POINT ( 'NONE',  ( 1.000000000000000400, -3.968750000000000000, 4.860316984116058100E-016 ) ) ;
#396 = PRODUCT_DEFINITION ( 'UNKNOWN', '', #102, #74 ) ;
#397 = DIRECTION ( 'NONE',  ( -1.220147822927741600E-016, 1.000000000000000000, 0.0000000000000000000 ) ) ;
#398 = LINE ( 'NONE', #53, #308 ) ;
#399 = ORIENTED_EDGE ( 'NONE', *, *, #57, .T. ) ;
#400 = DIRECTION ( 'NONE',  ( 1.000000000000000000, 1.220147822927741600E-016, -0.0000000000000000000 ) ) ;
#401 = DIRECTION ( 'NONE',  ( 0.0000000000000000000, 1.000000000000000000, 0.0000000000000000000 ) ) ;
#402 = FACE_OUTER_BOUND ( 'NONE', #167, .T. ) ;
#403 = ORIENTED_EDGE ( 'NONE', *, *, #64, .T. ) ;
#404 = DIRECTION ( 'NONE',  ( 1.000000000000000000, 1.220147822927741600E-016, -0.0000000000000000000 ) ) ;
#405 = CALENDAR_DATE ( 2023, 19, 5 ) ;
#406 = ADVANCED_FACE ( 'NONE', ( #390 ), #60, .T. ) ;
#407 = CARTESIAN_POINT ( 'NONE',  ( -43.14999999999999100, 4.762499999999994000, 0.0000000000000000000 ) ) ;
#408 = AXIS2_PLACEMENT_3D ( 'NONE', #278, #59, #249 ) ;
#409 = CIRCLE ( 'NONE', #147, 4.462500000000001200 ) ;
#410 = DIRECTION ( 'NONE',  ( 1.220147822927741600E-016, -1.000000000000000000, 0.0000000000000000000 ) ) ;
#411 = FACE_OUTER_BOUND ( 'NONE', #382, .T. ) ;
#412 = ORIENTED_EDGE ( 'NONE', *, *, #104, .F. ) ;
#413 = PERSON_AND_ORGANIZATION ( #90, #137 ) ;
ENDSEC;
END-ISO-10303-21;
