ISO-10303-21;
HEADER;
FILE_DESCRIPTION (( 'STEP AP203' ),
    '1' );
FILE_NAME ('03-2059.STEP',
    '2023-05-19T01:43:21',
    ( 'USER' ),
    ( 'Hewlett-Packard Company' ),
    'SwSTEP 2.0',
    'SolidWorks 2014',
    '' );
FILE_SCHEMA (( 'CONFIG_CONTROL_DESIGN' ));
ENDSEC;

DATA;
#1 = APPROVAL ( #65, 'UNSPECIFIED' ) ;
#2 = CYLINDRICAL_SURFACE ( 'NONE', #110, 4.762500000000002000 ) ;
#3 = FACE_OUTER_BOUND ( 'NONE', #64, .T. ) ;
#4 = PRODUCT_DEFINITION ( 'UNKNOWN', '', #298, #309 ) ;
#5 = DIRECTION ( 'NONE',  ( 0.0000000000000000000, 0.0000000000000000000, 1.000000000000000000 ) ) ;
#6 = CC_DESIGN_PERSON_AND_ORGANIZATION_ASSIGNMENT ( #244, #206, ( #308 ) ) ;
#7 = VECTOR ( 'NONE', #130, 1000.000000000000000 ) ;
#8 = DATE_AND_TIME ( #104, #182 ) ;
#9 = FACE_OUTER_BOUND ( 'NONE', #201, .T. ) ;
#10 = CIRCLE ( 'NONE', #101, 4.762500000000003700 ) ;
#11 = AXIS2_PLACEMENT_3D ( 'NONE', #270, #289, #183 ) ;
#12 = ADVANCED_FACE ( 'NONE', ( #20 ), #210, .T. ) ;
#13 = DIRECTION ( 'NONE',  ( 1.000000000000000000, 1.220147822927741600E-016, -0.0000000000000000000 ) ) ;
#14 = FACE_OUTER_BOUND ( 'NONE', #60, .T. ) ;
#15 = FACE_OUTER_BOUND ( 'NONE', #112, .T. ) ;
#16 = LINE ( 'NONE', #212, #50 ) ;
#17 = CARTESIAN_POINT ( 'NONE',  ( -43.14999999999999100, -5.386952638225978800E-015, 0.0000000000000000000 ) ) ;
#18 = DIRECTION ( 'NONE',  ( -1.365923996832131600E-016, 1.000000000000000000, 0.0000000000000000000 ) ) ;
#19 = CC_DESIGN_APPROVAL ( #312, ( #298 ) ) ;
#20 = FACE_OUTER_BOUND ( 'NONE', #22, .T. ) ;
#21 = PERSON_AND_ORGANIZATION ( #24, #295 ) ;
#22 = EDGE_LOOP ( 'NONE', ( #128, #83 ) ) ;
#23 = CLOSED_SHELL ( 'NONE', ( #85, #280, #12, #260, #215, #248 ) ) ;
#24 = PERSON ( 'UNSPECIFIED', 'UNSPECIFIED', 'UNSPECIFIED', ('UNSPECIFIED'), ('UNSPECIFIED'), ('UNSPECIFIED') ) ;
#25 = AXIS2_PLACEMENT_3D ( 'NONE', #186, #184, #268 ) ;
#26 = ORIENTED_EDGE ( 'NONE', *, *, #170, .F. ) ;
#27 = CIRCLE ( 'NONE', #78, 4.762500000000000200 ) ;
#28 = ORIENTED_EDGE ( 'NONE', *, *, #145, .F. ) ;
#29 =( GEOMETRIC_REPRESENTATION_CONTEXT ( 3 ) GLOBAL_UNCERTAINTY_ASSIGNED_CONTEXT ( ( #140 ) ) GLOBAL_UNIT_ASSIGNED_CONTEXT ( ( #310, #58, #235 ) ) REPRESENTATION_CONTEXT ( 'NONE', 'WORKASPACE' ) );
#30 = APPLICATION_CONTEXT ( 'configuration controlled 3d designs of mechanical parts and assemblies' ) ;
#31 = AXIS2_PLACEMENT_3D ( 'NONE', #291, #162, #133 ) ;
#32 = EDGE_LOOP ( 'NONE', ( #36, #151 ) ) ;
#33 = APPROVAL_STATUS ( 'not_yet_approved' ) ;
#34 = PERSON_AND_ORGANIZATION ( #24, #295 ) ;
#35 = ORIENTED_EDGE ( 'NONE', *, *, #169, .T. ) ;
#36 = ORIENTED_EDGE ( 'NONE', *, *, #142, .F. ) ;
#37 = VERTEX_POINT ( 'NONE', #93 ) ;
#38 = VECTOR ( 'NONE', #279, 1000.000000000000000 ) ;
#39 = VERTEX_POINT ( 'NONE', #77 ) ;
#40 = COORDINATED_UNIVERSAL_TIME_OFFSET ( 9, 0, .AHEAD. ) ;
#41 = CARTESIAN_POINT ( 'NONE',  ( -43.14999999999999100, -4.762500000000004600, 5.832380380939268100E-016 ) ) ;
#42 = EDGE_LOOP ( 'NONE', ( #302, #122, #72, #28 ) ) ;
#43 = ORIENTED_EDGE ( 'NONE', *, *, #180, .T. ) ;
#44 = CC_DESIGN_PERSON_AND_ORGANIZATION_ASSIGNMENT ( #223, #165, ( #298 ) ) ;
#45 = DIRECTION ( 'NONE',  ( -1.000000000000000000, -0.0000000000000000000, -0.0000000000000000000 ) ) ;
#46 = CARTESIAN_POINT ( 'NONE',  ( 0.9999999999999988900, 4.762500000000000200, 0.0000000000000000000 ) ) ;
#47 = AXIS2_PLACEMENT_3D ( 'NONE', #222, #267, #66 ) ;
#48 = DIRECTION ( 'NONE',  ( 0.0000000000000000000, 0.0000000000000000000, -1.000000000000000000 ) ) ;
#49 = ORIENTED_EDGE ( 'NONE', *, *, #159, .T. ) ;
#50 = VECTOR ( 'NONE', #229, 1000.000000000000000 ) ;
#51 = ADVANCED_FACE ( 'NONE', ( #14 ), #2, .T. ) ;
#52 = AXIS2_PLACEMENT_3D ( 'NONE', #262, #54, #149 ) ;
#53 = DIRECTION ( 'NONE',  ( -1.000000000000000000, 0.0000000000000000000, -0.0000000000000000000 ) ) ;
#54 = DIRECTION ( 'NONE',  ( -1.000000000000000000, -0.0000000000000000000, -0.0000000000000000000 ) ) ;
#55 = ORIENTED_EDGE ( 'NONE', *, *, #139, .T. ) ;
#56 = ORIENTED_EDGE ( 'NONE', *, *, #150, .F. ) ;
#57 = AXIS2_PLACEMENT_3D ( 'NONE', #17, #160, #131 ) ;
#58 =( NAMED_UNIT ( * ) PLANE_ANGLE_UNIT ( ) SI_UNIT ( $, .RADIAN. ) );
#59 = ORIENTED_EDGE ( 'NONE', *, *, #164, .F. ) ;
#60 = EDGE_LOOP ( 'NONE', ( #282, #55, #108, #63 ) ) ;
#61 = AXIS2_PLACEMENT_3D ( 'NONE', #284, #290, #241 ) ;
#62 = AXIS2_PLACEMENT_3D ( 'NONE', #125, #53, #178 ) ;
#63 = ORIENTED_EDGE ( 'NONE', *, *, #134, .F. ) ;
#64 = EDGE_LOOP ( 'NONE', ( #95, #43, #158, #105 ) ) ;
#65 = APPROVAL_STATUS ( 'not_yet_approved' ) ;
#66 = DIRECTION ( 'NONE',  ( -1.365923996832131900E-016, 1.000000000000000000, 0.0000000000000000000 ) ) ;
#67 = CC_DESIGN_PERSON_AND_ORGANIZATION_ASSIGNMENT ( #172, #296, ( #298 ) ) ;
#68 = AXIS2_PLACEMENT_3D ( 'NONE', #87, #249, #124 ) ;
#69 = VERTEX_POINT ( 'NONE', #245 ) ;
#70 = DATE_AND_TIME ( #157, #213 ) ;
#71 = ORIENTED_EDGE ( 'NONE', *, *, #180, .F. ) ;
#72 = ORIENTED_EDGE ( 'NONE', *, *, #134, .T. ) ;
#73 = EDGE_LOOP ( 'NONE', ( #56, #190, #115, #71 ) ) ;
#74 = CYLINDRICAL_SURFACE ( 'NONE', #25, 4.762499999999999300 ) ;
#75 = AXIS2_PLACEMENT_3D ( 'NONE', #217, #13, #216 ) ;
#76 = VERTEX_POINT ( 'NONE', #82 ) ;
#77 = CARTESIAN_POINT ( 'NONE',  ( 20.05000000000000100, 0.0000000000000000000, 4.762500000000003700 ) ) ;
#78 = AXIS2_PLACEMENT_3D ( 'NONE', #304, #202, #18 ) ;
#79 = DIRECTION ( 'NONE',  ( 0.0000000000000000000, 0.0000000000000000000, 1.000000000000000000 ) ) ;
#80 = VERTEX_POINT ( 'NONE', #228 ) ;
#81 = PERSON_AND_ORGANIZATION ( #24, #295 ) ;
#82 = CARTESIAN_POINT ( 'NONE',  ( 20.05000000000000100, 5.832380380939275000E-016, -4.762500000000003700 ) ) ;
#83 = ORIENTED_EDGE ( 'NONE', *, *, #174, .F. ) ;
#84 = ORIENTED_EDGE ( 'NONE', *, *, #145, .T. ) ;
#85 = ADVANCED_FACE ( 'NONE', ( #9 ), #205, .T. ) ;
#86 = AXIS2_PLACEMENT_3D ( 'NONE', #179, #303, #231 ) ;
#87 = CARTESIAN_POINT ( 'NONE',  ( 0.9999999999999995600, -6.138646323317008000E-032, 0.0000000000000000000 ) ) ;
#88 = VERTEX_POINT ( 'NONE', #301 ) ;
#89 = CYLINDRICAL_SURFACE ( 'NONE', #47, 4.762499999999999300 ) ;
#90 = DIRECTION ( 'NONE',  ( 1.000000000000000000, 1.220147822927741600E-016, -0.0000000000000000000 ) ) ;
#91 = AXIS2_PLACEMENT_3D ( 'NONE', #232, #153, #286 ) ;
#92 = SECURITY_CLASSIFICATION ( '', '', #187 ) ;
#93 = CARTESIAN_POINT ( 'NONE',  ( -43.14999999999999100, -4.762500000000003700, 5.832380380939271100E-016 ) ) ;
#94 = PERSON_AND_ORGANIZATION ( #24, #295 ) ;
#95 = ORIENTED_EDGE ( 'NONE', *, *, #168, .F. ) ;
#96 = VERTEX_POINT ( 'NONE', #120 ) ;
#97 = AXIS2_PLACEMENT_3D ( 'NONE', #225, #265, #154 ) ;
#98 = AXIS2_PLACEMENT_3D ( 'NONE', #300, #193, #5 ) ;
#99 = EDGE_LOOP ( 'NONE', ( #198, #116, #207, #26 ) ) ;
#100 = FACE_OUTER_BOUND ( 'NONE', #99, .T. ) ;
#101 = AXIS2_PLACEMENT_3D ( 'NONE', #144, #277, #146 ) ;
#102 = PERSON_AND_ORGANIZATION_ROLE ( 'creator' ) ;
#103 = AXIS2_PLACEMENT_3D ( 'NONE', #283, #214, #48 ) ;
#104 = CALENDAR_DATE ( 2023, 19, 5 ) ;
#105 = ORIENTED_EDGE ( 'NONE', *, *, #176, .F. ) ;
#106 = ORIENTED_EDGE ( 'NONE', *, *, #161, .F. ) ;
#107 = AXIS2_PLACEMENT_3D ( 'NONE', #111, #278, #173 ) ;
#108 = ORIENTED_EDGE ( 'NONE', *, *, #135, .F. ) ;
#109 = VECTOR ( 'NONE', #90, 1000.000000000000000 ) ;
#110 = AXIS2_PLACEMENT_3D ( 'NONE', #234, #45, #79 ) ;
#111 = CARTESIAN_POINT ( 'NONE',  ( 1.000000000000000000, 0.0000000000000000000, 0.0000000000000000000 ) ) ;
#112 = EDGE_LOOP ( 'NONE', ( #35, #148 ) ) ;
#113 = DATE_AND_TIME ( #188, #233 ) ;
#114 = CC_DESIGN_PERSON_AND_ORGANIZATION_ASSIGNMENT ( #94, #311, ( #92 ) ) ;
#115 = ORIENTED_EDGE ( 'NONE', *, *, #164, .T. ) ;
#116 = ORIENTED_EDGE ( 'NONE', *, *, #168, .T. ) ;
#117 = CARTESIAN_POINT ( 'NONE',  ( -43.14999999999999100, -5.386952638225978800E-015, 0.0000000000000000000 ) ) ;
#118 = AXIS2_PLACEMENT_3D ( 'NONE', #117, #227, #259 ) ;
#119 = ADVANCED_FACE ( 'NONE', ( #156 ), #261, .F. ) ;
#120 = CARTESIAN_POINT ( 'NONE',  ( 1.000000000000000000, 5.832380380939271100E-016, -4.762500000000000200 ) ) ;
#121 = AXIS2_PLACEMENT_3D ( 'NONE', #195, #256, #252 ) ;
#122 = ORIENTED_EDGE ( 'NONE', *, *, #143, .T. ) ;
#123 = VECTOR ( 'NONE', #211, 1000.000000000000000 ) ;
#124 = DIRECTION ( 'NONE',  ( -1.365923996832131600E-016, 1.000000000000000000, 0.0000000000000000000 ) ) ;
#125 = CARTESIAN_POINT ( 'NONE',  ( 20.05000000000000100, 0.0000000000000000000, 0.0000000000000000000 ) ) ;
#126 = VERTEX_POINT ( 'NONE', #46 ) ;
#127 = APPROVAL_DATE_TIME ( #192, #1 ) ;
#128 = ORIENTED_EDGE ( 'NONE', *, *, #159, .F. ) ;
#129 = ORIENTED_EDGE ( 'NONE', *, *, #135, .T. ) ;
#130 = DIRECTION ( 'NONE',  ( -1.000000000000000000, -0.0000000000000000000, -0.0000000000000000000 ) ) ;
#131 = DIRECTION ( 'NONE',  ( 0.0000000000000000000, 1.000000000000000000, 0.0000000000000000000 ) ) ;
#132 = CIRCLE ( 'NONE', #86, 4.762499999999999300 ) ;
#133 = DIRECTION ( 'NONE',  ( -1.220147822927741600E-016, 1.000000000000000000, 0.0000000000000000000 ) ) ;
#134 = EDGE_CURVE ( 'NONE', #39, #88, #247, .T. ) ;
#135 = EDGE_CURVE ( 'NONE', #88, #96, #297, .T. ) ;
#136 = APPROVAL_STATUS ( 'not_yet_approved' ) ;
#137 = APPROVAL_PERSON_ORGANIZATION ( #200, #1, #239 ) ;
#138 = CC_DESIGN_DATE_AND_TIME_ASSIGNMENT ( #167, #208, ( #92 ) ) ;
#139 = EDGE_CURVE ( 'NONE', #76, #96, #16, .T. ) ;
#140 = UNCERTAINTY_MEASURE_WITH_UNIT (LENGTH_MEASURE( 1.000000000000000100E-005 ), #310, 'distance_accuracy_value', 'NONE');
#141 = LINE ( 'NONE', #41, #38 ) ;
#142 = EDGE_CURVE ( 'NONE', #39, #76, #10, .T. ) ;
#143 = EDGE_CURVE ( 'NONE', #76, #39, #292, .T. ) ;
#144 = CARTESIAN_POINT ( 'NONE',  ( 20.05000000000000100, 0.0000000000000000000, 0.0000000000000000000 ) ) ;
#145 = EDGE_CURVE ( 'NONE', #96, #88, #242, .T. ) ;
#146 = DIRECTION ( 'NONE',  ( 0.0000000000000000000, 0.0000000000000000000, 1.000000000000000000 ) ) ;
#147 = EDGE_LOOP ( 'NONE', ( #129, #84 ) ) ;
#148 = ORIENTED_EDGE ( 'NONE', *, *, #176, .T. ) ;
#149 = DIRECTION ( 'NONE',  ( 0.0000000000000000000, 0.0000000000000000000, 1.000000000000000000 ) ) ;
#150 = EDGE_CURVE ( 'NONE', #152, #37, #141, .T. ) ;
#151 = ORIENTED_EDGE ( 'NONE', *, *, #143, .F. ) ;
#152 = VERTEX_POINT ( 'NONE', #251 ) ;
#153 = DIRECTION ( 'NONE',  ( 1.000000000000000000, 1.220147822927741600E-016, -0.0000000000000000000 ) ) ;
#154 = DIRECTION ( 'NONE',  ( 0.0000000000000000000, 0.0000000000000000000, 1.000000000000000000 ) ) ;
#155 = APPROVAL ( #33, 'UNSPECIFIED' ) ;
#156 = FACE_OUTER_BOUND ( 'NONE', #147, .T. ) ;
#157 = CALENDAR_DATE ( 2023, 19, 5 ) ;
#158 = ORIENTED_EDGE ( 'NONE', *, *, #170, .T. ) ;
#159 = EDGE_CURVE ( 'NONE', #69, #152, #197, .T. ) ;
#160 = DIRECTION ( 'NONE',  ( 1.000000000000000000, 1.220147822927741600E-016, -0.0000000000000000000 ) ) ;
#161 = EDGE_CURVE ( 'NONE', #306, #37, #132, .T. ) ;
#162 = DIRECTION ( 'NONE',  ( 1.000000000000000000, 1.220147822927741600E-016, -0.0000000000000000000 ) ) ;
#163 = CONICAL_SURFACE ( 'NONE', #57, 4.762499999999999300, 0.7853981633974425100 ) ;
#164 = EDGE_CURVE ( 'NONE', #69, #306, #281, .T. ) ;
#165 = PERSON_AND_ORGANIZATION_ROLE ( 'creator' ) ;
#166 = CLOSED_SHELL ( 'NONE', ( #51, #196, #119, #175 ) ) ;
#167 = DATE_AND_TIME ( #218, #257 ) ;
#168 = EDGE_CURVE ( 'NONE', #37, #80, #238, .T. ) ;
#169 = EDGE_CURVE ( 'NONE', #126, #80, #27, .T. ) ;
#170 = EDGE_CURVE ( 'NONE', #306, #126, #191, .T. ) ;
#171 = CC_DESIGN_APPROVAL ( #155, ( #92 ) ) ;
#172 = PERSON_AND_ORGANIZATION ( #24, #295 ) ;
#173 = DIRECTION ( 'NONE',  ( 0.0000000000000000000, 0.0000000000000000000, 1.000000000000000000 ) ) ;
#174 = EDGE_CURVE ( 'NONE', #152, #69, #230, .T. ) ;
#175 = ADVANCED_FACE ( 'NONE', ( #185 ), #199, .F. ) ;
#176 = EDGE_CURVE ( 'NONE', #80, #126, #224, .T. ) ;
#177 = CIRCLE ( 'NONE', #61, 4.762499999999999300 ) ;
#178 = DIRECTION ( 'NONE',  ( -0.0000000000000000000, 0.0000000000000000000, 1.000000000000000000 ) ) ;
#179 = CARTESIAN_POINT ( 'NONE',  ( -43.14999999999999100, -5.386952638225978800E-015, 0.0000000000000000000 ) ) ;
#180 = EDGE_CURVE ( 'NONE', #37, #306, #177, .T. ) ;
#181 = CARTESIAN_POINT ( 'NONE',  ( 1.000000000000000700, -4.762499999999999300, 5.832380380939268100E-016 ) ) ;
#182 = LOCAL_TIME ( 10, 43, 21.00000000000000000, #226 ) ;
#183 = DIRECTION ( 'NONE',  ( 1.000000000000000000, 0.0000000000000000000, 0.0000000000000000000 ) ) ;
#184 = DIRECTION ( 'NONE',  ( 1.000000000000000000, 1.220147822927741600E-016, -0.0000000000000000000 ) ) ;
#185 = FACE_OUTER_BOUND ( 'NONE', #32, .T. ) ;
#186 = CARTESIAN_POINT ( 'NONE',  ( 1.000000000000000000, 0.0000000000000000000, 0.0000000000000000000 ) ) ;
#187 = SECURITY_CLASSIFICATION_LEVEL ( 'unclassified' ) ;
#188 = CALENDAR_DATE ( 2023, 19, 5 ) ;
#189 = CC_DESIGN_SECURITY_CLASSIFICATION ( #92, ( #298 ) ) ;
#190 = ORIENTED_EDGE ( 'NONE', *, *, #174, .T. ) ;
#191 = LINE ( 'NONE', #264, #109 ) ;
#192 = DATE_AND_TIME ( #240, #287 ) ;
#193 = DIRECTION ( 'NONE',  ( -1.000000000000000000, -0.0000000000000000000, -0.0000000000000000000 ) ) ;
#194 = MANIFOLD_SOLID_BREP ( 'È¸Àü3', #166 ) ;
#195 = CARTESIAN_POINT ( 'NONE',  ( -43.44999999999999600, -5.423557072913811400E-015, 0.0000000000000000000 ) ) ;
#196 = ADVANCED_FACE ( 'NONE', ( #269 ), #220, .T. ) ;
#197 = CIRCLE ( 'NONE', #91, 4.462500000000001200 ) ;
#198 = ORIENTED_EDGE ( 'NONE', *, *, #161, .T. ) ;
#199 = PLANE ( 'NONE',  #62 ) ;
#200 = PERSON_AND_ORGANIZATION ( #24, #295 ) ;
#201 = EDGE_LOOP ( 'NONE', ( #49, #258, #106, #59 ) ) ;
#202 = DIRECTION ( 'NONE',  ( 1.000000000000000000, 1.220147822927741600E-016, -0.0000000000000000000 ) ) ;
#203 = PRODUCT_RELATED_PRODUCT_CATEGORY ( 'detail', '', ( #308 ) ) ;
#204 = APPLICATION_PROTOCOL_DEFINITION ( 'international standard', 'config_control_design', 1994, #219 ) ;
#205 = CONICAL_SURFACE ( 'NONE', #118, 4.762499999999999300, 0.7853981633974425100 ) ;
#206 = PERSON_AND_ORGANIZATION_ROLE ( 'design_owner' ) ;
#207 = ORIENTED_EDGE ( 'NONE', *, *, #169, .F. ) ;
#208 = DATE_TIME_ROLE ( 'classification_date' ) ;
#209 = PRODUCT_DEFINITION_SHAPE ( 'NONE', 'NONE',  #4 ) ;
#210 = PLANE ( 'NONE',  #121 ) ;
#211 = DIRECTION ( 'NONE',  ( 0.7071067811865515700, 0.7071067811865435800, 0.0000000000000000000 ) ) ;
#212 = CARTESIAN_POINT ( 'NONE',  ( 0.0000000000000000000, 5.832380380939272100E-016, -4.762500000000002000 ) ) ;
#213 = LOCAL_TIME ( 10, 43, 21.00000000000000000, #254 ) ;
#214 = DIRECTION ( 'NONE',  ( 1.000000000000000000, 0.0000000000000000000, 0.0000000000000000000 ) ) ;
#215 = ADVANCED_FACE ( 'NONE', ( #3 ), #89, .T. ) ;
#216 = DIRECTION ( 'NONE',  ( 0.0000000000000000000, 1.000000000000000000, 0.0000000000000000000 ) ) ;
#217 = CARTESIAN_POINT ( 'NONE',  ( -43.44999999999999600, -5.423557072913811400E-015, 0.0000000000000000000 ) ) ;
#218 = CALENDAR_DATE ( 2023, 19, 5 ) ;
#219 = APPLICATION_CONTEXT ( 'configuration controlled 3d designs of mechanical parts and assemblies' ) ;
#220 = CYLINDRICAL_SURFACE ( 'NONE', #52, 4.762500000000002000 ) ;
#221 = APPLICATION_PROTOCOL_DEFINITION ( 'international standard', 'config_control_design', 1994, #30 ) ;
#222 = CARTESIAN_POINT ( 'NONE',  ( 1.000000000000000000, 0.0000000000000000000, 0.0000000000000000000 ) ) ;
#223 = PERSON_AND_ORGANIZATION ( #24, #295 ) ;
#224 = CIRCLE ( 'NONE', #68, 4.762500000000000200 ) ;
#225 = CARTESIAN_POINT ( 'NONE',  ( 1.000000000000000000, 0.0000000000000000000, 0.0000000000000000000 ) ) ;
#226 = COORDINATED_UNIVERSAL_TIME_OFFSET ( 9, 0, .AHEAD. ) ;
#227 = DIRECTION ( 'NONE',  ( 1.000000000000000000, 1.220147822927741600E-016, -0.0000000000000000000 ) ) ;
#228 = CARTESIAN_POINT ( 'NONE',  ( 1.000000000000000200, -4.762500000000000200, 5.832380380939269100E-016 ) ) ;
#229 = DIRECTION ( 'NONE',  ( -1.000000000000000000, -0.0000000000000000000, -0.0000000000000000000 ) ) ;
#230 = CIRCLE ( 'NONE', #75, 4.462500000000001200 ) ;
#231 = DIRECTION ( 'NONE',  ( 0.0000000000000000000, 1.000000000000000000, 0.0000000000000000000 ) ) ;
#232 = CARTESIAN_POINT ( 'NONE',  ( -43.44999999999999600, -5.423557072913811400E-015, 0.0000000000000000000 ) ) ;
#233 = LOCAL_TIME ( 10, 43, 21.00000000000000000, #276 ) ;
#234 = CARTESIAN_POINT ( 'NONE',  ( 0.0000000000000000000, 0.0000000000000000000, 0.0000000000000000000 ) ) ;
#235 =( NAMED_UNIT ( * ) SI_UNIT ( $, .STERADIAN. ) SOLID_ANGLE_UNIT ( ) );
#236 = MANIFOLD_SOLID_BREP ( 'È¸Àü4', #23 ) ;
#237 = APPROVAL_ROLE ( '' ) ;
#238 = LINE ( 'NONE', #181, #275 ) ;
#239 = APPROVAL_ROLE ( '' ) ;
#240 = CALENDAR_DATE ( 2023, 19, 5 ) ;
#241 = DIRECTION ( 'NONE',  ( 0.0000000000000000000, 1.000000000000000000, 0.0000000000000000000 ) ) ;
#242 = CIRCLE ( 'NONE', #97, 4.762500000000000200 ) ;
#243 = CC_DESIGN_APPROVAL ( #1, ( #4 ) ) ;
#244 = PERSON_AND_ORGANIZATION ( #24, #295 ) ;
#245 = CARTESIAN_POINT ( 'NONE',  ( -43.44999999999999600, 4.462499999999995900, 0.0000000000000000000 ) ) ;
#246 = CARTESIAN_POINT ( 'NONE',  ( 0.0000000000000000000, 0.0000000000000000000, 4.762500000000002000 ) ) ;
#247 = LINE ( 'NONE', #246, #7 ) ;
#248 = ADVANCED_FACE ( 'NONE', ( #263 ), #163, .T. ) ;
#249 = DIRECTION ( 'NONE',  ( 1.000000000000000000, 1.220147822927741600E-016, -0.0000000000000000000 ) ) ;
#250 = DIRECTION ( 'NONE',  ( 1.000000000000000000, 1.220147822927741600E-016, -0.0000000000000000000 ) ) ;
#251 = CARTESIAN_POINT ( 'NONE',  ( -43.44999999999999600, -4.462500000000006600, 5.648683361067168800E-016 ) ) ;
#252 = DIRECTION ( 'NONE',  ( 1.220147822927741600E-016, -1.000000000000000000, 0.0000000000000000000 ) ) ;
#253 = DATE_TIME_ROLE ( 'creation_date' ) ;
#254 = COORDINATED_UNIVERSAL_TIME_OFFSET ( 9, 0, .AHEAD. ) ;
#255 = SHAPE_DEFINITION_REPRESENTATION ( #209, #274 ) ;
#256 = DIRECTION ( 'NONE',  ( -1.000000000000000000, -1.220147822927741600E-016, 0.0000000000000000000 ) ) ;
#257 = LOCAL_TIME ( 10, 43, 21.00000000000000000, #313 ) ;
#258 = ORIENTED_EDGE ( 'NONE', *, *, #150, .T. ) ;
#259 = DIRECTION ( 'NONE',  ( 0.0000000000000000000, 1.000000000000000000, 0.0000000000000000000 ) ) ;
#260 = ADVANCED_FACE ( 'NONE', ( #15 ), #293, .T. ) ;
#261 = PLANE ( 'NONE',  #103 ) ;
#262 = CARTESIAN_POINT ( 'NONE',  ( 0.0000000000000000000, 0.0000000000000000000, 0.0000000000000000000 ) ) ;
#263 = FACE_OUTER_BOUND ( 'NONE', #73, .T. ) ;
#264 = CARTESIAN_POINT ( 'NONE',  ( 0.9999999999999993300, 4.762499999999999300, 0.0000000000000000000 ) ) ;
#265 = DIRECTION ( 'NONE',  ( -1.000000000000000000, -0.0000000000000000000, -0.0000000000000000000 ) ) ;
#266 = APPROVAL_DATE_TIME ( #8, #312 ) ;
#267 = DIRECTION ( 'NONE',  ( 1.000000000000000000, 1.220147822927741600E-016, -0.0000000000000000000 ) ) ;
#268 = DIRECTION ( 'NONE',  ( -1.365923996832131900E-016, 1.000000000000000000, 0.0000000000000000000 ) ) ;
#269 = FACE_OUTER_BOUND ( 'NONE', #42, .T. ) ;
#270 = CARTESIAN_POINT ( 'NONE',  ( 0.0000000000000000000, 0.0000000000000000000, 0.0000000000000000000 ) ) ;
#271 = APPROVAL_ROLE ( '' ) ;
#272 = CC_DESIGN_PERSON_AND_ORGANIZATION_ASSIGNMENT ( #34, #102, ( #4 ) ) ;
#273 = APPROVAL_PERSON_ORGANIZATION ( #21, #312, #271 ) ;
#274 = ADVANCED_BREP_SHAPE_REPRESENTATION ( '03-2059', ( #194, #236, #11 ), #29 ) ;
#275 = VECTOR ( 'NONE', #250, 1000.000000000000000 ) ;
#276 = COORDINATED_UNIVERSAL_TIME_OFFSET ( 9, 0, .AHEAD. ) ;
#277 = DIRECTION ( 'NONE',  ( -1.000000000000000000, -0.0000000000000000000, -0.0000000000000000000 ) ) ;
#278 = DIRECTION ( 'NONE',  ( -1.000000000000000000, -0.0000000000000000000, -0.0000000000000000000 ) ) ;
#279 = DIRECTION ( 'NONE',  ( 0.7071067811865517900, -0.7071067811865433500, 8.659560562354883600E-017 ) ) ;
#280 = ADVANCED_FACE ( 'NONE', ( #100 ), #74, .T. ) ;
#281 = LINE ( 'NONE', #285, #123 ) ;
#282 = ORIENTED_EDGE ( 'NONE', *, *, #142, .T. ) ;
#283 = CARTESIAN_POINT ( 'NONE',  ( 1.000000000000000400, 1.821231995776177200E-016, 0.0000000000000000000 ) ) ;
#284 = CARTESIAN_POINT ( 'NONE',  ( -43.14999999999999100, -5.386952638225978800E-015, 0.0000000000000000000 ) ) ;
#285 = CARTESIAN_POINT ( 'NONE',  ( -43.14999999999999100, 4.762499999999994000, 0.0000000000000000000 ) ) ;
#286 = DIRECTION ( 'NONE',  ( 0.0000000000000000000, 1.000000000000000000, 0.0000000000000000000 ) ) ;
#287 = LOCAL_TIME ( 10, 43, 21.00000000000000000, #40 ) ;
#288 = CC_DESIGN_DATE_AND_TIME_ASSIGNMENT ( #113, #253, ( #4 ) ) ;
#289 = DIRECTION ( 'NONE',  ( 0.0000000000000000000, 0.0000000000000000000, 1.000000000000000000 ) ) ;
#290 = DIRECTION ( 'NONE',  ( 1.000000000000000000, 1.220147822927741600E-016, -0.0000000000000000000 ) ) ;
#291 = CARTESIAN_POINT ( 'NONE',  ( 0.9999999999999993300, 4.762500000000000200, 0.0000000000000000000 ) ) ;
#292 = CIRCLE ( 'NONE', #98, 4.762500000000003700 ) ;
#293 = PLANE ( 'NONE',  #31 ) ;
#294 = CARTESIAN_POINT ( 'NONE',  ( -43.14999999999999100, 4.762499999999994000, 0.0000000000000000000 ) ) ;
#295 = ORGANIZATION ( 'UNSPECIFIED', 'UNSPECIFIED', '' ) ;
#296 = PERSON_AND_ORGANIZATION_ROLE ( 'design_supplier' ) ;
#297 = CIRCLE ( 'NONE', #107, 4.762500000000000200 ) ;
#298 = PRODUCT_DEFINITION_FORMATION_WITH_SPECIFIED_SOURCE ( 'ANY', '', #308, .NOT_KNOWN. ) ;
#299 = APPROVAL_DATE_TIME ( #70, #155 ) ;
#300 = CARTESIAN_POINT ( 'NONE',  ( 20.05000000000000100, 0.0000000000000000000, 0.0000000000000000000 ) ) ;
#301 = CARTESIAN_POINT ( 'NONE',  ( 1.000000000000000000, 0.0000000000000000000, 4.762500000000000200 ) ) ;
#302 = ORIENTED_EDGE ( 'NONE', *, *, #139, .F. ) ;
#303 = DIRECTION ( 'NONE',  ( 1.000000000000000000, 1.220147822927741600E-016, -0.0000000000000000000 ) ) ;
#304 = CARTESIAN_POINT ( 'NONE',  ( 0.9999999999999995600, -6.138646323317008000E-032, 0.0000000000000000000 ) ) ;
#305 = MECHANICAL_CONTEXT ( 'NONE', #219, 'mechanical' ) ;
#306 = VERTEX_POINT ( 'NONE', #294 ) ;
#307 = APPROVAL_PERSON_ORGANIZATION ( #81, #155, #237 ) ;
#308 = PRODUCT ( '03-2059', '03-2059', '', ( #305 ) ) ;
#309 = DESIGN_CONTEXT ( 'detailed design', #30, 'design' ) ;
#310 =( LENGTH_UNIT ( ) NAMED_UNIT ( * ) SI_UNIT ( .MILLI., .METRE. ) );
#311 = PERSON_AND_ORGANIZATION_ROLE ( 'classification_officer' ) ;
#312 = APPROVAL ( #136, 'UNSPECIFIED' ) ;
#313 = COORDINATED_UNIVERSAL_TIME_OFFSET ( 9, 0, .AHEAD. ) ;
ENDSEC;
END-ISO-10303-21;
