ISO-10303-21;
HEADER;
FILE_DESCRIPTION (( 'STEP AP203' ),
    '1' );
FILE_NAME ('03-2062.STEP',
    '2023-05-19T01:43:45',
    ( 'USER' ),
    ( 'Hewlett-Packard Company' ),
    'SwSTEP 2.0',
    'SolidWorks 2014',
    '' );
FILE_SCHEMA (( 'CONFIG_CONTROL_DESIGN' ));
ENDSEC;

DATA;
#1 = PRODUCT ( '03-2062', '03-2062', '', ( #164 ) ) ;
#2 = EDGE_CURVE ( 'NONE', #83, #354, #26, .T. ) ;
#3 = AXIS2_PLACEMENT_3D ( 'NONE', #379, #341, #366 ) ;
#4 = LINE ( 'NONE', #159, #180 ) ;
#5 = EDGE_LOOP ( 'NONE', ( #151, #265, #214, #8 ) ) ;
#6 = DIRECTION ( 'NONE',  ( 0.0000000000000000000, 1.000000000000000000, 0.0000000000000000000 ) ) ;
#7 = ORIENTED_EDGE ( 'NONE', *, *, #77, .T. ) ;
#8 = ORIENTED_EDGE ( 'NONE', *, *, #65, .F. ) ;
#9 = DESIGN_CONTEXT ( 'detailed design', #193, 'design' ) ;
#10 = EDGE_CURVE ( 'NONE', #354, #400, #202, .T. ) ;
#11 = EDGE_CURVE ( 'NONE', #181, #400, #118, .T. ) ;
#12 = CALENDAR_DATE ( 2023, 19, 5 ) ;
#13 = VECTOR ( 'NONE', #72, 1000.000000000000000 ) ;
#14 = EDGE_CURVE ( 'NONE', #96, #79, #351, .T. ) ;
#15 = DIRECTION ( 'NONE',  ( -1.138269997360109700E-016, 1.000000000000000000, 0.0000000000000000000 ) ) ;
#16 = EDGE_CURVE ( 'NONE', #83, #181, #188, .T. ) ;
#17 = DIRECTION ( 'NONE',  ( 0.0000000000000000000, 0.0000000000000000000, 1.000000000000000000 ) ) ;
#18 = ORIENTED_EDGE ( 'NONE', *, *, #56, .F. ) ;
#19 = DIRECTION ( 'NONE',  ( -1.214748705375726600E-016, 1.000000000000000000, 0.0000000000000000000 ) ) ;
#20 = AXIS2_PLACEMENT_3D ( 'NONE', #402, #134, #343 ) ;
#21 = CARTESIAN_POINT ( 'NONE',  ( 0.9999999999999991100, -1.023958198985823600E-031, 0.0000000000000000000 ) ) ;
#22 = DIRECTION ( 'NONE',  ( -1.000000000000000000, -1.214748705375726600E-016, 0.0000000000000000000 ) ) ;
#23 = ADVANCED_FACE ( 'NONE', ( #337 ), #326, .T. ) ;
#24 = DATE_AND_TIME ( #117, #201 ) ;
#25 = EDGE_CURVE ( 'NONE', #400, #181, #413, .T. ) ;
#26 = CIRCLE ( 'NONE', #94, 4.762500000000000200 ) ;
#27 = DIRECTION ( 'NONE',  ( 0.7071067811865493500, 0.7071067811865455700, 0.0000000000000000000 ) ) ;
#28 = ORIENTED_EDGE ( 'NONE', *, *, #50, .T. ) ;
#29 = ORIENTED_EDGE ( 'NONE', *, *, #10, .T. ) ;
#30 = DIRECTION ( 'NONE',  ( 0.0000000000000000000, 0.0000000000000000000, 1.000000000000000000 ) ) ;
#31 = EDGE_LOOP ( 'NONE', ( #68, #222, #258, #356 ) ) ;
#32 = ORIENTED_EDGE ( 'NONE', *, *, #358, .T. ) ;
#33 = CARTESIAN_POINT ( 'NONE',  ( 1.000000000000000000, 0.0000000000000000000, 5.556250000000000400 ) ) ;
#34 = PLANE ( 'NONE',  #324 ) ;
#35 = DIRECTION ( 'NONE',  ( 1.214748705375726600E-016, -1.000000000000000000, 0.0000000000000000000 ) ) ;
#36 =( NAMED_UNIT ( * ) PLANE_ANGLE_UNIT ( ) SI_UNIT ( $, .RADIAN. ) );
#37 = PLANE ( 'NONE',  #390 ) ;
#38 = APPROVAL_ROLE ( '' ) ;
#39 = EDGE_CURVE ( 'NONE', #181, #174, #112, .T. ) ;
#40 = FACE_OUTER_BOUND ( 'NONE', #148, .T. ) ;
#41 = EDGE_LOOP ( 'NONE', ( #300, #330 ) ) ;
#42 = AXIS2_PLACEMENT_3D ( 'NONE', #252, #305, #250 ) ;
#43 = VERTEX_POINT ( 'NONE', #140 ) ;
#44 = DIRECTION ( 'NONE',  ( 0.0000000000000000000, 1.000000000000000000, 0.0000000000000000000 ) ) ;
#45 = EDGE_CURVE ( 'NONE', #291, #174, #93, .T. ) ;
#46 = CARTESIAN_POINT ( 'NONE',  ( 0.7937499999999985100, -2.505419204837453600E-017, 0.0000000000000000000 ) ) ;
#47 = APPROVAL_DATE_TIME ( #126, #97 ) ;
#48 = CARTESIAN_POINT ( 'NONE',  ( 26.39999999999999900, 1.648475132176835400E-014, 0.0000000000000000000 ) ) ;
#49 = ORIENTED_EDGE ( 'NONE', *, *, #45, .T. ) ;
#50 = EDGE_CURVE ( 'NONE', #400, #291, #101, .T. ) ;
#51 = EDGE_LOOP ( 'NONE', ( #67, #32 ) ) ;
#52 = ORIENTED_EDGE ( 'NONE', *, *, #25, .T. ) ;
#53 = EDGE_CURVE ( 'NONE', #156, #79, #178, .T. ) ;
#54 = CIRCLE ( 'NONE', #66, 4.762500000000000200 ) ;
#55 = EDGE_LOOP ( 'NONE', ( #49, #232 ) ) ;
#56 = EDGE_CURVE ( 'NONE', #391, #354, #171, .T. ) ;
#57 = CC_DESIGN_PERSON_AND_ORGANIZATION_ASSIGNMENT ( #213, #371, ( #1 ) ) ;
#58 = APPROVAL_PERSON_ORGANIZATION ( #142, #97, #38 ) ;
#59 = VERTEX_POINT ( 'NONE', #239 ) ;
#60 = EDGE_CURVE ( 'NONE', #80, #59, #321, .T. ) ;
#61 = EDGE_CURVE ( 'NONE', #174, #291, #88, .T. ) ;
#62 = FACE_OUTER_BOUND ( 'NONE', #55, .T. ) ;
#63 = ORIENTED_EDGE ( 'NONE', *, *, #14, .F. ) ;
#64 = ORIENTED_EDGE ( 'NONE', *, *, #14, .T. ) ;
#65 = EDGE_CURVE ( 'NONE', #149, #391, #238, .T. ) ;
#66 = AXIS2_PLACEMENT_3D ( 'NONE', #408, #317, #280 ) ;
#67 = ORIENTED_EDGE ( 'NONE', *, *, #53, .T. ) ;
#68 = ORIENTED_EDGE ( 'NONE', *, *, #263, .F. ) ;
#69 = ADVANCED_FACE ( 'NONE', ( #387 ), #383, .T. ) ;
#70 = CARTESIAN_POINT ( 'NONE',  ( 1.000000000000000700, -5.556250000000000400, 6.804443777762482100E-016 ) ) ;
#71 = CARTESIAN_POINT ( 'NONE',  ( 6.505213034913026600E-016, -1.214748705375725800E-016, 0.0000000000000000000 ) ) ;
#72 = DIRECTION ( 'NONE',  ( -1.000000000000000000, -0.0000000000000000000, -0.0000000000000000000 ) ) ;
#73 = DIRECTION ( 'NONE',  ( -1.000000000000000000, -0.0000000000000000000, -0.0000000000000000000 ) ) ;
#74 = CARTESIAN_POINT ( 'NONE',  ( -41.56250000000000700, -4.762500000000004600, 5.832380380939273100E-016 ) ) ;
#75 = DIRECTION ( 'NONE',  ( 0.0000000000000000000, 0.0000000000000000000, -1.000000000000000000 ) ) ;
#76 = ADVANCED_BREP_SHAPE_REPRESENTATION ( '03-2062', ( #281, #144, #20 ), #348 ) ;
#77 = EDGE_CURVE ( 'NONE', #43, #156, #231, .T. ) ;
#78 = VECTOR ( 'NONE', #27, 1000.000000000000100 ) ;
#79 = VERTEX_POINT ( 'NONE', #285 ) ;
#80 = VERTEX_POINT ( 'NONE', #137 ) ;
#81 = DATE_TIME_ROLE ( 'creation_date' ) ;
#82 = CARTESIAN_POINT ( 'NONE',  ( 0.9999999999999985600, 5.556250000000000400, 0.0000000000000000000 ) ) ;
#83 = VERTEX_POINT ( 'NONE', #344 ) ;
#84 = PRODUCT_DEFINITION ( 'UNKNOWN', '', #176, #9 ) ;
#85 = DIRECTION ( 'NONE',  ( 1.000000000000000000, 1.214748705375726600E-016, -0.0000000000000000000 ) ) ;
#86 = DIRECTION ( 'NONE',  ( 1.000000000000000000, 1.214748705375726600E-016, -0.0000000000000000000 ) ) ;
#87 = CALENDAR_DATE ( 2023, 19, 5 ) ;
#88 = CIRCLE ( 'NONE', #233, 5.556250000000000400 ) ;
#89 = ORIENTED_EDGE ( 'NONE', *, *, #298, .F. ) ;
#90 = CLOSED_SHELL ( 'NONE', ( #304, #364, #394, #277 ) ) ;
#91 = ORIENTED_EDGE ( 'NONE', *, *, #25, .F. ) ;
#92 = DATE_AND_TIME ( #170, #248 ) ;
#93 = CIRCLE ( 'NONE', #132, 5.556250000000000400 ) ;
#94 = AXIS2_PLACEMENT_3D ( 'NONE', #155, #124, #15 ) ;
#95 = CONICAL_SURFACE ( 'NONE', #205, 5.556250000000000400, 0.7853981633974497200 ) ;
#96 = VERTEX_POINT ( 'NONE', #309 ) ;
#97 = APPROVAL ( #224, 'UNSPECIFIED' ) ;
#98 = DIRECTION ( 'NONE',  ( -1.365923996832131600E-016, 1.000000000000000000, 0.0000000000000000000 ) ) ;
#99 = ADVANCED_FACE ( 'NONE', ( #145 ), #292, .T. ) ;
#100 = PERSON_AND_ORGANIZATION ( #123, #295 ) ;
#101 = LINE ( 'NONE', #183, #398 ) ;
#102 = CARTESIAN_POINT ( 'NONE',  ( 1.325466052915690800E-015, -5.556250000000000400, 6.804443777762482100E-016 ) ) ;
#103 = DIRECTION ( 'NONE',  ( 1.000000000000000000, 1.214748705375726600E-016, -0.0000000000000000000 ) ) ;
#104 = CARTESIAN_POINT ( 'NONE',  ( 0.0000000000000000000, 0.0000000000000000000, 5.556250000000002100 ) ) ;
#105 = APPROVAL_ROLE ( '' ) ;
#106 = AXIS2_PLACEMENT_3D ( 'NONE', #228, #85, #130 ) ;
#107 = CIRCLE ( 'NONE', #301, 5.556250000000004800 ) ;
#108 = CARTESIAN_POINT ( 'NONE',  ( -41.86250000000001100, -5.206716638416709800E-015, 0.0000000000000000000 ) ) ;
#109 = ORIENTED_EDGE ( 'NONE', *, *, #298, .T. ) ;
#110 = DIRECTION ( 'NONE',  ( 1.000000000000000000, 1.214748705375726600E-016, -0.0000000000000000000 ) ) ;
#111 = LOCAL_TIME ( 10, 43, 45.00000000000000000, #186 ) ;
#112 = LINE ( 'NONE', #70, #249 ) ;
#113 = AXIS2_PLACEMENT_3D ( 'NONE', #125, #332, #365 ) ;
#114 = FACE_OUTER_BOUND ( 'NONE', #168, .T. ) ;
#115 = EDGE_LOOP ( 'NONE', ( #63, #207, #7, #196 ) ) ;
#116 = CC_DESIGN_APPROVAL ( #97, ( #84 ) ) ;
#117 = CALENDAR_DATE ( 2023, 19, 5 ) ;
#118 = CIRCLE ( 'NONE', #113, 5.556250000000000400 ) ;
#119 = DIRECTION ( 'NONE',  ( -0.0000000000000000000, 0.0000000000000000000, 1.000000000000000000 ) ) ;
#120 = CYLINDRICAL_SURFACE ( 'NONE', #106, 4.762500000000000200 ) ;
#121 = CLOSED_SHELL ( 'NONE', ( #333, #246, #338, #69, #158, #129, #185, #217, #23, #99 ) ) ;
#122 = AXIS2_PLACEMENT_3D ( 'NONE', #48, #327, #119 ) ;
#123 = PERSON ( 'UNSPECIFIED', 'UNSPECIFIED', 'UNSPECIFIED', ('UNSPECIFIED'), ('UNSPECIFIED'), ('UNSPECIFIED') ) ;
#124 = DIRECTION ( 'NONE',  ( 1.000000000000000000, 1.214748705375726600E-016, -0.0000000000000000000 ) ) ;
#125 = CARTESIAN_POINT ( 'NONE',  ( 6.505213034913026600E-016, -1.214748705375725800E-016, 0.0000000000000000000 ) ) ;
#126 = DATE_AND_TIME ( #206, #290 ) ;
#127 = ORIENTED_EDGE ( 'NONE', *, *, #263, .T. ) ;
#128 = DIRECTION ( 'NONE',  ( 1.000000000000000000, 1.214748705375726600E-016, -0.0000000000000000000 ) ) ;
#129 = ADVANCED_FACE ( 'NONE', ( #62 ), #223, .T. ) ;
#130 = DIRECTION ( 'NONE',  ( -1.365923996832131600E-016, 1.000000000000000000, 0.0000000000000000000 ) ) ;
#131 = CARTESIAN_POINT ( 'NONE',  ( -2.442344593308549100E-017, 5.556250000000000400, 0.0000000000000000000 ) ) ;
#132 = AXIS2_PLACEMENT_3D ( 'NONE', #21, #243, #328 ) ;
#133 = CARTESIAN_POINT ( 'NONE',  ( 0.9999999999999986700, 5.556250000000000400, 0.0000000000000000000 ) ) ;
#134 = DIRECTION ( 'NONE',  ( 0.0000000000000000000, 0.0000000000000000000, 1.000000000000000000 ) ) ;
#135 = CYLINDRICAL_SURFACE ( 'NONE', #42, 5.556250000000000400 ) ;
#136 = ORIENTED_EDGE ( 'NONE', *, *, #16, .T. ) ;
#137 = CARTESIAN_POINT ( 'NONE',  ( -41.86250000000001100, -4.462500000000005700, 5.648683361067167800E-016 ) ) ;
#138 = PERSON_AND_ORGANIZATION_ROLE ( 'design_supplier' ) ;
#139 = DIRECTION ( 'NONE',  ( 0.0000000000000000000, 1.000000000000000000, 0.0000000000000000000 ) ) ;
#140 = CARTESIAN_POINT ( 'NONE',  ( 26.39999999999999500, 0.0000000000000000000, 5.556250000000004800 ) ) ;
#141 = CC_DESIGN_PERSON_AND_ORGANIZATION_ASSIGNMENT ( #355, #256, ( #84 ) ) ;
#142 = PERSON_AND_ORGANIZATION ( #123, #295 ) ;
#143 = EDGE_LOOP ( 'NONE', ( #378, #29, #286, #302 ) ) ;
#144 = MANIFOLD_SOLID_BREP ( 'È¸Àü4', #121 ) ;
#145 = FACE_OUTER_BOUND ( 'NONE', #5, .T. ) ;
#146 = EDGE_LOOP ( 'NONE', ( #109, #127, #175, #18 ) ) ;
#147 = AXIS2_PLACEMENT_3D ( 'NONE', #380, #377, #411 ) ;
#148 = EDGE_LOOP ( 'NONE', ( #360, #385 ) ) ;
#149 = VERTEX_POINT ( 'NONE', #74 ) ;
#150 = VECTOR ( 'NONE', #312, 1000.000000000000000 ) ;
#151 = ORIENTED_EDGE ( 'NONE', *, *, #340, .F. ) ;
#152 = AXIS2_PLACEMENT_3D ( 'NONE', #349, #169, #19 ) ;
#153 = CARTESIAN_POINT ( 'NONE',  ( -41.56250000000000700, 4.762499999999994800, 0.0000000000000000000 ) ) ;
#154 = DIRECTION ( 'NONE',  ( 1.000000000000000000, 1.214748705375726600E-016, -0.0000000000000000000 ) ) ;
#155 = CARTESIAN_POINT ( 'NONE',  ( 0.7937499999999985100, -2.505419204837453600E-017, 0.0000000000000000000 ) ) ;
#156 = VERTEX_POINT ( 'NONE', #33 ) ;
#157 = CC_DESIGN_DATE_AND_TIME_ASSIGNMENT ( #24, #81, ( #84 ) ) ;
#158 = ADVANCED_FACE ( 'NONE', ( #308 ), #37, .T. ) ;
#159 = CARTESIAN_POINT ( 'NONE',  ( -41.56250000000000700, -4.762500000000005500, 5.832380380939270100E-016 ) ) ;
#160 = CARTESIAN_POINT ( 'NONE',  ( 1.000000000000000400, 1.561055996379580000E-016, 0.0000000000000000000 ) ) ;
#161 = LOCAL_TIME ( 10, 43, 45.00000000000000000, #237 ) ;
#162 = VECTOR ( 'NONE', #154, 1000.000000000000000 ) ;
#163 = CARTESIAN_POINT ( 'NONE',  ( 26.39999999999999500, 0.0000000000000000000, 0.0000000000000000000 ) ) ;
#164 = MECHANICAL_CONTEXT ( 'NONE', #310, 'mechanical' ) ;
#165 = DIRECTION ( 'NONE',  ( 1.000000000000000000, 1.214748705375726600E-016, -0.0000000000000000000 ) ) ;
#166 = PERSON_AND_ORGANIZATION_ROLE ( 'classification_officer' ) ;
#167 = AXIS2_PLACEMENT_3D ( 'NONE', #388, #86, #6 ) ;
#168 = EDGE_LOOP ( 'NONE', ( #370, #409, #89, #384 ) ) ;
#169 = DIRECTION ( 'NONE',  ( 1.000000000000000000, 1.214748705375726600E-016, -0.0000000000000000000 ) ) ;
#170 = CALENDAR_DATE ( 2023, 19, 5 ) ;
#171 = LINE ( 'NONE', #184, #162 ) ;
#172 = AXIS2_PLACEMENT_3D ( 'NONE', #395, #244, #98 ) ;
#173 = CIRCLE ( 'NONE', #226, 5.556250000000000400 ) ;
#174 = VERTEX_POINT ( 'NONE', #342 ) ;
#175 = ORIENTED_EDGE ( 'NONE', *, *, #236, .F. ) ;
#176 = PRODUCT_DEFINITION_FORMATION_WITH_SPECIFIED_SOURCE ( 'ANY', '', #1, .NOT_KNOWN. ) ;
#177 = PERSON_AND_ORGANIZATION ( #123, #295 ) ;
#178 = CIRCLE ( 'NONE', #191, 5.556250000000000400 ) ;
#179 = CARTESIAN_POINT ( 'NONE',  ( 0.0000000000000000000, 0.0000000000000000000, 0.0000000000000000000 ) ) ;
#180 = VECTOR ( 'NONE', #363, 1000.000000000000000 ) ;
#181 = VERTEX_POINT ( 'NONE', #102 ) ;
#182 = AXIS2_PLACEMENT_3D ( 'NONE', #179, #200, #227 ) ;
#183 = CARTESIAN_POINT ( 'NONE',  ( 0.9999999999999993300, 5.556250000000000400, 0.0000000000000000000 ) ) ;
#184 = CARTESIAN_POINT ( 'NONE',  ( 0.9999999999999993300, 4.762500000000000200, 0.0000000000000000000 ) ) ;
#185 = ADVANCED_FACE ( 'NONE', ( #210 ), #135, .T. ) ;
#186 = COORDINATED_UNIVERSAL_TIME_OFFSET ( 9, 0, .AHEAD. ) ;
#187 = DIRECTION ( 'NONE',  ( -1.000000000000000000, -0.0000000000000000000, -0.0000000000000000000 ) ) ;
#188 = LINE ( 'NONE', #272, #262 ) ;
#189 = CARTESIAN_POINT ( 'NONE',  ( 26.39999999999999500, 0.0000000000000000000, 0.0000000000000000000 ) ) ;
#190 = DIRECTION ( 'NONE',  ( 0.0000000000000000000, 0.0000000000000000000, 1.000000000000000000 ) ) ;
#191 = AXIS2_PLACEMENT_3D ( 'NONE', #392, #216, #17 ) ;
#192 = CARTESIAN_POINT ( 'NONE',  ( -41.56250000000000700, -5.170274177255437300E-015, 0.0000000000000000000 ) ) ;
#193 = APPLICATION_CONTEXT ( 'configuration controlled 3d designs of mechanical parts and assemblies' ) ;
#194 = FACE_OUTER_BOUND ( 'NONE', #143, .T. ) ;
#195 = CARTESIAN_POINT ( 'NONE',  ( 1.000000000000000000, 0.0000000000000000000, 0.0000000000000000000 ) ) ;
#196 = ORIENTED_EDGE ( 'NONE', *, *, #358, .F. ) ;
#197 = APPROVAL_STATUS ( 'not_yet_approved' ) ;
#198 = CARTESIAN_POINT ( 'NONE',  ( 1.000000000000000700, -4.762500000000000200, 5.832380380939270100E-016 ) ) ;
#199 = APPROVAL ( #287, 'UNSPECIFIED' ) ;
#200 = DIRECTION ( 'NONE',  ( -1.000000000000000000, -0.0000000000000000000, -0.0000000000000000000 ) ) ;
#201 = LOCAL_TIME ( 10, 43, 45.00000000000000000, #274 ) ;
#202 = LINE ( 'NONE', #331, #268 ) ;
#203 = CONICAL_SURFACE ( 'NONE', #3, 5.556250000000000400, 0.7853981633974497200 ) ;
#204 = ORIENTED_EDGE ( 'NONE', *, *, #61, .F. ) ;
#205 = AXIS2_PLACEMENT_3D ( 'NONE', #71, #22, #275 ) ;
#206 = CALENDAR_DATE ( 2023, 19, 5 ) ;
#207 = ORIENTED_EDGE ( 'NONE', *, *, #382, .T. ) ;
#208 = UNCERTAINTY_MEASURE_WITH_UNIT (LENGTH_MEASURE( 1.000000000000000100E-005 ), #307, 'distance_accuracy_value', 'NONE');
#209 = AXIS2_PLACEMENT_3D ( 'NONE', #108, #314, #139 ) ;
#210 = FACE_OUTER_BOUND ( 'NONE', #323, .T. ) ;
#211 = EDGE_LOOP ( 'NONE', ( #234, #64, #362, #270 ) ) ;
#212 = DIRECTION ( 'NONE',  ( 1.000000000000000000, 1.214748705375726600E-016, -0.0000000000000000000 ) ) ;
#213 = PERSON_AND_ORGANIZATION ( #123, #295 ) ;
#214 = ORIENTED_EDGE ( 'NONE', *, *, #279, .T. ) ;
#215 = CC_DESIGN_APPROVAL ( #199, ( #176 ) ) ;
#216 = DIRECTION ( 'NONE',  ( -1.000000000000000000, -0.0000000000000000000, -0.0000000000000000000 ) ) ;
#217 = ADVANCED_FACE ( 'NONE', ( #221 ), #203, .F. ) ;
#218 = DIRECTION ( 'NONE',  ( -0.7071067811865464600, -0.7071067811865486800, 0.0000000000000000000 ) ) ;
#219 = DIRECTION ( 'NONE',  ( 0.0000000000000000000, 0.0000000000000000000, 1.000000000000000000 ) ) ;
#220 = DIRECTION ( 'NONE',  ( -1.000000000000000000, -1.214748705375726600E-016, 0.0000000000000000000 ) ) ;
#221 = FACE_OUTER_BOUND ( 'NONE', #316, .T. ) ;
#222 = ORIENTED_EDGE ( 'NONE', *, *, #65, .T. ) ;
#223 = PLANE ( 'NONE',  #352 ) ;
#224 = APPROVAL_STATUS ( 'not_yet_approved' ) ;
#225 = DIRECTION ( 'NONE',  ( 1.000000000000000000, 1.214748705375726600E-016, -0.0000000000000000000 ) ) ;
#226 = AXIS2_PLACEMENT_3D ( 'NONE', #247, #73, #278 ) ;
#227 = DIRECTION ( 'NONE',  ( 0.0000000000000000000, 0.0000000000000000000, 1.000000000000000000 ) ) ;
#228 = CARTESIAN_POINT ( 'NONE',  ( 1.000000000000000000, 0.0000000000000000000, 0.0000000000000000000 ) ) ;
#229 = ORIENTED_EDGE ( 'NONE', *, *, #10, .F. ) ;
#230 = PLANE ( 'NONE',  #122 ) ;
#231 = LINE ( 'NONE', #104, #150 ) ;
#232 = ORIENTED_EDGE ( 'NONE', *, *, #61, .T. ) ;
#233 = AXIS2_PLACEMENT_3D ( 'NONE', #288, #165, #373 ) ;
#234 = ORIENTED_EDGE ( 'NONE', *, *, #399, .T. ) ;
#235 = CC_DESIGN_PERSON_AND_ORGANIZATION_ASSIGNMENT ( #177, #313, ( #176 ) ) ;
#236 = EDGE_CURVE ( 'NONE', #354, #83, #359, .T. ) ;
#237 = COORDINATED_UNIVERSAL_TIME_OFFSET ( 9, 0, .AHEAD. ) ;
#238 = CIRCLE ( 'NONE', #254, 4.762500000000000200 ) ;
#239 = CARTESIAN_POINT ( 'NONE',  ( -41.86250000000001100, 4.462499999999995000, 0.0000000000000000000 ) ) ;
#240 = CYLINDRICAL_SURFACE ( 'NONE', #289, 5.556250000000002100 ) ;
#241 = ORIENTED_EDGE ( 'NONE', *, *, #45, .F. ) ;
#242 = PRODUCT_DEFINITION_SHAPE ( 'NONE', 'NONE',  #84 ) ;
#243 = DIRECTION ( 'NONE',  ( 1.000000000000000000, 1.214748705375726600E-016, -0.0000000000000000000 ) ) ;
#244 = DIRECTION ( 'NONE',  ( 1.000000000000000000, 1.214748705375726600E-016, -0.0000000000000000000 ) ) ;
#245 = CARTESIAN_POINT ( 'NONE',  ( 0.0000000000000000000, 0.0000000000000000000, 0.0000000000000000000 ) ) ;
#246 = ADVANCED_FACE ( 'NONE', ( #299 ), #120, .T. ) ;
#247 = CARTESIAN_POINT ( 'NONE',  ( 1.000000000000000000, 0.0000000000000000000, 0.0000000000000000000 ) ) ;
#248 = LOCAL_TIME ( 10, 43, 45.00000000000000000, #325 ) ;
#249 = VECTOR ( 'NONE', #128, 1000.000000000000000 ) ;
#250 = DIRECTION ( 'NONE',  ( -1.170791997284684200E-016, 1.000000000000000000, 0.0000000000000000000 ) ) ;
#251 = DIRECTION ( 'NONE',  ( 1.000000000000000000, 0.0000000000000000000, 0.0000000000000000000 ) ) ;
#252 = CARTESIAN_POINT ( 'NONE',  ( 1.000000000000000000, 0.0000000000000000000, 0.0000000000000000000 ) ) ;
#253 =( NAMED_UNIT ( * ) SI_UNIT ( $, .STERADIAN. ) SOLID_ANGLE_UNIT ( ) );
#254 = AXIS2_PLACEMENT_3D ( 'NONE', #192, #403, #282 ) ;
#255 = DIRECTION ( 'NONE',  ( -1.214748705375726600E-016, 1.000000000000000000, 0.0000000000000000000 ) ) ;
#256 = PERSON_AND_ORGANIZATION_ROLE ( 'creator' ) ;
#257 = CONICAL_SURFACE ( 'NONE', #147, 4.762500000000000200, 0.7853981633974453900 ) ;
#258 = ORIENTED_EDGE ( 'NONE', *, *, #56, .T. ) ;
#259 = DIRECTION ( 'NONE',  ( 1.000000000000000000, 1.214748705375726600E-016, -0.0000000000000000000 ) ) ;
#260 = CC_DESIGN_PERSON_AND_ORGANIZATION_ASSIGNMENT ( #100, #138, ( #176 ) ) ;
#261 = APPROVAL_DATE_TIME ( #336, #199 ) ;
#262 = VECTOR ( 'NONE', #218, 1000.000000000000000 ) ;
#263 = EDGE_CURVE ( 'NONE', #149, #83, #368, .T. ) ;
#264 = CYLINDRICAL_SURFACE ( 'NONE', #182, 5.556250000000002100 ) ;
#265 = ORIENTED_EDGE ( 'NONE', *, *, #60, .T. ) ;
#266 = AXIS2_PLACEMENT_3D ( 'NONE', #189, #397, #219 ) ;
#267 = APPROVAL_PERSON_ORGANIZATION ( #350, #199, #105 ) ;
#268 = VECTOR ( 'NONE', #315, 1000.000000000000100 ) ;
#269 = LINE ( 'NONE', #153, #78 ) ;
#270 = ORIENTED_EDGE ( 'NONE', *, *, #77, .F. ) ;
#271 = DIRECTION ( 'NONE',  ( 1.000000000000000000, 1.214748705375726600E-016, -0.0000000000000000000 ) ) ;
#272 = CARTESIAN_POINT ( 'NONE',  ( 1.325466052915690800E-015, -5.556250000000000400, 0.0000000000000000000 ) ) ;
#273 = SECURITY_CLASSIFICATION ( '', '', #345 ) ;
#274 = COORDINATED_UNIVERSAL_TIME_OFFSET ( 9, 0, .AHEAD. ) ;
#275 = DIRECTION ( 'NONE',  ( 1.214748705375726600E-016, -1.000000000000000000, 0.0000000000000000000 ) ) ;
#276 = EDGE_LOOP ( 'NONE', ( #52, #293, #241, #389 ) ) ;
#277 = ADVANCED_FACE ( 'NONE', ( #40 ), #230, .F. ) ;
#278 = DIRECTION ( 'NONE',  ( 0.0000000000000000000, 0.0000000000000000000, 1.000000000000000000 ) ) ;
#279 = EDGE_CURVE ( 'NONE', #59, #391, #269, .T. ) ;
#280 = DIRECTION ( 'NONE',  ( 0.0000000000000000000, 1.000000000000000000, 0.0000000000000000000 ) ) ;
#281 = MANIFOLD_SOLID_BREP ( 'È¸Àü3', #90 ) ;
#282 = DIRECTION ( 'NONE',  ( 0.0000000000000000000, 1.000000000000000000, 0.0000000000000000000 ) ) ;
#283 = APPLICATION_PROTOCOL_DEFINITION ( 'international standard', 'config_control_design', 1994, #310 ) ;
#284 = VECTOR ( 'NONE', #110, 1000.000000000000000 ) ;
#285 = CARTESIAN_POINT ( 'NONE',  ( 1.000000000000000000, 6.804443777762483100E-016, -5.556250000000000400 ) ) ;
#286 = ORIENTED_EDGE ( 'NONE', *, *, #11, .F. ) ;
#287 = APPROVAL_STATUS ( 'not_yet_approved' ) ;
#288 = CARTESIAN_POINT ( 'NONE',  ( 0.9999999999999991100, -1.023958198985823600E-031, 0.0000000000000000000 ) ) ;
#289 = AXIS2_PLACEMENT_3D ( 'NONE', #245, #187, #30 ) ;
#290 = LOCAL_TIME ( 10, 43, 45.00000000000000000, #361 ) ;
#291 = VERTEX_POINT ( 'NONE', #82 ) ;
#292 = CONICAL_SURFACE ( 'NONE', #294, 4.762500000000000200, 0.7853981633974453900 ) ;
#293 = ORIENTED_EDGE ( 'NONE', *, *, #39, .T. ) ;
#294 = AXIS2_PLACEMENT_3D ( 'NONE', #405, #103, #44 ) ;
#295 = ORGANIZATION ( 'UNSPECIFIED', 'UNSPECIFIED', '' ) ;
#296 = ORIENTED_EDGE ( 'NONE', *, *, #11, .T. ) ;
#297 = CC_DESIGN_PERSON_AND_ORGANIZATION_ASSIGNMENT ( #412, #166, ( #273 ) ) ;
#298 = EDGE_CURVE ( 'NONE', #391, #149, #54, .T. ) ;
#299 = FACE_OUTER_BOUND ( 'NONE', #146, .T. ) ;
#300 = ORIENTED_EDGE ( 'NONE', *, *, #320, .F. ) ;
#301 = AXIS2_PLACEMENT_3D ( 'NONE', #163, #367, #190 ) ;
#302 = ORIENTED_EDGE ( 'NONE', *, *, #16, .F. ) ;
#303 = CARTESIAN_POINT ( 'NONE',  ( 0.0000000000000000000, 6.804443777762484100E-016, -5.556250000000002100 ) ) ;
#304 = ADVANCED_FACE ( 'NONE', ( #353 ), #264, .T. ) ;
#305 = DIRECTION ( 'NONE',  ( 1.000000000000000000, 1.214748705375726600E-016, -0.0000000000000000000 ) ) ;
#306 = APPROVAL_DATE_TIME ( #386, #334 ) ;
#307 =( LENGTH_UNIT ( ) NAMED_UNIT ( * ) SI_UNIT ( .MILLI., .METRE. ) );
#308 = FACE_OUTER_BOUND ( 'NONE', #41, .T. ) ;
#309 = CARTESIAN_POINT ( 'NONE',  ( 26.39999999999999500, 6.804443777762487100E-016, -5.556250000000004800 ) ) ;
#310 = APPLICATION_CONTEXT ( 'configuration controlled 3d designs of mechanical parts and assemblies' ) ;
#311 = AXIS2_PLACEMENT_3D ( 'NONE', #195, #271, #369 ) ;
#312 = DIRECTION ( 'NONE',  ( -1.000000000000000000, -0.0000000000000000000, -0.0000000000000000000 ) ) ;
#313 = PERSON_AND_ORGANIZATION_ROLE ( 'creator' ) ;
#314 = DIRECTION ( 'NONE',  ( 1.000000000000000000, 1.214748705375726600E-016, -0.0000000000000000000 ) ) ;
#315 = DIRECTION ( 'NONE',  ( -0.7071067811865465700, 0.7071067811865483500, 8.659560562354945200E-017 ) ) ;
#316 = EDGE_LOOP ( 'NONE', ( #229, #410, #136, #91 ) ) ;
#317 = DIRECTION ( 'NONE',  ( 1.000000000000000000, 1.214748705375726600E-016, -0.0000000000000000000 ) ) ;
#318 = CC_DESIGN_DATE_AND_TIME_ASSIGNMENT ( #92, #374, ( #273 ) ) ;
#319 = APPROVAL_PERSON_ORGANIZATION ( #396, #334, #406 ) ;
#320 = EDGE_CURVE ( 'NONE', #59, #80, #346, .T. ) ;
#321 = CIRCLE ( 'NONE', #209, 4.462500000000000400 ) ;
#322 = FACE_OUTER_BOUND ( 'NONE', #51, .T. ) ;
#323 = EDGE_LOOP ( 'NONE', ( #347, #296, #28, #204 ) ) ;
#324 = AXIS2_PLACEMENT_3D ( 'NONE', #160, #251, #75 ) ;
#325 = COORDINATED_UNIVERSAL_TIME_OFFSET ( 9, 0, .AHEAD. ) ;
#326 = CYLINDRICAL_SURFACE ( 'NONE', #172, 4.762500000000000200 ) ;
#327 = DIRECTION ( 'NONE',  ( -1.000000000000000000, 0.0000000000000000000, -0.0000000000000000000 ) ) ;
#328 = DIRECTION ( 'NONE',  ( -1.170791997284684200E-016, 1.000000000000000000, 0.0000000000000000000 ) ) ;
#329 = FACE_OUTER_BOUND ( 'NONE', #115, .T. ) ;
#330 = ORIENTED_EDGE ( 'NONE', *, *, #60, .F. ) ;
#331 = CARTESIAN_POINT ( 'NONE',  ( -2.442344593308549100E-017, 5.556250000000000400, 6.804443777762482100E-016 ) ) ;
#332 = DIRECTION ( 'NONE',  ( 1.000000000000000000, 1.214748705375726600E-016, -0.0000000000000000000 ) ) ;
#333 = ADVANCED_FACE ( 'NONE', ( #114 ), #257, .T. ) ;
#334 = APPROVAL ( #197, 'UNSPECIFIED' ) ;
#335 = CARTESIAN_POINT ( 'NONE',  ( 0.7937499999999980700, 4.762500000000000200, 6.318412079350875600E-016 ) ) ;
#336 = DATE_AND_TIME ( #12, #111 ) ;
#337 = FACE_OUTER_BOUND ( 'NONE', #31, .T. ) ;
#338 = ADVANCED_FACE ( 'NONE', ( #194 ), #95, .F. ) ;
#339 = CARTESIAN_POINT ( 'NONE',  ( -41.56250000000000700, 4.762499999999994800, 0.0000000000000000000 ) ) ;
#340 = EDGE_CURVE ( 'NONE', #80, #149, #4, .T. ) ;
#341 = DIRECTION ( 'NONE',  ( -1.000000000000000000, -1.214748705375726600E-016, 0.0000000000000000000 ) ) ;
#342 = CARTESIAN_POINT ( 'NONE',  ( 0.9999999999999997800, -5.556250000000000400, 6.804443777762482100E-016 ) ) ;
#343 = DIRECTION ( 'NONE',  ( 1.000000000000000000, 0.0000000000000000000, 0.0000000000000000000 ) ) ;
#344 = CARTESIAN_POINT ( 'NONE',  ( 0.7937499999999990700, -4.762500000000000200, 0.0000000000000000000 ) ) ;
#345 = SECURITY_CLASSIFICATION_LEVEL ( 'unclassified' ) ;
#346 = CIRCLE ( 'NONE', #167, 4.462500000000000400 ) ;
#347 = ORIENTED_EDGE ( 'NONE', *, *, #39, .F. ) ;
#348 =( GEOMETRIC_REPRESENTATION_CONTEXT ( 3 ) GLOBAL_UNCERTAINTY_ASSIGNED_CONTEXT ( ( #208 ) ) GLOBAL_UNIT_ASSIGNED_CONTEXT ( ( #307, #36, #253 ) ) REPRESENTATION_CONTEXT ( 'NONE', 'WORKASPACE' ) );
#349 = CARTESIAN_POINT ( 'NONE',  ( 6.505213034913026600E-016, -1.214748705375725800E-016, 0.0000000000000000000 ) ) ;
#350 = PERSON_AND_ORGANIZATION ( #123, #295 ) ;
#351 = LINE ( 'NONE', #303, #13 ) ;
#352 = AXIS2_PLACEMENT_3D ( 'NONE', #133, #225, #255 ) ;
#353 = FACE_OUTER_BOUND ( 'NONE', #211, .T. ) ;
#354 = VERTEX_POINT ( 'NONE', #335 ) ;
#355 = PERSON_AND_ORGANIZATION ( #123, #295 ) ;
#356 = ORIENTED_EDGE ( 'NONE', *, *, #2, .F. ) ;
#357 = CC_DESIGN_APPROVAL ( #334, ( #273 ) ) ;
#358 = EDGE_CURVE ( 'NONE', #79, #156, #173, .T. ) ;
#359 = CIRCLE ( 'NONE', #372, 4.762500000000000200 ) ;
#360 = ORIENTED_EDGE ( 'NONE', *, *, #399, .F. ) ;
#361 = COORDINATED_UNIVERSAL_TIME_OFFSET ( 9, 0, .AHEAD. ) ;
#362 = ORIENTED_EDGE ( 'NONE', *, *, #53, .F. ) ;
#363 = DIRECTION ( 'NONE',  ( 0.7071067811865496800, -0.7071067811865453500, 8.659560562354908200E-017 ) ) ;
#364 = ADVANCED_FACE ( 'NONE', ( #329 ), #240, .T. ) ;
#365 = DIRECTION ( 'NONE',  ( -1.214748705375726600E-016, 1.000000000000000000, 0.0000000000000000000 ) ) ;
#366 = DIRECTION ( 'NONE',  ( 1.214748705375726600E-016, -1.000000000000000000, 0.0000000000000000000 ) ) ;
#367 = DIRECTION ( 'NONE',  ( -1.000000000000000000, -0.0000000000000000000, -0.0000000000000000000 ) ) ;
#368 = LINE ( 'NONE', #198, #284 ) ;
#369 = DIRECTION ( 'NONE',  ( -1.170791997284684200E-016, 1.000000000000000000, 0.0000000000000000000 ) ) ;
#370 = ORIENTED_EDGE ( 'NONE', *, *, #320, .T. ) ;
#371 = PERSON_AND_ORGANIZATION_ROLE ( 'design_owner' ) ;
#372 = AXIS2_PLACEMENT_3D ( 'NONE', #46, #259, #375 ) ;
#373 = DIRECTION ( 'NONE',  ( -1.170791997284684200E-016, 1.000000000000000000, 0.0000000000000000000 ) ) ;
#374 = DATE_TIME_ROLE ( 'classification_date' ) ;
#375 = DIRECTION ( 'NONE',  ( -1.138269997360109700E-016, 1.000000000000000000, 0.0000000000000000000 ) ) ;
#376 = SHAPE_DEFINITION_REPRESENTATION ( #242, #76 ) ;
#377 = DIRECTION ( 'NONE',  ( 1.000000000000000000, 1.214748705375726600E-016, -0.0000000000000000000 ) ) ;
#378 = ORIENTED_EDGE ( 'NONE', *, *, #2, .T. ) ;
#379 = CARTESIAN_POINT ( 'NONE',  ( 6.505213034913026600E-016, -1.214748705375725800E-016, 0.0000000000000000000 ) ) ;
#380 = CARTESIAN_POINT ( 'NONE',  ( -41.56250000000000700, -5.170274177255437300E-015, 0.0000000000000000000 ) ) ;
#381 = CC_DESIGN_SECURITY_CLASSIFICATION ( #273, ( #176 ) ) ;
#382 = EDGE_CURVE ( 'NONE', #96, #43, #407, .T. ) ;
#383 = CYLINDRICAL_SURFACE ( 'NONE', #311, 5.556250000000000400 ) ;
#384 = ORIENTED_EDGE ( 'NONE', *, *, #279, .F. ) ;
#385 = ORIENTED_EDGE ( 'NONE', *, *, #382, .F. ) ;
#386 = DATE_AND_TIME ( #87, #161 ) ;
#387 = FACE_OUTER_BOUND ( 'NONE', #276, .T. ) ;
#388 = CARTESIAN_POINT ( 'NONE',  ( -41.86250000000001100, -5.206716638416709800E-015, 0.0000000000000000000 ) ) ;
#389 = ORIENTED_EDGE ( 'NONE', *, *, #50, .F. ) ;
#390 = AXIS2_PLACEMENT_3D ( 'NONE', #401, #220, #35 ) ;
#391 = VERTEX_POINT ( 'NONE', #339 ) ;
#392 = CARTESIAN_POINT ( 'NONE',  ( 1.000000000000000000, 0.0000000000000000000, 0.0000000000000000000 ) ) ;
#393 = PRODUCT_RELATED_PRODUCT_CATEGORY ( 'detail', '', ( #1 ) ) ;
#394 = ADVANCED_FACE ( 'NONE', ( #322 ), #34, .F. ) ;
#395 = CARTESIAN_POINT ( 'NONE',  ( 1.000000000000000000, 0.0000000000000000000, 0.0000000000000000000 ) ) ;
#396 = PERSON_AND_ORGANIZATION ( #123, #295 ) ;
#397 = DIRECTION ( 'NONE',  ( -1.000000000000000000, -0.0000000000000000000, -0.0000000000000000000 ) ) ;
#398 = VECTOR ( 'NONE', #212, 1000.000000000000000 ) ;
#399 = EDGE_CURVE ( 'NONE', #43, #96, #107, .T. ) ;
#400 = VERTEX_POINT ( 'NONE', #131 ) ;
#401 = CARTESIAN_POINT ( 'NONE',  ( -41.86250000000001100, -5.206716638416709800E-015, 0.0000000000000000000 ) ) ;
#402 = CARTESIAN_POINT ( 'NONE',  ( 0.0000000000000000000, 0.0000000000000000000, 0.0000000000000000000 ) ) ;
#403 = DIRECTION ( 'NONE',  ( 1.000000000000000000, 1.214748705375726600E-016, -0.0000000000000000000 ) ) ;
#404 = APPLICATION_PROTOCOL_DEFINITION ( 'international standard', 'config_control_design', 1994, #193 ) ;
#405 = CARTESIAN_POINT ( 'NONE',  ( -41.56250000000000700, -5.170274177255437300E-015, 0.0000000000000000000 ) ) ;
#406 = APPROVAL_ROLE ( '' ) ;
#407 = CIRCLE ( 'NONE', #266, 5.556250000000004800 ) ;
#408 = CARTESIAN_POINT ( 'NONE',  ( -41.56250000000000700, -5.170274177255437300E-015, 0.0000000000000000000 ) ) ;
#409 = ORIENTED_EDGE ( 'NONE', *, *, #340, .T. ) ;
#410 = ORIENTED_EDGE ( 'NONE', *, *, #236, .T. ) ;
#411 = DIRECTION ( 'NONE',  ( 0.0000000000000000000, 1.000000000000000000, 0.0000000000000000000 ) ) ;
#412 = PERSON_AND_ORGANIZATION ( #123, #295 ) ;
#413 = CIRCLE ( 'NONE', #152, 5.556250000000000400 ) ;
ENDSEC;
END-ISO-10303-21;
