ISO-10303-21;
HEADER;
FILE_DESCRIPTION (( 'STEP AP203' ),
    '1' );
FILE_NAME ('03-2065.STEP',
    '2023-05-19T01:51:33',
    ( 'USER' ),
    ( 'Hewlett-Packard Company' ),
    'SwSTEP 2.0',
    'SolidWorks 2014',
    '' );
FILE_SCHEMA (( 'CONFIG_CONTROL_DESIGN' ));
ENDSEC;

DATA;
#1 = CALENDAR_DATE ( 2023, 19, 5 ) ;
#2 = DIRECTION ( 'NONE',  ( 1.000000000000000000, 1.185013438539535600E-016, -0.0000000000000000000 ) ) ;
#3 = EDGE_LOOP ( 'NONE', ( #222, #69 ) ) ;
#4 = DIRECTION ( 'NONE',  ( -1.000000000000000000, -0.0000000000000000000, -0.0000000000000000000 ) ) ;
#5 =( NAMED_UNIT ( * ) PLANE_ANGLE_UNIT ( ) SI_UNIT ( $, .RADIAN. ) );
#6 = DIRECTION ( 'NONE',  ( -1.024442997624098700E-016, 1.000000000000000000, 0.0000000000000000000 ) ) ;
#7 = CALENDAR_DATE ( 2023, 19, 5 ) ;
#8 = APPROVAL_ROLE ( '' ) ;
#9 = ADVANCED_BREP_SHAPE_REPRESENTATION ( '03-2065', ( #64, #256, #205 ), #142 ) ;
#10 = CARTESIAN_POINT ( 'NONE',  ( 0.0000000000000000000, 7.776507174585696100E-016, -6.350000000000003200 ) ) ;
#11 = CIRCLE ( 'NONE', #278, 6.349999999999999600 ) ;
#12 = AXIS2_PLACEMENT_3D ( 'NONE', #42, #27, #191 ) ;
#13 = ORIENTED_EDGE ( 'NONE', *, *, #279, .T. ) ;
#14 = PERSON_AND_ORGANIZATION ( #312, #77 ) ;
#15 = ORIENTED_EDGE ( 'NONE', *, *, #46, .T. ) ;
#16 = PERSON_AND_ORGANIZATION ( #312, #77 ) ;
#17 = EDGE_CURVE ( 'NONE', #144, #30, #156, .T. ) ;
#18 = CC_DESIGN_PERSON_AND_ORGANIZATION_ASSIGNMENT ( #200, #107, ( #307 ) ) ;
#19 = DIRECTION ( 'NONE',  ( 1.000000000000000000, 0.0000000000000000000, 0.0000000000000000000 ) ) ;
#20 = LINE ( 'NONE', #28, #136 ) ;
#21 = CARTESIAN_POINT ( 'NONE',  ( -49.49999999999999300, -6.350000000000005900, 7.776507174585696100E-016 ) ) ;
#22 = COORDINATED_UNIVERSAL_TIME_OFFSET ( 9, 0, .AHEAD. ) ;
#23 = ADVANCED_FACE ( 'NONE', ( #281 ), #67, .F. ) ;
#24 = FACE_OUTER_BOUND ( 'NONE', #45, .T. ) ;
#25 = AXIS2_PLACEMENT_3D ( 'NONE', #249, #276, #134 ) ;
#26 = PRODUCT ( '03-2065', '03-2065', '', ( #105 ) ) ;
#27 = DIRECTION ( 'NONE',  ( -1.000000000000000000, -0.0000000000000000000, -0.0000000000000000000 ) ) ;
#28 = CARTESIAN_POINT ( 'NONE',  ( 1.000000000000000700, -6.349999999999999600, 7.776507174585692200E-016 ) ) ;
#29 = CARTESIAN_POINT ( 'NONE',  ( -49.49999999999999300, 6.349999999999994300, 0.0000000000000000000 ) ) ;
#30 = VERTEX_POINT ( 'NONE', #21 ) ;
#31 = ORIENTED_EDGE ( 'NONE', *, *, #306, .F. ) ;
#32 = EDGE_CURVE ( 'NONE', #110, #144, #208, .T. ) ;
#33 = DIRECTION ( 'NONE',  ( -1.000000000000000000, -0.0000000000000000000, -0.0000000000000000000 ) ) ;
#34 = CC_DESIGN_DATE_AND_TIME_ASSIGNMENT ( #257, #277, ( #307 ) ) ;
#35 = DATE_TIME_ROLE ( 'creation_date' ) ;
#36 = FACE_OUTER_BOUND ( 'NONE', #229, .T. ) ;
#37 = ORIENTED_EDGE ( 'NONE', *, *, #198, .F. ) ;
#38 = ORIENTED_EDGE ( 'NONE', *, *, #306, .T. ) ;
#39 = ORIENTED_EDGE ( 'NONE', *, *, #163, .T. ) ;
#40 = CARTESIAN_POINT ( 'NONE',  ( 1.000000000000000400, 1.365923996832132800E-016, 0.0000000000000000000 ) ) ;
#41 = AXIS2_PLACEMENT_3D ( 'NONE', #50, #217, #76 ) ;
#42 = CARTESIAN_POINT ( 'NONE',  ( 1.000000000000000000, 0.0000000000000000000, 0.0000000000000000000 ) ) ;
#43 = CIRCLE ( 'NONE', #73, 6.350000000000005900 ) ;
#44 = ORIENTED_EDGE ( 'NONE', *, *, #179, .F. ) ;
#45 = EDGE_LOOP ( 'NONE', ( #13, #236, #165, #301 ) ) ;
#46 = EDGE_CURVE ( 'NONE', #283, #30, #275, .T. ) ;
#47 = APPROVAL ( #135, 'UNSPECIFIED' ) ;
#48 = FACE_OUTER_BOUND ( 'NONE', #185, .T. ) ;
#49 = CARTESIAN_POINT ( 'NONE',  ( 0.0000000000000000000, 0.0000000000000000000, 0.0000000000000000000 ) ) ;
#50 = CARTESIAN_POINT ( 'NONE',  ( -49.49999999999999300, -5.984317864624654200E-015, 0.0000000000000000000 ) ) ;
#51 = CARTESIAN_POINT ( 'NONE',  ( 32.75000000000000000, 7.776507174585700100E-016, -6.350000000000005900 ) ) ;
#52 = CARTESIAN_POINT ( 'NONE',  ( -49.49999999999999300, -5.984317864624654200E-015, 0.0000000000000000000 ) ) ;
#53 = CARTESIAN_POINT ( 'NONE',  ( 32.75000000000000000, 0.0000000000000000000, 0.0000000000000000000 ) ) ;
#54 = APPROVAL_PERSON_ORGANIZATION ( #117, #247, #58 ) ;
#55 = DIRECTION ( 'NONE',  ( -1.000000000000000000, -0.0000000000000000000, -0.0000000000000000000 ) ) ;
#56 = ORIENTED_EDGE ( 'NONE', *, *, #118, .F. ) ;
#57 = DIRECTION ( 'NONE',  ( 1.000000000000000000, 1.185013438539535600E-016, -0.0000000000000000000 ) ) ;
#58 = APPROVAL_ROLE ( '' ) ;
#59 = CIRCLE ( 'NONE', #237, 6.050000000000000700 ) ;
#60 = AXIS2_PLACEMENT_3D ( 'NONE', #52, #101, #270 ) ;
#61 = COORDINATED_UNIVERSAL_TIME_OFFSET ( 9, 0, .AHEAD. ) ;
#62 = EDGE_LOOP ( 'NONE', ( #298, #99, #244, #31 ) ) ;
#63 = COORDINATED_UNIVERSAL_TIME_OFFSET ( 9, 0, .AHEAD. ) ;
#64 = MANIFOLD_SOLID_BREP ( 'È¸Àü3', #195 ) ;
#65 = CC_DESIGN_APPROVAL ( #47, ( #307 ) ) ;
#66 = FACE_OUTER_BOUND ( 'NONE', #3, .T. ) ;
#67 = PLANE ( 'NONE',  #96 ) ;
#68 = LOCAL_TIME ( 10, 51, 33.00000000000000000, #137 ) ;
#69 = ORIENTED_EDGE ( 'NONE', *, *, #294, .F. ) ;
#70 = LOCAL_TIME ( 10, 51, 33.00000000000000000, #140 ) ;
#71 = VECTOR ( 'NONE', #287, 1000.000000000000100 ) ;
#72 = VERTEX_POINT ( 'NONE', #265 ) ;
#73 = AXIS2_PLACEMENT_3D ( 'NONE', #219, #81, #241 ) ;
#74 = DIRECTION ( 'NONE',  ( 1.000000000000000000, 1.185013438539535600E-016, -0.0000000000000000000 ) ) ;
#75 = CARTESIAN_POINT ( 'NONE',  ( -49.49999999999999300, 6.349999999999994300, 0.0000000000000000000 ) ) ;
#76 = DIRECTION ( 'NONE',  ( 0.0000000000000000000, 1.000000000000000000, 0.0000000000000000000 ) ) ;
#77 = ORGANIZATION ( 'UNSPECIFIED', 'UNSPECIFIED', '' ) ;
#78 = ADVANCED_FACE ( 'NONE', ( #24 ), #264, .T. ) ;
#79 = DIRECTION ( 'NONE',  ( 1.000000000000000000, 1.185013438539535600E-016, -0.0000000000000000000 ) ) ;
#80 = ADVANCED_FACE ( 'NONE', ( #90 ), #141, .T. ) ;
#81 = DIRECTION ( 'NONE',  ( -1.000000000000000000, -0.0000000000000000000, -0.0000000000000000000 ) ) ;
#82 = DIRECTION ( 'NONE',  ( -1.000000000000000000, 0.0000000000000000000, -0.0000000000000000000 ) ) ;
#83 =( LENGTH_UNIT ( ) NAMED_UNIT ( * ) SI_UNIT ( .MILLI., .METRE. ) );
#84 = CARTESIAN_POINT ( 'NONE',  ( -49.79999999999999700, -6.019868267780840500E-015, 0.0000000000000000000 ) ) ;
#85 = APPROVAL_DATE_TIME ( #145, #247 ) ;
#86 = DIRECTION ( 'NONE',  ( 0.0000000000000000000, 0.0000000000000000000, 1.000000000000000000 ) ) ;
#87 = AXIS2_PLACEMENT_3D ( 'NONE', #213, #74, #239 ) ;
#88 = PLANE ( 'NONE',  #25 ) ;
#89 = CC_DESIGN_SECURITY_CLASSIFICATION ( #307, ( #230 ) ) ;
#90 = FACE_OUTER_BOUND ( 'NONE', #224, .T. ) ;
#91 = PERSON_AND_ORGANIZATION_ROLE ( 'design_supplier' ) ;
#92 = VECTOR ( 'NONE', #207, 1000.000000000000000 ) ;
#93 = AXIS2_PLACEMENT_3D ( 'NONE', #126, #100, #289 ) ;
#94 = ORIENTED_EDGE ( 'NONE', *, *, #139, .F. ) ;
#95 = ORIENTED_EDGE ( 'NONE', *, *, #153, .F. ) ;
#96 = AXIS2_PLACEMENT_3D ( 'NONE', #40, #19, #115 ) ;
#97 = PRODUCT_RELATED_PRODUCT_CATEGORY ( 'detail', '', ( #26 ) ) ;
#98 = DIRECTION ( 'NONE',  ( -1.024442997624098700E-016, 1.000000000000000000, 0.0000000000000000000 ) ) ;
#99 = ORIENTED_EDGE ( 'NONE', *, *, #294, .T. ) ;
#100 = DIRECTION ( 'NONE',  ( 1.000000000000000000, 1.185013438539535600E-016, -0.0000000000000000000 ) ) ;
#101 = DIRECTION ( 'NONE',  ( 1.000000000000000000, 1.185013438539535600E-016, -0.0000000000000000000 ) ) ;
#102 = CARTESIAN_POINT ( 'NONE',  ( 0.0000000000000000000, 0.0000000000000000000, 0.0000000000000000000 ) ) ;
#103 = DIRECTION ( 'NONE',  ( 0.0000000000000000000, 1.000000000000000000, 0.0000000000000000000 ) ) ;
#104 = ORIENTED_EDGE ( 'NONE', *, *, #32, .F. ) ;
#105 = MECHANICAL_CONTEXT ( 'NONE', #223, 'mechanical' ) ;
#106 = ORIENTED_EDGE ( 'NONE', *, *, #17, .T. ) ;
#107 = PERSON_AND_ORGANIZATION_ROLE ( 'classification_officer' ) ;
#108 = AXIS2_PLACEMENT_3D ( 'NONE', #197, #55, #221 ) ;
#109 = CYLINDRICAL_SURFACE ( 'NONE', #93, 6.349999999999999600 ) ;
#110 = VERTEX_POINT ( 'NONE', #240 ) ;
#111 = ORIENTED_EDGE ( 'NONE', *, *, #179, .T. ) ;
#112 = AXIS2_PLACEMENT_3D ( 'NONE', #125, #286, #148 ) ;
#113 = VECTOR ( 'NONE', #4, 1000.000000000000000 ) ;
#114 = CARTESIAN_POINT ( 'NONE',  ( -49.49999999999999300, -6.350000000000006800, 7.776507174585693100E-016 ) ) ;
#115 = DIRECTION ( 'NONE',  ( 0.0000000000000000000, 0.0000000000000000000, -1.000000000000000000 ) ) ;
#116 = PRODUCT_DEFINITION_SHAPE ( 'NONE', 'NONE',  #233 ) ;
#117 = PERSON_AND_ORGANIZATION ( #312, #77 ) ;
#118 = EDGE_CURVE ( 'NONE', #110, #283, #211, .T. ) ;
#119 = EDGE_LOOP ( 'NONE', ( #184, #38 ) ) ;
#120 = UNCERTAINTY_MEASURE_WITH_UNIT (LENGTH_MEASURE( 1.000000000000000100E-005 ), #83, 'distance_accuracy_value', 'NONE');
#121 = ADVANCED_FACE ( 'NONE', ( #204 ), #188, .T. ) ;
#122 = APPROVAL_DATE_TIME ( #181, #47 ) ;
#123 = LINE ( 'NONE', #173, #176 ) ;
#124 = AXIS2_PLACEMENT_3D ( 'NONE', #273, #130, #292 ) ;
#125 = CARTESIAN_POINT ( 'NONE',  ( -49.49999999999999300, -5.984317864624654200E-015, 0.0000000000000000000 ) ) ;
#126 = CARTESIAN_POINT ( 'NONE',  ( 1.000000000000000000, 0.0000000000000000000, 0.0000000000000000000 ) ) ;
#127 = PERSON_AND_ORGANIZATION ( #312, #77 ) ;
#128 = ORIENTED_EDGE ( 'NONE', *, *, #209, .F. ) ;
#129 = CARTESIAN_POINT ( 'NONE',  ( 0.9999999999999985600, 6.349999999999999600, 0.0000000000000000000 ) ) ;
#130 = DIRECTION ( 'NONE',  ( -1.000000000000000000, -0.0000000000000000000, -0.0000000000000000000 ) ) ;
#131 = ORIENTED_EDGE ( 'NONE', *, *, #153, .T. ) ;
#132 = APPROVAL_PERSON_ORGANIZATION ( #186, #47, #299 ) ;
#133 = APPLICATION_CONTEXT ( 'configuration controlled 3d designs of mechanical parts and assemblies' ) ;
#134 = DIRECTION ( 'NONE',  ( -1.185013438539535600E-016, 1.000000000000000000, 0.0000000000000000000 ) ) ;
#135 = APPROVAL_STATUS ( 'not_yet_approved' ) ;
#136 = VECTOR ( 'NONE', #79, 1000.000000000000000 ) ;
#137 = COORDINATED_UNIVERSAL_TIME_OFFSET ( 9, 0, .AHEAD. ) ;
#138 = VERTEX_POINT ( 'NONE', #51 ) ;
#139 = EDGE_CURVE ( 'NONE', #30, #72, #20, .T. ) ;
#140 = COORDINATED_UNIVERSAL_TIME_OFFSET ( 9, 0, .AHEAD. ) ;
#141 = CYLINDRICAL_SURFACE ( 'NONE', #175, 6.349999999999999600 ) ;
#142 =( GEOMETRIC_REPRESENTATION_CONTEXT ( 3 ) GLOBAL_UNCERTAINTY_ASSIGNED_CONTEXT ( ( #120 ) ) GLOBAL_UNIT_ASSIGNED_CONTEXT ( ( #83, #5, #171 ) ) REPRESENTATION_CONTEXT ( 'NONE', 'WORKASPACE' ) );
#143 = SHAPE_DEFINITION_REPRESENTATION ( #116, #9 ) ;
#144 = VERTEX_POINT ( 'NONE', #218 ) ;
#145 = DATE_AND_TIME ( #206, #272 ) ;
#146 = CIRCLE ( 'NONE', #147, 6.349999999999999600 ) ;
#147 = AXIS2_PLACEMENT_3D ( 'NONE', #151, #2, #168 ) ;
#148 = DIRECTION ( 'NONE',  ( 0.0000000000000000000, 1.000000000000000000, 0.0000000000000000000 ) ) ;
#149 = APPROVAL ( #157, 'UNSPECIFIED' ) ;
#150 = DIRECTION ( 'NONE',  ( 0.0000000000000000000, 0.0000000000000000000, 1.000000000000000000 ) ) ;
#151 = CARTESIAN_POINT ( 'NONE',  ( 0.9999999999999991100, -9.070087028399636700E-032, 0.0000000000000000000 ) ) ;
#152 = CARTESIAN_POINT ( 'NONE',  ( 1.000000000000000000, 0.0000000000000000000, 6.349999999999999600 ) ) ;
#153 = EDGE_CURVE ( 'NONE', #170, #72, #146, .T. ) ;
#154 = DIRECTION ( 'NONE',  ( 1.185013438539535600E-016, -1.000000000000000000, 0.0000000000000000000 ) ) ;
#155 = DIRECTION ( 'NONE',  ( 1.000000000000000000, 1.185013438539535600E-016, -0.0000000000000000000 ) ) ;
#156 = LINE ( 'NONE', #114, #92 ) ;
#157 = APPROVAL_STATUS ( 'not_yet_approved' ) ;
#158 = CONICAL_SURFACE ( 'NONE', #60, 6.350000000000000500, 0.7853981633974453900 ) ;
#159 = CLOSED_SHELL ( 'NONE', ( #288, #269, #169, #231, #80, #267 ) ) ;
#160 = VERTEX_POINT ( 'NONE', #192 ) ;
#161 = AXIS2_PLACEMENT_3D ( 'NONE', #311, #313, #166 ) ;
#162 = CONICAL_SURFACE ( 'NONE', #41, 6.350000000000000500, 0.7853981633974453900 ) ;
#163 = EDGE_CURVE ( 'NONE', #283, #170, #309, .T. ) ;
#164 = EDGE_LOOP ( 'NONE', ( #178, #111, #234, #128 ) ) ;
#165 = ORIENTED_EDGE ( 'NONE', *, *, #261, .F. ) ;
#166 = DIRECTION ( 'NONE',  ( 0.0000000000000000000, 0.0000000000000000000, 1.000000000000000000 ) ) ;
#167 = ADVANCED_FACE ( 'NONE', ( #66 ), #220, .F. ) ;
#168 = DIRECTION ( 'NONE',  ( -1.024442997624098700E-016, 1.000000000000000000, 0.0000000000000000000 ) ) ;
#169 = ADVANCED_FACE ( 'NONE', ( #182 ), #271, .T. ) ;
#170 = VERTEX_POINT ( 'NONE', #129 ) ;
#171 =( NAMED_UNIT ( * ) SI_UNIT ( $, .STERADIAN. ) SOLID_ANGLE_UNIT ( ) );
#172 = EDGE_LOOP ( 'NONE', ( #131, #189 ) ) ;
#173 = CARTESIAN_POINT ( 'NONE',  ( 0.0000000000000000000, 0.0000000000000000000, 6.350000000000003200 ) ) ;
#174 = PERSON_AND_ORGANIZATION_ROLE ( 'creator' ) ;
#175 = AXIS2_PLACEMENT_3D ( 'NONE', #216, #190, #98 ) ;
#176 = VECTOR ( 'NONE', #33, 1000.000000000000000 ) ;
#177 = DATE_AND_TIME ( #242, #304 ) ;
#178 = ORIENTED_EDGE ( 'NONE', *, *, #17, .F. ) ;
#179 = EDGE_CURVE ( 'NONE', #144, #110, #59, .T. ) ;
#180 = CC_DESIGN_APPROVAL ( #149, ( #233 ) ) ;
#181 = DATE_AND_TIME ( #250, #308 ) ;
#182 = FACE_OUTER_BOUND ( 'NONE', #310, .T. ) ;
#183 = APPROVAL_DATE_TIME ( #253, #149 ) ;
#184 = ORIENTED_EDGE ( 'NONE', *, *, #261, .T. ) ;
#185 = EDGE_LOOP ( 'NONE', ( #15, #293, #95, #255 ) ) ;
#186 = PERSON_AND_ORGANIZATION ( #312, #77 ) ;
#187 = AXIS2_PLACEMENT_3D ( 'NONE', #49, #266, #150 ) ;
#188 = CYLINDRICAL_SURFACE ( 'NONE', #187, 6.350000000000003200 ) ;
#189 = ORIENTED_EDGE ( 'NONE', *, *, #198, .T. ) ;
#190 = DIRECTION ( 'NONE',  ( 1.000000000000000000, 1.185013438539535600E-016, -0.0000000000000000000 ) ) ;
#191 = DIRECTION ( 'NONE',  ( 0.0000000000000000000, 0.0000000000000000000, 1.000000000000000000 ) ) ;
#192 = CARTESIAN_POINT ( 'NONE',  ( 1.000000000000000000, 7.776507174585694100E-016, -6.349999999999999600 ) ) ;
#193 = APPROVAL_PERSON_ORGANIZATION ( #260, #149, #8 ) ;
#194 = CARTESIAN_POINT ( 'NONE',  ( 32.75000000000000000, 0.0000000000000000000, 6.350000000000005900 ) ) ;
#195 = CLOSED_SHELL ( 'NONE', ( #78, #121, #23, #167 ) ) ;
#196 = DIRECTION ( 'NONE',  ( 1.000000000000000000, 1.185013438539535600E-016, -0.0000000000000000000 ) ) ;
#197 = CARTESIAN_POINT ( 'NONE',  ( 32.75000000000000000, 0.0000000000000000000, 0.0000000000000000000 ) ) ;
#198 = EDGE_CURVE ( 'NONE', #72, #170, #11, .T. ) ;
#199 = CC_DESIGN_PERSON_AND_ORGANIZATION_ASSIGNMENT ( #127, #174, ( #233 ) ) ;
#200 = PERSON_AND_ORGANIZATION ( #312, #77 ) ;
#201 = APPLICATION_PROTOCOL_DEFINITION ( 'international standard', 'config_control_design', 1994, #223 ) ;
#202 = CARTESIAN_POINT ( 'NONE',  ( -49.49999999999999300, -5.984317864624654200E-015, 0.0000000000000000000 ) ) ;
#203 = APPROVAL_STATUS ( 'not_yet_approved' ) ;
#204 = FACE_OUTER_BOUND ( 'NONE', #62, .T. ) ;
#205 = AXIS2_PLACEMENT_3D ( 'NONE', #102, #86, #248 ) ;
#206 = CALENDAR_DATE ( 2023, 19, 5 ) ;
#207 = DIRECTION ( 'NONE',  ( 0.7071067811865496800, -0.7071067811865453500, 8.659560562354908200E-017 ) ) ;
#208 = CIRCLE ( 'NONE', #87, 6.050000000000000700 ) ;
#209 = EDGE_CURVE ( 'NONE', #30, #283, #258, .T. ) ;
#210 = CC_DESIGN_DATE_AND_TIME_ASSIGNMENT ( #177, #35, ( #233 ) ) ;
#211 = LINE ( 'NONE', #75, #71 ) ;
#212 = ORIENTED_EDGE ( 'NONE', *, *, #32, .T. ) ;
#213 = CARTESIAN_POINT ( 'NONE',  ( -49.79999999999999700, -6.019868267780840500E-015, 0.0000000000000000000 ) ) ;
#214 = CC_DESIGN_PERSON_AND_ORGANIZATION_ASSIGNMENT ( #14, #274, ( #26 ) ) ;
#215 = CIRCLE ( 'NONE', #108, 6.350000000000005900 ) ;
#216 = CARTESIAN_POINT ( 'NONE',  ( 1.000000000000000000, 0.0000000000000000000, 0.0000000000000000000 ) ) ;
#217 = DIRECTION ( 'NONE',  ( 1.000000000000000000, 1.185013438539535600E-016, -0.0000000000000000000 ) ) ;
#218 = CARTESIAN_POINT ( 'NONE',  ( -49.79999999999999700, -6.050000000000006900, 7.592810154713591800E-016 ) ) ;
#219 = CARTESIAN_POINT ( 'NONE',  ( 32.75000000000000000, 0.0000000000000000000, 0.0000000000000000000 ) ) ;
#220 = PLANE ( 'NONE',  #227 ) ;
#221 = DIRECTION ( 'NONE',  ( 0.0000000000000000000, 0.0000000000000000000, 1.000000000000000000 ) ) ;
#222 = ORIENTED_EDGE ( 'NONE', *, *, #279, .F. ) ;
#223 = APPLICATION_CONTEXT ( 'configuration controlled 3d designs of mechanical parts and assemblies' ) ;
#224 = EDGE_LOOP ( 'NONE', ( #94, #235, #39, #37 ) ) ;
#225 = DIRECTION ( 'NONE',  ( 0.0000000000000000000, 1.000000000000000000, 0.0000000000000000000 ) ) ;
#226 = PERSON_AND_ORGANIZATION_ROLE ( 'creator' ) ;
#227 = AXIS2_PLACEMENT_3D ( 'NONE', #53, #82, #243 ) ;
#228 = EDGE_CURVE ( 'NONE', #282, #305, #123, .T. ) ;
#229 = EDGE_LOOP ( 'NONE', ( #212, #106, #302, #56 ) ) ;
#230 = PRODUCT_DEFINITION_FORMATION_WITH_SPECIFIED_SOURCE ( 'ANY', '', #26, .NOT_KNOWN. ) ;
#231 = ADVANCED_FACE ( 'NONE', ( #238 ), #88, .T. ) ;
#232 = FACE_OUTER_BOUND ( 'NONE', #164, .T. ) ;
#233 = PRODUCT_DEFINITION ( 'UNKNOWN', '', #230, #254 ) ;
#234 = ORIENTED_EDGE ( 'NONE', *, *, #118, .T. ) ;
#235 = ORIENTED_EDGE ( 'NONE', *, *, #209, .T. ) ;
#236 = ORIENTED_EDGE ( 'NONE', *, *, #245, .T. ) ;
#237 = AXIS2_PLACEMENT_3D ( 'NONE', #84, #246, #103 ) ;
#238 = FACE_OUTER_BOUND ( 'NONE', #172, .T. ) ;
#239 = DIRECTION ( 'NONE',  ( 0.0000000000000000000, 1.000000000000000000, 0.0000000000000000000 ) ) ;
#240 = CARTESIAN_POINT ( 'NONE',  ( -49.79999999999999700, 6.049999999999994500, 0.0000000000000000000 ) ) ;
#241 = DIRECTION ( 'NONE',  ( 0.0000000000000000000, 0.0000000000000000000, 1.000000000000000000 ) ) ;
#242 = CALENDAR_DATE ( 2023, 19, 5 ) ;
#243 = DIRECTION ( 'NONE',  ( -0.0000000000000000000, 0.0000000000000000000, 1.000000000000000000 ) ) ;
#244 = ORIENTED_EDGE ( 'NONE', *, *, #228, .T. ) ;
#245 = EDGE_CURVE ( 'NONE', #138, #160, #303, .T. ) ;
#246 = DIRECTION ( 'NONE',  ( 1.000000000000000000, 1.185013438539535600E-016, -0.0000000000000000000 ) ) ;
#247 = APPROVAL ( #203, 'UNSPECIFIED' ) ;
#248 = DIRECTION ( 'NONE',  ( 1.000000000000000000, 0.0000000000000000000, 0.0000000000000000000 ) ) ;
#249 = CARTESIAN_POINT ( 'NONE',  ( 0.9999999999999986700, 6.349999999999999600, 0.0000000000000000000 ) ) ;
#250 = CALENDAR_DATE ( 2023, 19, 5 ) ;
#251 = SECURITY_CLASSIFICATION_LEVEL ( 'unclassified' ) ;
#252 = VECTOR ( 'NONE', #196, 1000.000000000000000 ) ;
#253 = DATE_AND_TIME ( #1, #68 ) ;
#254 = DESIGN_CONTEXT ( 'detailed design', #133, 'design' ) ;
#255 = ORIENTED_EDGE ( 'NONE', *, *, #163, .F. ) ;
#256 = MANIFOLD_SOLID_BREP ( 'È¸Àü4', #159 ) ;
#257 = DATE_AND_TIME ( #7, #70 ) ;
#258 = CIRCLE ( 'NONE', #284, 6.350000000000000500 ) ;
#259 = AXIS2_PLACEMENT_3D ( 'NONE', #268, #291, #154 ) ;
#260 = PERSON_AND_ORGANIZATION ( #312, #77 ) ;
#261 = EDGE_CURVE ( 'NONE', #305, #160, #300, .T. ) ;
#262 = PERSON_AND_ORGANIZATION ( #312, #77 ) ;
#263 = CC_DESIGN_APPROVAL ( #247, ( #230 ) ) ;
#264 = CYLINDRICAL_SURFACE ( 'NONE', #161, 6.350000000000003200 ) ;
#265 = CARTESIAN_POINT ( 'NONE',  ( 0.9999999999999997800, -6.349999999999999600, 7.776507174585692200E-016 ) ) ;
#266 = DIRECTION ( 'NONE',  ( -1.000000000000000000, -0.0000000000000000000, -0.0000000000000000000 ) ) ;
#267 = ADVANCED_FACE ( 'NONE', ( #232 ), #162, .T. ) ;
#268 = CARTESIAN_POINT ( 'NONE',  ( -49.79999999999999700, -6.019868267780840500E-015, 0.0000000000000000000 ) ) ;
#269 = ADVANCED_FACE ( 'NONE', ( #48 ), #109, .T. ) ;
#270 = DIRECTION ( 'NONE',  ( 0.0000000000000000000, 1.000000000000000000, 0.0000000000000000000 ) ) ;
#271 = PLANE ( 'NONE',  #259 ) ;
#272 = LOCAL_TIME ( 10, 51, 33.00000000000000000, #22 ) ;
#273 = CARTESIAN_POINT ( 'NONE',  ( 1.000000000000000000, 0.0000000000000000000, 0.0000000000000000000 ) ) ;
#274 = PERSON_AND_ORGANIZATION_ROLE ( 'design_owner' ) ;
#275 = CIRCLE ( 'NONE', #112, 6.350000000000000500 ) ;
#276 = DIRECTION ( 'NONE',  ( 1.000000000000000000, 1.185013438539535600E-016, -0.0000000000000000000 ) ) ;
#277 = DATE_TIME_ROLE ( 'classification_date' ) ;
#278 = AXIS2_PLACEMENT_3D ( 'NONE', #295, #155, #6 ) ;
#279 = EDGE_CURVE ( 'NONE', #282, #138, #43, .T. ) ;
#280 = CC_DESIGN_PERSON_AND_ORGANIZATION_ASSIGNMENT ( #16, #226, ( #230 ) ) ;
#281 = FACE_OUTER_BOUND ( 'NONE', #119, .T. ) ;
#282 = VERTEX_POINT ( 'NONE', #194 ) ;
#283 = VERTEX_POINT ( 'NONE', #29 ) ;
#284 = AXIS2_PLACEMENT_3D ( 'NONE', #202, #57, #225 ) ;
#285 = CIRCLE ( 'NONE', #124, 6.349999999999999600 ) ;
#286 = DIRECTION ( 'NONE',  ( 1.000000000000000000, 1.185013438539535600E-016, -0.0000000000000000000 ) ) ;
#287 = DIRECTION ( 'NONE',  ( 0.7071067811865493500, 0.7071067811865455700, 0.0000000000000000000 ) ) ;
#288 = ADVANCED_FACE ( 'NONE', ( #36 ), #158, .T. ) ;
#289 = DIRECTION ( 'NONE',  ( -1.024442997624098700E-016, 1.000000000000000000, 0.0000000000000000000 ) ) ;
#290 = CARTESIAN_POINT ( 'NONE',  ( 0.9999999999999993300, 6.349999999999999600, 0.0000000000000000000 ) ) ;
#291 = DIRECTION ( 'NONE',  ( -1.000000000000000000, -1.185013438539535600E-016, 0.0000000000000000000 ) ) ;
#292 = DIRECTION ( 'NONE',  ( 0.0000000000000000000, 0.0000000000000000000, 1.000000000000000000 ) ) ;
#293 = ORIENTED_EDGE ( 'NONE', *, *, #139, .T. ) ;
#294 = EDGE_CURVE ( 'NONE', #138, #282, #215, .T. ) ;
#295 = CARTESIAN_POINT ( 'NONE',  ( 0.9999999999999991100, -9.070087028399636700E-032, 0.0000000000000000000 ) ) ;
#296 = CC_DESIGN_PERSON_AND_ORGANIZATION_ASSIGNMENT ( #262, #91, ( #230 ) ) ;
#297 = APPLICATION_PROTOCOL_DEFINITION ( 'international standard', 'config_control_design', 1994, #133 ) ;
#298 = ORIENTED_EDGE ( 'NONE', *, *, #245, .F. ) ;
#299 = APPROVAL_ROLE ( '' ) ;
#300 = CIRCLE ( 'NONE', #12, 6.349999999999999600 ) ;
#301 = ORIENTED_EDGE ( 'NONE', *, *, #228, .F. ) ;
#302 = ORIENTED_EDGE ( 'NONE', *, *, #46, .F. ) ;
#303 = LINE ( 'NONE', #10, #113 ) ;
#304 = LOCAL_TIME ( 10, 51, 33.00000000000000000, #61 ) ;
#305 = VERTEX_POINT ( 'NONE', #152 ) ;
#306 = EDGE_CURVE ( 'NONE', #160, #305, #285, .T. ) ;
#307 = SECURITY_CLASSIFICATION ( '', '', #251 ) ;
#308 = LOCAL_TIME ( 10, 51, 33.00000000000000000, #63 ) ;
#309 = LINE ( 'NONE', #290, #252 ) ;
#310 = EDGE_LOOP ( 'NONE', ( #104, #44 ) ) ;
#311 = CARTESIAN_POINT ( 'NONE',  ( 0.0000000000000000000, 0.0000000000000000000, 0.0000000000000000000 ) ) ;
#312 = PERSON ( 'UNSPECIFIED', 'UNSPECIFIED', 'UNSPECIFIED', ('UNSPECIFIED'), ('UNSPECIFIED'), ('UNSPECIFIED') ) ;
#313 = DIRECTION ( 'NONE',  ( -1.000000000000000000, -0.0000000000000000000, -0.0000000000000000000 ) ) ;
ENDSEC;
END-ISO-10303-21;
