ISO-10303-21;
HEADER;
FILE_DESCRIPTION (( 'STEP AP203' ),
    '1' );
FILE_NAME ('03-2066.STEP',
    '2023-05-19T01:44:55',
    ( 'USER' ),
    ( 'Hewlett-Packard Company' ),
    'SwSTEP 2.0',
    'SolidWorks 2014',
    '' );
FILE_SCHEMA (( 'CONFIG_CONTROL_DESIGN' ));
ENDSEC;

DATA;
#1 = DIRECTION ( 'NONE',  ( 1.000000000000000000, 1.217027282215288300E-016, -0.0000000000000000000 ) ) ;
#2 = LINE ( 'NONE', #388, #243 ) ;
#3 = ORIENTED_EDGE ( 'NONE', *, *, #307, .F. ) ;
#4 = CARTESIAN_POINT ( 'NONE',  ( 0.0000000000000000000, 0.0000000000000000000, 7.143750000000002500 ) ) ;
#5 = CARTESIAN_POINT ( 'NONE',  ( 0.7937499999999875200, -2.510118769569184000E-017, 0.0000000000000000000 ) ) ;
#6 = AXIS2_PLACEMENT_3D ( 'NONE', #334, #139, #367 ) ;
#7 = DIRECTION ( 'NONE',  ( 1.000000000000000000, 1.217027282215288300E-016, -0.0000000000000000000 ) ) ;
#8 = CARTESIAN_POINT ( 'NONE',  ( -49.49999999999999300, -6.350000000000005900, 7.776507174585696100E-016 ) ) ;
#9 = VERTEX_POINT ( 'NONE', #27 ) ;
#10 = CARTESIAN_POINT ( 'NONE',  ( 35.92499999999999700, 0.0000000000000000000, 0.0000000000000000000 ) ) ;
#11 = CARTESIAN_POINT ( 'NONE',  ( 0.7937499999999883000, -6.349999999999999600, 0.0000000000000000000 ) ) ;
#12 = ADVANCED_FACE ( 'NONE', ( #306 ), #50, .F. ) ;
#13 = DIRECTION ( 'NONE',  ( -1.000000000000000000, -0.0000000000000000000, -0.0000000000000000000 ) ) ;
#14 = CARTESIAN_POINT ( 'NONE',  ( 8.673617379884035500E-016, -1.217027282215287300E-016, 0.0000000000000000000 ) ) ;
#15 = CARTESIAN_POINT ( 'NONE',  ( 1.000000000000000000, 0.0000000000000000000, 0.0000000000000000000 ) ) ;
#16 = EDGE_CURVE ( 'NONE', #385, #353, #391, .T. ) ;
#17 = CIRCLE ( 'NONE', #36, 6.349999999999999600 ) ;
#18 = ORIENTED_EDGE ( 'NONE', *, *, #106, .T. ) ;
#19 = AXIS2_PLACEMENT_3D ( 'NONE', #126, #1, #377 ) ;
#20 = DATE_TIME_ROLE ( 'creation_date' ) ;
#21 = EDGE_LOOP ( 'NONE', ( #404, #18 ) ) ;
#22 = APPROVAL ( #144, 'UNSPECIFIED' ) ;
#23 = EDGE_CURVE ( 'NONE', #401, #366, #216, .T. ) ;
#24 = COORDINATED_UNIVERSAL_TIME_OFFSET ( 9, 0, .AHEAD. ) ;
#25 = VECTOR ( 'NONE', #45, 999.9999999999998900 ) ;
#26 = ORIENTED_EDGE ( 'NONE', *, *, #125, .F. ) ;
#27 = CARTESIAN_POINT ( 'NONE',  ( 35.92499999999999700, 8.748570571408911100E-016, -7.143750000000006000 ) ) ;
#28 = CARTESIAN_POINT ( 'NONE',  ( -49.49999999999999300, -6.145987775187205300E-015, 0.0000000000000000000 ) ) ;
#29 =( GEOMETRIC_REPRESENTATION_CONTEXT ( 3 ) GLOBAL_UNCERTAINTY_ASSIGNED_CONTEXT ( ( #147 ) ) GLOBAL_UNIT_ASSIGNED_CONTEXT ( ( #172, #398, #203 ) ) REPRESENTATION_CONTEXT ( 'NONE', 'WORKASPACE' ) );
#30 = VECTOR ( 'NONE', #51, 1000.000000000000000 ) ;
#31 = ORIENTED_EDGE ( 'NONE', *, *, #373, .T. ) ;
#32 = LOCAL_TIME ( 10, 44, 55.00000000000000000, #116 ) ;
#33 = FACE_OUTER_BOUND ( 'NONE', #310, .T. ) ;
#34 = ORIENTED_EDGE ( 'NONE', *, *, #262, .T. ) ;
#35 = DIRECTION ( 'NONE',  ( -1.000000000000000000, -0.0000000000000000000, -0.0000000000000000000 ) ) ;
#36 = AXIS2_PLACEMENT_3D ( 'NONE', #170, #392, #196 ) ;
#37 = VECTOR ( 'NONE', #394, 1000.000000000000000 ) ;
#38 = ORIENTED_EDGE ( 'NONE', *, *, #331, .T. ) ;
#39 = CARTESIAN_POINT ( 'NONE',  ( -2.052126744142999400E-018, 7.143749999999999800, 8.748570571408905200E-016 ) ) ;
#40 = DIRECTION ( 'NONE',  ( 0.0000000000000000000, 0.0000000000000000000, 1.000000000000000000 ) ) ;
#41 = CC_DESIGN_APPROVAL ( #22, ( #372 ) ) ;
#42 = CARTESIAN_POINT ( 'NONE',  ( 0.7937499999999867400, 6.349999999999999600, 8.262538872997298700E-016 ) ) ;
#43 = ADVANCED_FACE ( 'NONE', ( #381 ), #124, .T. ) ;
#44 = CARTESIAN_POINT ( 'NONE',  ( 8.673617379884035500E-016, -1.217027282215287300E-016, 0.0000000000000000000 ) ) ;
#45 = DIRECTION ( 'NONE',  ( -0.7071067811865415800, 0.7071067811865535700, 8.659560562355008000E-017 ) ) ;
#46 = APPROVAL_DATE_TIME ( #123, #279 ) ;
#47 = FACE_OUTER_BOUND ( 'NONE', #336, .T. ) ;
#48 = CARTESIAN_POINT ( 'NONE',  ( -49.49999999999999300, -6.350000000000005900, 7.776507174585692200E-016 ) ) ;
#49 = EDGE_CURVE ( 'NONE', #154, #353, #57, .T. ) ;
#50 = PLANE ( 'NONE',  #211 ) ;
#51 = DIRECTION ( 'NONE',  ( -1.000000000000000000, -0.0000000000000000000, -0.0000000000000000000 ) ) ;
#52 = APPROVAL_ROLE ( '' ) ;
#53 = CIRCLE ( 'NONE', #378, 7.143750000000006000 ) ;
#54 = ORIENTED_EDGE ( 'NONE', *, *, #218, .F. ) ;
#55 = APPROVAL_PERSON_ORGANIZATION ( #134, #279, #52 ) ;
#56 = DESIGN_CONTEXT ( 'detailed design', #140, 'design' ) ;
#57 = LINE ( 'NONE', #4, #296 ) ;
#58 = CARTESIAN_POINT ( 'NONE',  ( -49.79999999999999700, -6.050000000000006900, 7.592810154713591800E-016 ) ) ;
#59 = AXIS2_PLACEMENT_3D ( 'NONE', #362, #13, #327 ) ;
#60 = FACE_OUTER_BOUND ( 'NONE', #64, .T. ) ;
#61 = ORIENTED_EDGE ( 'NONE', *, *, #106, .F. ) ;
#62 = CC_DESIGN_SECURITY_CLASSIFICATION ( #372, ( #254 ) ) ;
#63 = COORDINATED_UNIVERSAL_TIME_OFFSET ( 9, 0, .AHEAD. ) ;
#64 = EDGE_LOOP ( 'NONE', ( #319, #358, #210, #3 ) ) ;
#65 = EDGE_CURVE ( 'NONE', #115, #401, #136, .T. ) ;
#66 = DIRECTION ( 'NONE',  ( 0.0000000000000000000, 1.000000000000000000, 0.0000000000000000000 ) ) ;
#67 = DIRECTION ( 'NONE',  ( 1.000000000000000000, 1.217027282215288300E-016, -0.0000000000000000000 ) ) ;
#68 = DIRECTION ( 'NONE',  ( 1.000000000000000000, 1.217027282215288300E-016, -0.0000000000000000000 ) ) ;
#69 = FACE_OUTER_BOUND ( 'NONE', #74, .T. ) ;
#70 = ORIENTED_EDGE ( 'NONE', *, *, #148, .T. ) ;
#71 = DIRECTION ( 'NONE',  ( 0.0000000000000000000, 0.0000000000000000000, 1.000000000000000000 ) ) ;
#72 = DIRECTION ( 'NONE',  ( 0.7071067811865504600, 0.7071067811865445800, 0.0000000000000000000 ) ) ;
#73 = LOCAL_TIME ( 10, 44, 55.00000000000000000, #152 ) ;
#74 = EDGE_LOOP ( 'NONE', ( #314, #160, #191, #313 ) ) ;
#75 = DIRECTION ( 'NONE',  ( 1.217027282215288000E-016, -1.000000000000000000, 0.0000000000000000000 ) ) ;
#76 = MANIFOLD_SOLID_BREP ( 'È¸Àü4', #229 ) ;
#77 = ADVANCED_FACE ( 'NONE', ( #283 ), #274, .T. ) ;
#78 = DIRECTION ( 'NONE',  ( -1.000000000000000000, -0.0000000000000000000, -0.0000000000000000000 ) ) ;
#79 = FACE_OUTER_BOUND ( 'NONE', #371, .T. ) ;
#80 = DIRECTION ( 'NONE',  ( 0.0000000000000000000, 0.0000000000000000000, 1.000000000000000000 ) ) ;
#81 = VERTEX_POINT ( 'NONE', #109 ) ;
#82 = PERSON_AND_ORGANIZATION_ROLE ( 'design_supplier' ) ;
#83 = ORGANIZATION ( 'UNSPECIFIED', 'UNSPECIFIED', '' ) ;
#84 = ORIENTED_EDGE ( 'NONE', *, *, #197, .T. ) ;
#85 = PRODUCT_RELATED_PRODUCT_CATEGORY ( 'detail', '', ( #396 ) ) ;
#86 = EDGE_CURVE ( 'NONE', #90, #81, #209, .T. ) ;
#87 = FACE_OUTER_BOUND ( 'NONE', #21, .T. ) ;
#88 = ORIENTED_EDGE ( 'NONE', *, *, #49, .F. ) ;
#89 = DIRECTION ( 'NONE',  ( -0.7071067811865414700, -0.7071067811865536800, 0.0000000000000000000 ) ) ;
#90 = VERTEX_POINT ( 'NONE', #58 ) ;
#91 = DIRECTION ( 'NONE',  ( -1.000000000000000000, 0.0000000000000000000, -0.0000000000000000000 ) ) ;
#92 = APPROVAL_DATE_TIME ( #179, #22 ) ;
#93 = CIRCLE ( 'NONE', #270, 6.349999999999999600 ) ;
#94 = ORIENTED_EDGE ( 'NONE', *, *, #262, .F. ) ;
#95 = CARTESIAN_POINT ( 'NONE',  ( 0.9999999999999991100, -1.053105404447370100E-031, 0.0000000000000000000 ) ) ;
#96 = AXIS2_PLACEMENT_3D ( 'NONE', #258, #290, #100 ) ;
#97 = CARTESIAN_POINT ( 'NONE',  ( 8.673617379884035500E-016, -1.217027282215287300E-016, 0.0000000000000000000 ) ) ;
#98 = ORIENTED_EDGE ( 'NONE', *, *, #329, .F. ) ;
#99 = CARTESIAN_POINT ( 'NONE',  ( -49.49999999999999300, -6.145987775187205300E-015, 0.0000000000000000000 ) ) ;
#100 = DIRECTION ( 'NONE',  ( 0.0000000000000000000, 0.0000000000000000000, -1.000000000000000000 ) ) ;
#101 = DIRECTION ( 'NONE',  ( 1.000000000000000000, 1.217027282215288300E-016, -0.0000000000000000000 ) ) ;
#102 = DIRECTION ( 'NONE',  ( 1.000000000000000000, 1.217027282215288300E-016, -0.0000000000000000000 ) ) ;
#103 = ADVANCED_FACE ( 'NONE', ( #33 ), #185, .T. ) ;
#104 = DIRECTION ( 'NONE',  ( 1.000000000000000000, 1.217027282215288300E-016, -0.0000000000000000000 ) ) ;
#105 = CARTESIAN_POINT ( 'NONE',  ( 1.000000000000000000, 8.748570571408905200E-016, -7.143749999999999800 ) ) ;
#106 = EDGE_CURVE ( 'NONE', #366, #401, #200, .T. ) ;
#107 = APPROVAL_PERSON_ORGANIZATION ( #184, #22, #370 ) ;
#108 = FACE_OUTER_BOUND ( 'NONE', #255, .T. ) ;
#109 = CARTESIAN_POINT ( 'NONE',  ( -49.79999999999999700, 6.049999999999994500, 0.0000000000000000000 ) ) ;
#110 = ORIENTED_EDGE ( 'NONE', *, *, #65, .T. ) ;
#111 = CARTESIAN_POINT ( 'NONE',  ( 0.0000000000000000000, 0.0000000000000000000, 0.0000000000000000000 ) ) ;
#112 = MECHANICAL_CONTEXT ( 'NONE', #268, 'mechanical' ) ;
#113 = PERSON_AND_ORGANIZATION_ROLE ( 'classification_officer' ) ;
#114 = AXIS2_PLACEMENT_3D ( 'NONE', #111, #80, #300 ) ;
#115 = VERTEX_POINT ( 'NONE', #317 ) ;
#116 = COORDINATED_UNIVERSAL_TIME_OFFSET ( 9, 0, .AHEAD. ) ;
#117 = VECTOR ( 'NONE', #89, 1000.000000000000000 ) ;
#118 = ORIENTED_EDGE ( 'NONE', *, *, #242, .T. ) ;
#119 = CARTESIAN_POINT ( 'NONE',  ( 1.000000000000000900, -6.349999999999999600, 7.776507174585692200E-016 ) ) ;
#120 = AXIS2_PLACEMENT_3D ( 'NONE', #97, #321, #131 ) ;
#121 = LINE ( 'NONE', #48, #37 ) ;
#122 = ORIENTED_EDGE ( 'NONE', *, *, #395, .F. ) ;
#123 = DATE_AND_TIME ( #208, #295 ) ;
#124 = CYLINDRICAL_SURFACE ( 'NONE', #299, 7.143749999999999800 ) ;
#125 = EDGE_CURVE ( 'NONE', #303, #213, #365, .T. ) ;
#126 = CARTESIAN_POINT ( 'NONE',  ( 1.000000000000000000, 0.0000000000000000000, 0.0000000000000000000 ) ) ;
#127 = CONICAL_SURFACE ( 'NONE', #222, 6.349999999999999600, 0.7853981633974439500 ) ;
#128 = ORIENTED_EDGE ( 'NONE', *, *, #16, .F. ) ;
#129 = DIRECTION ( 'NONE',  ( 1.000000000000000000, 1.217027282215288300E-016, -0.0000000000000000000 ) ) ;
#130 = CC_DESIGN_PERSON_AND_ORGANIZATION_ASSIGNMENT ( #409, #337, ( #396 ) ) ;
#131 = DIRECTION ( 'NONE',  ( -1.217027282215288300E-016, 1.000000000000000000, 0.0000000000000000000 ) ) ;
#132 = CARTESIAN_POINT ( 'NONE',  ( 8.673617379884035500E-016, -1.217027282215287300E-016, 0.0000000000000000000 ) ) ;
#133 = DIRECTION ( 'NONE',  ( -1.000000000000000000, -1.217027282215288300E-016, 0.0000000000000000000 ) ) ;
#134 = PERSON_AND_ORGANIZATION ( #260, #83 ) ;
#135 = ADVANCED_FACE ( 'NONE', ( #47 ), #266, .T. ) ;
#136 = LINE ( 'NONE', #320, #375 ) ;
#137 = CARTESIAN_POINT ( 'NONE',  ( 1.736775602720949900E-015, -7.143749999999999800, 0.0000000000000000000 ) ) ;
#138 = DIRECTION ( 'NONE',  ( -1.000000000000000000, -1.217027282215288300E-016, 0.0000000000000000000 ) ) ;
#139 = DIRECTION ( 'NONE',  ( -1.000000000000000000, -0.0000000000000000000, -0.0000000000000000000 ) ) ;
#140 = APPLICATION_CONTEXT ( 'configuration controlled 3d designs of mechanical parts and assemblies' ) ;
#141 = AXIS2_PLACEMENT_3D ( 'NONE', #225, #386, #193 ) ;
#142 = VECTOR ( 'NONE', #72, 1000.000000000000000 ) ;
#143 = ORIENTED_EDGE ( 'NONE', *, *, #155, .F. ) ;
#144 = APPROVAL_STATUS ( 'not_yet_approved' ) ;
#145 = PERSON_AND_ORGANIZATION ( #260, #83 ) ;
#146 = EDGE_LOOP ( 'NONE', ( #223, #98 ) ) ;
#147 = UNCERTAINTY_MEASURE_WITH_UNIT (LENGTH_MEASURE( 1.000000000000000100E-005 ), #172, 'distance_accuracy_value', 'NONE');
#148 = EDGE_CURVE ( 'NONE', #251, #202, #352, .T. ) ;
#149 = VECTOR ( 'NONE', #356, 1000.000000000000000 ) ;
#150 = ORIENTED_EDGE ( 'NONE', *, *, #348, .T. ) ;
#151 = PRODUCT_DEFINITION ( 'UNKNOWN', '', #254, #56 ) ;
#152 = COORDINATED_UNIVERSAL_TIME_OFFSET ( 9, 0, .AHEAD. ) ;
#153 = ORIENTED_EDGE ( 'NONE', *, *, #282, .T. ) ;
#154 = VERTEX_POINT ( 'NONE', #230 ) ;
#155 = EDGE_CURVE ( 'NONE', #202, #115, #180, .T. ) ;
#156 = CARTESIAN_POINT ( 'NONE',  ( -49.79999999999999700, -6.182498593653664500E-015, 0.0000000000000000000 ) ) ;
#157 = DIRECTION ( 'NONE',  ( 1.000000000000000000, 1.217027282215288300E-016, -0.0000000000000000000 ) ) ;
#158 = DIRECTION ( 'NONE',  ( 1.000000000000000000, 1.217027282215288300E-016, -0.0000000000000000000 ) ) ;
#159 = FACE_OUTER_BOUND ( 'NONE', #166, .T. ) ;
#160 = ORIENTED_EDGE ( 'NONE', *, *, #125, .T. ) ;
#161 = AXIS2_PLACEMENT_3D ( 'NONE', #10, #226, #40 ) ;
#162 = DIRECTION ( 'NONE',  ( -1.214154663850783700E-016, 1.000000000000000000, 0.0000000000000000000 ) ) ;
#163 = CARTESIAN_POINT ( 'NONE',  ( 0.0000000000000000000, 0.0000000000000000000, 0.0000000000000000000 ) ) ;
#164 = DIRECTION ( 'NONE',  ( -1.000000000000000000, -1.217027282215288300E-016, 0.0000000000000000000 ) ) ;
#165 = SHAPE_DEFINITION_REPRESENTATION ( #280, #413 ) ;
#166 = EDGE_LOOP ( 'NONE', ( #244, #278 ) ) ;
#167 = DIRECTION ( 'NONE',  ( -1.217027282215288300E-016, 1.000000000000000000, 0.0000000000000000000 ) ) ;
#168 = DIRECTION ( 'NONE',  ( 1.000000000000000000, 1.217027282215288300E-016, -0.0000000000000000000 ) ) ;
#169 = ADVANCED_FACE ( 'NONE', ( #108 ), #250, .T. ) ;
#170 = CARTESIAN_POINT ( 'NONE',  ( 0.7937499999999875200, -2.510118769569184000E-017, 0.0000000000000000000 ) ) ;
#171 = CARTESIAN_POINT ( 'NONE',  ( 1.000000000000000000, -7.143749999999999800, 8.748570571408905200E-016 ) ) ;
#172 =( LENGTH_UNIT ( ) NAMED_UNIT ( * ) SI_UNIT ( .MILLI., .METRE. ) );
#173 = FACE_OUTER_BOUND ( 'NONE', #340, .T. ) ;
#174 = EDGE_LOOP ( 'NONE', ( #177, #34, #70, #183 ) ) ;
#175 = APPROVAL_STATUS ( 'not_yet_approved' ) ;
#176 = APPROVAL ( #175, 'UNSPECIFIED' ) ;
#177 = ORIENTED_EDGE ( 'NONE', *, *, #178, .F. ) ;
#178 = EDGE_CURVE ( 'NONE', #228, #115, #342, .T. ) ;
#179 = DATE_AND_TIME ( #265, #351 ) ;
#180 = CIRCLE ( 'NONE', #406, 7.143749999999999800 ) ;
#181 = EDGE_LOOP ( 'NONE', ( #84, #187, #143, #346 ) ) ;
#182 = AXIS2_PLACEMENT_3D ( 'NONE', #5, #189, #232 ) ;
#183 = ORIENTED_EDGE ( 'NONE', *, *, #242, .F. ) ;
#184 = PERSON_AND_ORGANIZATION ( #260, #83 ) ;
#185 = CYLINDRICAL_SURFACE ( 'NONE', #368, 6.349999999999999600 ) ;
#186 = AXIS2_PLACEMENT_3D ( 'NONE', #219, #35, #249 ) ;
#187 = ORIENTED_EDGE ( 'NONE', *, *, #178, .T. ) ;
#188 = CARTESIAN_POINT ( 'NONE',  ( 1.000000000000000000, 0.0000000000000000000, 0.0000000000000000000 ) ) ;
#189 = DIRECTION ( 'NONE',  ( 1.000000000000000000, 1.217027282215288300E-016, -0.0000000000000000000 ) ) ;
#190 = FACE_OUTER_BOUND ( 'NONE', #181, .T. ) ;
#191 = ORIENTED_EDGE ( 'NONE', *, *, #218, .T. ) ;
#192 = CC_DESIGN_APPROVAL ( #176, ( #151 ) ) ;
#193 = DIRECTION ( 'NONE',  ( -1.217027282215288300E-016, 1.000000000000000000, 0.0000000000000000000 ) ) ;
#194 = CARTESIAN_POINT ( 'NONE',  ( -49.79999999999999700, -6.182498593653663800E-015, 0.0000000000000000000 ) ) ;
#195 = CARTESIAN_POINT ( 'NONE',  ( -49.49999999999999300, 6.349999999999993400, 0.0000000000000000000 ) ) ;
#196 = DIRECTION ( 'NONE',  ( -1.195183497228115300E-016, 1.000000000000000000, 0.0000000000000000000 ) ) ;
#197 = EDGE_CURVE ( 'NONE', #251, #228, #17, .T. ) ;
#198 = PERSON_AND_ORGANIZATION ( #260, #83 ) ;
#199 = ADVANCED_FACE ( 'NONE', ( #173 ), #292, .F. ) ;
#200 = CIRCLE ( 'NONE', #343, 7.143749999999999800 ) ;
#201 = DIRECTION ( 'NONE',  ( 1.000000000000000000, 1.217027282215288300E-016, -0.0000000000000000000 ) ) ;
#202 = VERTEX_POINT ( 'NONE', #256 ) ;
#203 =( NAMED_UNIT ( * ) SI_UNIT ( $, .STERADIAN. ) SOLID_ANGLE_UNIT ( ) );
#204 = PERSON_AND_ORGANIZATION_ROLE ( 'creator' ) ;
#205 = AXIS2_PLACEMENT_3D ( 'NONE', #163, #345, #71 ) ;
#206 = LINE ( 'NONE', #233, #30 ) ;
#207 = EDGE_LOOP ( 'NONE', ( #344, #288, #324, #26 ) ) ;
#208 = CALENDAR_DATE ( 2023, 19, 5 ) ;
#209 = CIRCLE ( 'NONE', #248, 6.050000000000000700 ) ;
#210 = ORIENTED_EDGE ( 'NONE', *, *, #331, .F. ) ;
#211 = AXIS2_PLACEMENT_3D ( 'NONE', #315, #91, #285 ) ;
#212 = CIRCLE ( 'NONE', #161, 7.143750000000006000 ) ;
#213 = VERTEX_POINT ( 'NONE', #195 ) ;
#214 = CC_DESIGN_PERSON_AND_ORGANIZATION_ASSIGNMENT ( #145, #204, ( #151 ) ) ;
#215 = DATE_AND_TIME ( #305, #390 ) ;
#216 = CIRCLE ( 'NONE', #234, 7.143749999999999800 ) ;
#217 = MANIFOLD_SOLID_BREP ( 'È¸Àü3', #341 ) ;
#218 = EDGE_CURVE ( 'NONE', #213, #228, #2, .T. ) ;
#219 = CARTESIAN_POINT ( 'NONE',  ( 1.000000000000000000, 0.0000000000000000000, 0.0000000000000000000 ) ) ;
#220 = DIRECTION ( 'NONE',  ( -1.000000000000000000, -0.0000000000000000000, -0.0000000000000000000 ) ) ;
#221 = CYLINDRICAL_SURFACE ( 'NONE', #245, 6.349999999999999600 ) ;
#222 = AXIS2_PLACEMENT_3D ( 'NONE', #99, #289, #253 ) ;
#223 = ORIENTED_EDGE ( 'NONE', *, *, #373, .F. ) ;
#224 = DIRECTION ( 'NONE',  ( -1.365923996832131600E-016, 1.000000000000000000, 0.0000000000000000000 ) ) ;
#225 = CARTESIAN_POINT ( 'NONE',  ( 0.9999999999999986700, 7.143749999999999800, 0.0000000000000000000 ) ) ;
#226 = DIRECTION ( 'NONE',  ( -1.000000000000000000, -0.0000000000000000000, -0.0000000000000000000 ) ) ;
#227 = APPROVAL_DATE_TIME ( #312, #176 ) ;
#228 = VERTEX_POINT ( 'NONE', #42 ) ;
#229 = CLOSED_SHELL ( 'NONE', ( #326, #103, #393, #135, #332, #231, #43, #363, #293, #77 ) ) ;
#230 = CARTESIAN_POINT ( 'NONE',  ( 35.92499999999999700, 0.0000000000000000000, 7.143750000000006000 ) ) ;
#231 = ADVANCED_FACE ( 'NONE', ( #87 ), #359, .T. ) ;
#232 = DIRECTION ( 'NONE',  ( -1.195183497228115300E-016, 1.000000000000000000, 0.0000000000000000000 ) ) ;
#233 = CARTESIAN_POINT ( 'NONE',  ( 0.0000000000000000000, 8.748570571408907100E-016, -7.143750000000002500 ) ) ;
#234 = AXIS2_PLACEMENT_3D ( 'NONE', #95, #129, #162 ) ;
#235 = APPLICATION_PROTOCOL_DEFINITION ( 'international standard', 'config_control_design', 1994, #268 ) ;
#236 = CYLINDRICAL_SURFACE ( 'NONE', #205, 7.143750000000002500 ) ;
#237 = EDGE_LOOP ( 'NONE', ( #379, #411, #110, #61 ) ) ;
#238 = APPROVAL_STATUS ( 'not_yet_approved' ) ;
#239 = CC_DESIGN_DATE_AND_TIME_ASSIGNMENT ( #215, #20, ( #151 ) ) ;
#240 = APPROVAL_PERSON_ORGANIZATION ( #323, #176, #400 ) ;
#241 = ORIENTED_EDGE ( 'NONE', *, *, #329, .T. ) ;
#242 = EDGE_CURVE ( 'NONE', #115, #202, #335, .T. ) ;
#243 = VECTOR ( 'NONE', #7, 1000.000000000000000 ) ;
#244 = ORIENTED_EDGE ( 'NONE', *, *, #350, .F. ) ;
#245 = AXIS2_PLACEMENT_3D ( 'NONE', #15, #201, #224 ) ;
#246 = ORIENTED_EDGE ( 'NONE', *, *, #412, .T. ) ;
#247 = DIRECTION ( 'NONE',  ( -1.214154663850783700E-016, 1.000000000000000000, 0.0000000000000000000 ) ) ;
#248 = AXIS2_PLACEMENT_3D ( 'NONE', #156, #157, #382 ) ;
#249 = DIRECTION ( 'NONE',  ( 0.0000000000000000000, 0.0000000000000000000, 1.000000000000000000 ) ) ;
#250 = CYLINDRICAL_SURFACE ( 'NONE', #59, 7.143750000000002500 ) ;
#251 = VERTEX_POINT ( 'NONE', #11 ) ;
#252 = CARTESIAN_POINT ( 'NONE',  ( -49.49999999999999300, -6.145987775187205300E-015, 0.0000000000000000000 ) ) ;
#253 = DIRECTION ( 'NONE',  ( 0.0000000000000000000, 1.000000000000000000, 0.0000000000000000000 ) ) ;
#254 = PRODUCT_DEFINITION_FORMATION_WITH_SPECIFIED_SOURCE ( 'ANY', '', #396, .NOT_KNOWN. ) ;
#255 = EDGE_LOOP ( 'NONE', ( #31, #408, #405, #88 ) ) ;
#256 = CARTESIAN_POINT ( 'NONE',  ( 1.736775602720949900E-015, -7.143749999999999800, 8.748570571408905200E-016 ) ) ;
#257 = PLANE ( 'NONE',  #339 ) ;
#258 = CARTESIAN_POINT ( 'NONE',  ( 1.000000000000000400, 1.214154663850784600E-016, 0.0000000000000000000 ) ) ;
#259 = CARTESIAN_POINT ( 'NONE',  ( 1.000000000000000000, 0.0000000000000000000, 7.143749999999999800 ) ) ;
#260 = PERSON ( 'UNSPECIFIED', 'UNSPECIFIED', 'UNSPECIFIED', ('UNSPECIFIED'), ('UNSPECIFIED'), ('UNSPECIFIED') ) ;
#261 = ADVANCED_FACE ( 'NONE', ( #79 ), #236, .T. ) ;
#262 = EDGE_CURVE ( 'NONE', #228, #251, #318, .T. ) ;
#263 = CARTESIAN_POINT ( 'NONE',  ( 35.92499999999999700, 0.0000000000000000000, 0.0000000000000000000 ) ) ;
#264 = CARTESIAN_POINT ( 'NONE',  ( 1.000000000000000000, 0.0000000000000000000, 0.0000000000000000000 ) ) ;
#265 = CALENDAR_DATE ( 2023, 19, 5 ) ;
#266 = CYLINDRICAL_SURFACE ( 'NONE', #19, 7.143749999999999800 ) ;
#267 = ORIENTED_EDGE ( 'NONE', *, *, #49, .T. ) ;
#268 = APPLICATION_CONTEXT ( 'configuration controlled 3d designs of mechanical parts and assemblies' ) ;
#269 = PERSON_AND_ORGANIZATION_ROLE ( 'creator' ) ;
#270 = AXIS2_PLACEMENT_3D ( 'NONE', #291, #101, #325 ) ;
#271 = CONICAL_SURFACE ( 'NONE', #402, 7.143749999999999800, 0.7853981633974568300 ) ;
#272 = ORIENTED_EDGE ( 'NONE', *, *, #23, .F. ) ;
#273 = DATE_AND_TIME ( #364, #32 ) ;
#274 = CONICAL_SURFACE ( 'NONE', #276, 6.349999999999999600, 0.7853981633974439500 ) ;
#275 = ORIENTED_EDGE ( 'NONE', *, *, #16, .T. ) ;
#276 = AXIS2_PLACEMENT_3D ( 'NONE', #252, #68, #66 ) ;
#277 = CONICAL_SURFACE ( 'NONE', #355, 7.143749999999999800, 0.7853981633974568300 ) ;
#278 = ORIENTED_EDGE ( 'NONE', *, *, #86, .F. ) ;
#279 = APPROVAL ( #238, 'UNSPECIFIED' ) ;
#280 = PRODUCT_DEFINITION_SHAPE ( 'NONE', 'NONE',  #151 ) ;
#281 = PERSON_AND_ORGANIZATION ( #260, #83 ) ;
#282 = EDGE_CURVE ( 'NONE', #303, #251, #407, .T. ) ;
#283 = FACE_OUTER_BOUND ( 'NONE', #207, .T. ) ;
#284 = ORIENTED_EDGE ( 'NONE', *, *, #65, .F. ) ;
#285 = DIRECTION ( 'NONE',  ( -0.0000000000000000000, 0.0000000000000000000, 1.000000000000000000 ) ) ;
#286 = DIRECTION ( 'NONE',  ( 1.000000000000000000, 1.217027282215288300E-016, -0.0000000000000000000 ) ) ;
#287 = FACE_OUTER_BOUND ( 'NONE', #174, .T. ) ;
#288 = ORIENTED_EDGE ( 'NONE', *, *, #86, .T. ) ;
#289 = DIRECTION ( 'NONE',  ( 1.000000000000000000, 1.217027282215288300E-016, -0.0000000000000000000 ) ) ;
#290 = DIRECTION ( 'NONE',  ( 1.000000000000000000, 0.0000000000000000000, 0.0000000000000000000 ) ) ;
#291 = CARTESIAN_POINT ( 'NONE',  ( -49.49999999999999300, -6.145987775187205300E-015, 0.0000000000000000000 ) ) ;
#292 = PLANE ( 'NONE',  #96 ) ;
#293 = ADVANCED_FACE ( 'NONE', ( #69 ), #221, .T. ) ;
#294 = CARTESIAN_POINT ( 'NONE',  ( -49.79999999999999700, -6.182498593653664500E-015, 0.0000000000000000000 ) ) ;
#295 = LOCAL_TIME ( 10, 44, 55.00000000000000000, #380 ) ;
#296 = VECTOR ( 'NONE', #220, 1000.000000000000000 ) ;
#297 = DIRECTION ( 'NONE',  ( 0.0000000000000000000, 0.0000000000000000000, 1.000000000000000000 ) ) ;
#298 = DIRECTION ( 'NONE',  ( -1.365923996832131600E-016, 1.000000000000000000, 0.0000000000000000000 ) ) ;
#299 = AXIS2_PLACEMENT_3D ( 'NONE', #264, #67, #247 ) ;
#300 = DIRECTION ( 'NONE',  ( 1.000000000000000000, 0.0000000000000000000, 0.0000000000000000000 ) ) ;
#301 = VECTOR ( 'NONE', #168, 1000.000000000000000 ) ;
#302 = SECURITY_CLASSIFICATION_LEVEL ( 'unclassified' ) ;
#303 = VERTEX_POINT ( 'NONE', #8 ) ;
#304 = CC_DESIGN_APPROVAL ( #279, ( #254 ) ) ;
#305 = CALENDAR_DATE ( 2023, 19, 5 ) ;
#306 = FACE_OUTER_BOUND ( 'NONE', #146, .T. ) ;
#307 = EDGE_CURVE ( 'NONE', #81, #213, #309, .T. ) ;
#308 = CARTESIAN_POINT ( 'NONE',  ( -49.49999999999999300, 6.349999999999993400, 0.0000000000000000000 ) ) ;
#309 = LINE ( 'NONE', #308, #142 ) ;
#310 = EDGE_LOOP ( 'NONE', ( #38, #153, #94, #54 ) ) ;
#311 = AXIS2_PLACEMENT_3D ( 'NONE', #294, #102, #328 ) ;
#312 = DATE_AND_TIME ( #403, #73 ) ;
#313 = ORIENTED_EDGE ( 'NONE', *, *, #197, .F. ) ;
#314 = ORIENTED_EDGE ( 'NONE', *, *, #282, .F. ) ;
#315 = CARTESIAN_POINT ( 'NONE',  ( 35.92499999999999700, 0.0000000000000000000, 0.0000000000000000000 ) ) ;
#316 = AXIS2_PLACEMENT_3D ( 'NONE', #28, #104, #330 ) ;
#317 = CARTESIAN_POINT ( 'NONE',  ( -2.052126744142999400E-018, 7.143749999999999800, 0.0000000000000000000 ) ) ;
#318 = CIRCLE ( 'NONE', #182, 6.349999999999999600 ) ;
#319 = ORIENTED_EDGE ( 'NONE', *, *, #350, .T. ) ;
#320 = CARTESIAN_POINT ( 'NONE',  ( 0.9999999999999991100, 7.143749999999999800, 0.0000000000000000000 ) ) ;
#321 = DIRECTION ( 'NONE',  ( 1.000000000000000000, 1.217027282215288300E-016, -0.0000000000000000000 ) ) ;
#322 = CC_DESIGN_PERSON_AND_ORGANIZATION_ASSIGNMENT ( #374, #269, ( #254 ) ) ;
#323 = PERSON_AND_ORGANIZATION ( #260, #83 ) ;
#324 = ORIENTED_EDGE ( 'NONE', *, *, #307, .T. ) ;
#325 = DIRECTION ( 'NONE',  ( 0.0000000000000000000, 1.000000000000000000, 0.0000000000000000000 ) ) ;
#326 = ADVANCED_FACE ( 'NONE', ( #60 ), #127, .T. ) ;
#327 = DIRECTION ( 'NONE',  ( 0.0000000000000000000, 0.0000000000000000000, 1.000000000000000000 ) ) ;
#328 = DIRECTION ( 'NONE',  ( 0.0000000000000000000, 1.000000000000000000, 0.0000000000000000000 ) ) ;
#329 = EDGE_CURVE ( 'NONE', #9, #154, #212, .T. ) ;
#330 = DIRECTION ( 'NONE',  ( 0.0000000000000000000, 1.000000000000000000, 0.0000000000000000000 ) ) ;
#331 = EDGE_CURVE ( 'NONE', #213, #303, #93, .T. ) ;
#332 = ADVANCED_FACE ( 'NONE', ( #159 ), #257, .T. ) ;
#333 = DIRECTION ( 'NONE',  ( 1.217027282215288000E-016, -1.000000000000000000, 0.0000000000000000000 ) ) ;
#334 = CARTESIAN_POINT ( 'NONE',  ( 1.000000000000000000, 0.0000000000000000000, 0.0000000000000000000 ) ) ;
#335 = CIRCLE ( 'NONE', #120, 7.143749999999999800 ) ;
#336 = EDGE_LOOP ( 'NONE', ( #118, #150, #272, #284 ) ) ;
#337 = PERSON_AND_ORGANIZATION_ROLE ( 'design_owner' ) ;
#338 = DATE_TIME_ROLE ( 'classification_date' ) ;
#339 = AXIS2_PLACEMENT_3D ( 'NONE', #194, #133, #361 ) ;
#340 = EDGE_LOOP ( 'NONE', ( #246, #275 ) ) ;
#341 = CLOSED_SHELL ( 'NONE', ( #169, #261, #199, #12 ) ) ;
#342 = LINE ( 'NONE', #39, #25 ) ;
#343 = AXIS2_PLACEMENT_3D ( 'NONE', #354, #158, #383 ) ;
#344 = ORIENTED_EDGE ( 'NONE', *, *, #376, .F. ) ;
#345 = DIRECTION ( 'NONE',  ( -1.000000000000000000, -0.0000000000000000000, -0.0000000000000000000 ) ) ;
#346 = ORIENTED_EDGE ( 'NONE', *, *, #148, .F. ) ;
#347 = CC_DESIGN_PERSON_AND_ORGANIZATION_ASSIGNMENT ( #281, #82, ( #254 ) ) ;
#348 = EDGE_CURVE ( 'NONE', #202, #366, #384, .T. ) ;
#349 = DIRECTION ( 'NONE',  ( 1.000000000000000000, 1.217027282215288300E-016, -0.0000000000000000000 ) ) ;
#350 = EDGE_CURVE ( 'NONE', #81, #90, #399, .T. ) ;
#351 = LOCAL_TIME ( 10, 44, 55.00000000000000000, #24 ) ;
#352 = LINE ( 'NONE', #137, #117 ) ;
#353 = VERTEX_POINT ( 'NONE', #259 ) ;
#354 = CARTESIAN_POINT ( 'NONE',  ( 0.9999999999999991100, -1.053105404447370100E-031, 0.0000000000000000000 ) ) ;
#355 = AXIS2_PLACEMENT_3D ( 'NONE', #44, #164, #75 ) ;
#356 = DIRECTION ( 'NONE',  ( 1.000000000000000000, 1.217027282215288300E-016, -0.0000000000000000000 ) ) ;
#357 = CIRCLE ( 'NONE', #6, 7.143749999999999800 ) ;
#358 = ORIENTED_EDGE ( 'NONE', *, *, #376, .T. ) ;
#359 = PLANE ( 'NONE',  #141 ) ;
#360 = DIRECTION ( 'NONE',  ( 1.000000000000000000, 1.217027282215288300E-016, -0.0000000000000000000 ) ) ;
#361 = DIRECTION ( 'NONE',  ( 1.217027282215288300E-016, -1.000000000000000000, 0.0000000000000000000 ) ) ;
#362 = CARTESIAN_POINT ( 'NONE',  ( 0.0000000000000000000, 0.0000000000000000000, 0.0000000000000000000 ) ) ;
#363 = ADVANCED_FACE ( 'NONE', ( #287 ), #277, .F. ) ;
#364 = CALENDAR_DATE ( 2023, 19, 5 ) ;
#365 = CIRCLE ( 'NONE', #316, 6.349999999999999600 ) ;
#366 = VERTEX_POINT ( 'NONE', #171 ) ;
#367 = DIRECTION ( 'NONE',  ( 0.0000000000000000000, 0.0000000000000000000, 1.000000000000000000 ) ) ;
#368 = AXIS2_PLACEMENT_3D ( 'NONE', #188, #349, #298 ) ;
#369 = APPLICATION_PROTOCOL_DEFINITION ( 'international standard', 'config_control_design', 1994, #140 ) ;
#370 = APPROVAL_ROLE ( '' ) ;
#371 = EDGE_LOOP ( 'NONE', ( #122, #241, #267, #128 ) ) ;
#372 = SECURITY_CLASSIFICATION ( '', '', #302 ) ;
#373 = EDGE_CURVE ( 'NONE', #154, #9, #53, .T. ) ;
#374 = PERSON_AND_ORGANIZATION ( #260, #83 ) ;
#375 = VECTOR ( 'NONE', #286, 1000.000000000000000 ) ;
#376 = EDGE_CURVE ( 'NONE', #90, #303, #121, .T. ) ;
#377 = DIRECTION ( 'NONE',  ( -1.214154663850783700E-016, 1.000000000000000000, 0.0000000000000000000 ) ) ;
#378 = AXIS2_PLACEMENT_3D ( 'NONE', #263, #78, #297 ) ;
#379 = ORIENTED_EDGE ( 'NONE', *, *, #348, .F. ) ;
#380 = COORDINATED_UNIVERSAL_TIME_OFFSET ( 9, 0, .AHEAD. ) ;
#381 = FACE_OUTER_BOUND ( 'NONE', #237, .T. ) ;
#382 = DIRECTION ( 'NONE',  ( 0.0000000000000000000, 1.000000000000000000, 0.0000000000000000000 ) ) ;
#383 = DIRECTION ( 'NONE',  ( -1.214154663850783700E-016, 1.000000000000000000, 0.0000000000000000000 ) ) ;
#384 = LINE ( 'NONE', #389, #301 ) ;
#385 = VERTEX_POINT ( 'NONE', #105 ) ;
#386 = DIRECTION ( 'NONE',  ( 1.000000000000000000, 1.217027282215288300E-016, -0.0000000000000000000 ) ) ;
#387 = CC_DESIGN_PERSON_AND_ORGANIZATION_ASSIGNMENT ( #198, #113, ( #372 ) ) ;
#388 = CARTESIAN_POINT ( 'NONE',  ( 0.9999999999999991100, 6.349999999999999600, 0.0000000000000000000 ) ) ;
#389 = CARTESIAN_POINT ( 'NONE',  ( 1.000000000000000900, -7.143749999999999800, 8.748570571408905200E-016 ) ) ;
#390 = LOCAL_TIME ( 10, 44, 55.00000000000000000, #63 ) ;
#391 = CIRCLE ( 'NONE', #186, 7.143749999999999800 ) ;
#392 = DIRECTION ( 'NONE',  ( 1.000000000000000000, 1.217027282215288300E-016, -0.0000000000000000000 ) ) ;
#393 = ADVANCED_FACE ( 'NONE', ( #190 ), #271, .F. ) ;
#394 = DIRECTION ( 'NONE',  ( 0.7071067811865506800, -0.7071067811865443500, 8.659560562354895900E-017 ) ) ;
#395 = EDGE_CURVE ( 'NONE', #9, #385, #206, .T. ) ;
#396 = PRODUCT ( '03-2066', '03-2066', '', ( #112 ) ) ;
#397 = CARTESIAN_POINT ( 'NONE',  ( 0.9999999999999983300, 7.143749999999999800, 0.0000000000000000000 ) ) ;
#398 =( NAMED_UNIT ( * ) PLANE_ANGLE_UNIT ( ) SI_UNIT ( $, .RADIAN. ) );
#399 = CIRCLE ( 'NONE', #311, 6.050000000000000700 ) ;
#400 = APPROVAL_ROLE ( '' ) ;
#401 = VERTEX_POINT ( 'NONE', #397 ) ;
#402 = AXIS2_PLACEMENT_3D ( 'NONE', #14, #138, #333 ) ;
#403 = CALENDAR_DATE ( 2023, 19, 5 ) ;
#404 = ORIENTED_EDGE ( 'NONE', *, *, #23, .T. ) ;
#405 = ORIENTED_EDGE ( 'NONE', *, *, #412, .F. ) ;
#406 = AXIS2_PLACEMENT_3D ( 'NONE', #132, #360, #167 ) ;
#407 = LINE ( 'NONE', #119, #149 ) ;
#408 = ORIENTED_EDGE ( 'NONE', *, *, #395, .T. ) ;
#409 = PERSON_AND_ORGANIZATION ( #260, #83 ) ;
#410 = CC_DESIGN_DATE_AND_TIME_ASSIGNMENT ( #273, #338, ( #372 ) ) ;
#411 = ORIENTED_EDGE ( 'NONE', *, *, #155, .T. ) ;
#412 = EDGE_CURVE ( 'NONE', #353, #385, #357, .T. ) ;
#413 = ADVANCED_BREP_SHAPE_REPRESENTATION ( '03-2066', ( #217, #76, #114 ), #29 ) ;
ENDSEC;
END-ISO-10303-21;
