ISO-10303-21;
HEADER;
FILE_DESCRIPTION (( 'STEP AP203' ),
    '1' );
FILE_NAME ('03-2067.STEP',
    '2023-05-19T01:51:48',
    ( 'USER' ),
    ( 'Hewlett-Packard Company' ),
    'SwSTEP 2.0',
    'SolidWorks 2014',
    '' );
FILE_SCHEMA (( 'CONFIG_CONTROL_DESIGN' ));
ENDSEC;

DATA;
#1 = ADVANCED_BREP_SHAPE_REPRESENTATION ( '03-2067', ( #63, #172, #148 ), #88 ) ;
#2 = LINE ( 'NONE', #273, #236 ) ;
#3 = EDGE_LOOP ( 'NONE', ( #106, #278, #50, #45 ) ) ;
#4 = DIRECTION ( 'NONE',  ( 0.0000000000000000000, 0.0000000000000000000, 1.000000000000000000 ) ) ;
#5 = CARTESIAN_POINT ( 'NONE',  ( 1.000000000000000000, 0.0000000000000000000, 0.0000000000000000000 ) ) ;
#6 = DESIGN_CONTEXT ( 'detailed design', #226, 'design' ) ;
#7 = DIRECTION ( 'NONE',  ( 0.0000000000000000000, 0.0000000000000000000, 1.000000000000000000 ) ) ;
#8 = AXIS2_PLACEMENT_3D ( 'NONE', #165, #210, #285 ) ;
#9 = PERSON_AND_ORGANIZATION ( #14, #279 ) ;
#10 = CARTESIAN_POINT ( 'NONE',  ( 1.000000000000000000, 0.0000000000000000000, 0.0000000000000000000 ) ) ;
#11 = APPLICATION_CONTEXT ( 'configuration controlled 3d designs of mechanical parts and assemblies' ) ;
#12 = EDGE_CURVE ( 'NONE', #149, #310, #209, .T. ) ;
#13 = PERSON_AND_ORGANIZATION_ROLE ( 'creator' ) ;
#14 = PERSON ( 'UNSPECIFIED', 'UNSPECIFIED', 'UNSPECIFIED', ('UNSPECIFIED'), ('UNSPECIFIED'), ('UNSPECIFIED') ) ;
#15 = ADVANCED_FACE ( 'NONE', ( #27 ), #70, .F. ) ;
#16 = CC_DESIGN_PERSON_AND_ORGANIZATION_ASSIGNMENT ( #125, #181, ( #258 ) ) ;
#17 = LINE ( 'NONE', #144, #134 ) ;
#18 = EDGE_LOOP ( 'NONE', ( #65, #42, #31, #231 ) ) ;
#19 = PERSON_AND_ORGANIZATION ( #14, #279 ) ;
#20 = EDGE_CURVE ( 'NONE', #267, #280, #221, .T. ) ;
#21 = AXIS2_PLACEMENT_3D ( 'NONE', #222, #152, #4 ) ;
#22 = DIRECTION ( 'NONE',  ( 1.000000000000000000, 1.195655236086158700E-016, -0.0000000000000000000 ) ) ;
#23 = CIRCLE ( 'NONE', #218, 7.937500000000001800 ) ;
#24 = EDGE_LOOP ( 'NONE', ( #237, #154 ) ) ;
#25 = CARTESIAN_POINT ( 'NONE',  ( -52.67499999999999000, -7.937500000000008900, 9.720633968232122100E-016 ) ) ;
#26 = COORDINATED_UNIVERSAL_TIME_OFFSET ( 9, 0, .AHEAD. ) ;
#27 = FACE_OUTER_BOUND ( 'NONE', #161, .T. ) ;
#28 = DIRECTION ( 'NONE',  ( 1.000000000000000000, 1.195655236086158700E-016, -0.0000000000000000000 ) ) ;
#29 = DIRECTION ( 'NONE',  ( -0.0000000000000000000, 0.0000000000000000000, 1.000000000000000000 ) ) ;
#30 = EDGE_CURVE ( 'NONE', #90, #168, #235, .T. ) ;
#31 = ORIENTED_EDGE ( 'NONE', *, *, #159, .T. ) ;
#32 = SECURITY_CLASSIFICATION ( '', '', #39 ) ;
#33 = CARTESIAN_POINT ( 'NONE',  ( 42.27499999999999900, 0.0000000000000000000, 0.0000000000000000000 ) ) ;
#34 = ORIENTED_EDGE ( 'NONE', *, *, #176, .T. ) ;
#35 = DIRECTION ( 'NONE',  ( -1.000000000000000000, -0.0000000000000000000, -0.0000000000000000000 ) ) ;
#36 = DIRECTION ( 'NONE',  ( 0.0000000000000000000, 0.0000000000000000000, 1.000000000000000000 ) ) ;
#37 = DIRECTION ( 'NONE',  ( 1.000000000000000000, 0.0000000000000000000, 0.0000000000000000000 ) ) ;
#38 = AXIS2_PLACEMENT_3D ( 'NONE', #296, #155, #7 ) ;
#39 = SECURITY_CLASSIFICATION_LEVEL ( 'unclassified' ) ;
#40 = CLOSED_SHELL ( 'NONE', ( #133, #230, #15, #61 ) ) ;
#41 = ADVANCED_FACE ( 'NONE', ( #104 ), #91, .T. ) ;
#42 = ORIENTED_EDGE ( 'NONE', *, *, #30, .T. ) ;
#43 = AXIS2_PLACEMENT_3D ( 'NONE', #46, #213, #283 ) ;
#44 = DATE_AND_TIME ( #110, #171 ) ;
#45 = ORIENTED_EDGE ( 'NONE', *, *, #303, .F. ) ;
#46 = CARTESIAN_POINT ( 'NONE',  ( 0.9999999999999988900, -1.198659399773085800E-031, 0.0000000000000000000 ) ) ;
#47 = CC_DESIGN_PERSON_AND_ORGANIZATION_ASSIGNMENT ( #58, #203, ( #32 ) ) ;
#48 = DIRECTION ( 'NONE',  ( 1.000000000000000000, 1.195655236086158700E-016, -0.0000000000000000000 ) ) ;
#49 = SHAPE_DEFINITION_REPRESENTATION ( #186, #1 ) ;
#50 = ORIENTED_EDGE ( 'NONE', *, *, #287, .F. ) ;
#51 = CARTESIAN_POINT ( 'NONE',  ( 1.000000000000000900, -7.937500000000000000, 9.720633968232116200E-016 ) ) ;
#52 = PERSON_AND_ORGANIZATION ( #14, #279 ) ;
#53 = AXIS2_PLACEMENT_3D ( 'NONE', #5, #295, #175 ) ;
#54 = VERTEX_POINT ( 'NONE', #305 ) ;
#55 = DIRECTION ( 'NONE',  ( 0.0000000000000000000, 0.0000000000000000000, 1.000000000000000000 ) ) ;
#56 = DIRECTION ( 'NONE',  ( 0.0000000000000000000, 1.000000000000000000, 0.0000000000000000000 ) ) ;
#57 = AXIS2_PLACEMENT_3D ( 'NONE', #257, #95, #256 ) ;
#58 = PERSON_AND_ORGANIZATION ( #14, #279 ) ;
#59 = PERSON_AND_ORGANIZATION_ROLE ( 'design_owner' ) ;
#60 = DATE_TIME_ROLE ( 'classification_date' ) ;
#61 = ADVANCED_FACE ( 'NONE', ( #268 ), #311, .F. ) ;
#62 = CC_DESIGN_DATE_AND_TIME_ASSIGNMENT ( #119, #60, ( #32 ) ) ;
#63 = MANIFOLD_SOLID_BREP ( 'È¸Àü3', #40 ) ;
#64 = CIRCLE ( 'NONE', #69, 7.937500000000000000 ) ;
#65 = ORIENTED_EDGE ( 'NONE', *, *, #145, .F. ) ;
#66 = CALENDAR_DATE ( 2023, 19, 5 ) ;
#67 = CARTESIAN_POINT ( 'NONE',  ( 0.0000000000000000000, 0.0000000000000000000, 0.0000000000000000000 ) ) ;
#68 = CARTESIAN_POINT ( 'NONE',  ( 42.27499999999999900, 0.0000000000000000000, 0.0000000000000000000 ) ) ;
#69 = AXIS2_PLACEMENT_3D ( 'NONE', #10, #178, #36 ) ;
#70 = PLANE ( 'NONE',  #57 ) ;
#71 = FACE_OUTER_BOUND ( 'NONE', #190, .T. ) ;
#72 = ORIENTED_EDGE ( 'NONE', *, *, #12, .T. ) ;
#73 = CARTESIAN_POINT ( 'NONE',  ( -52.97499999999999400, -7.637500000000005500, 9.536936948360011900E-016 ) ) ;
#74 = AXIS2_PLACEMENT_3D ( 'NONE', #143, #308, #167 ) ;
#75 = CARTESIAN_POINT ( 'NONE',  ( 0.9999999999999988900, -1.198659399773085800E-031, 0.0000000000000000000 ) ) ;
#76 = DATE_AND_TIME ( #136, #199 ) ;
#77 = PLANE ( 'NONE',  #169 ) ;
#78 = CIRCLE ( 'NONE', #282, 7.937500000000000000 ) ;
#79 = APPROVAL ( #228, 'UNSPECIFIED' ) ;
#80 = EDGE_LOOP ( 'NONE', ( #205, #122 ) ) ;
#81 = LINE ( 'NONE', #51, #113 ) ;
#82 = DIRECTION ( 'NONE',  ( 0.7071067811865465700, -0.7071067811865483500, 8.659560562354945200E-017 ) ) ;
#83 = CARTESIAN_POINT ( 'NONE',  ( 1.000000000000000000, 0.0000000000000000000, 0.0000000000000000000 ) ) ;
#84 = APPROVAL_DATE_TIME ( #147, #195 ) ;
#85 = FACE_OUTER_BOUND ( 'NONE', #163, .T. ) ;
#86 = DIRECTION ( 'NONE',  ( -1.000000000000000000, -0.0000000000000000000, -0.0000000000000000000 ) ) ;
#87 = APPLICATION_PROTOCOL_DEFINITION ( 'international standard', 'config_control_design', 1994, #226 ) ;
#88 =( GEOMETRIC_REPRESENTATION_CONTEXT ( 3 ) GLOBAL_UNCERTAINTY_ASSIGNED_CONTEXT ( ( #120 ) ) GLOBAL_UNIT_ASSIGNED_CONTEXT ( ( #248, #109, #274 ) ) REPRESENTATION_CONTEXT ( 'NONE', 'WORKASPACE' ) );
#89 = APPROVAL_ROLE ( '' ) ;
#90 = VERTEX_POINT ( 'NONE', #25 ) ;
#91 = CYLINDRICAL_SURFACE ( 'NONE', #124, 7.937500000000000000 ) ;
#92 = APPROVAL_PERSON_ORGANIZATION ( #153, #195, #111 ) ;
#93 = ORIENTED_EDGE ( 'NONE', *, *, #30, .F. ) ;
#94 = DIRECTION ( 'NONE',  ( -1.000000000000000000, -1.195655236086158700E-016, 0.0000000000000000000 ) ) ;
#95 = DIRECTION ( 'NONE',  ( 1.000000000000000000, 0.0000000000000000000, 0.0000000000000000000 ) ) ;
#96 = ORIENTED_EDGE ( 'NONE', *, *, #207, .T. ) ;
#97 = FACE_OUTER_BOUND ( 'NONE', #3, .T. ) ;
#98 = CC_DESIGN_APPROVAL ( #79, ( #32 ) ) ;
#99 = DIRECTION ( 'NONE',  ( 1.000000000000000000, 1.195655236086158700E-016, -0.0000000000000000000 ) ) ;
#100 = VERTEX_POINT ( 'NONE', #234 ) ;
#101 = DIRECTION ( 'NONE',  ( 1.000000000000000000, 1.195655236086158700E-016, -0.0000000000000000000 ) ) ;
#102 = CARTESIAN_POINT ( 'NONE',  ( -52.97499999999999400, -6.453549136775041400E-015, 0.0000000000000000000 ) ) ;
#103 = ORIENTED_EDGE ( 'NONE', *, *, #176, .F. ) ;
#104 = FACE_OUTER_BOUND ( 'NONE', #18, .T. ) ;
#105 = DIRECTION ( 'NONE',  ( 0.0000000000000000000, 0.0000000000000000000, 1.000000000000000000 ) ) ;
#106 = ORIENTED_EDGE ( 'NONE', *, *, #254, .T. ) ;
#107 = CARTESIAN_POINT ( 'NONE',  ( 0.0000000000000000000, 9.720633968232120100E-016, -7.937500000000003600 ) ) ;
#108 = CARTESIAN_POINT ( 'NONE',  ( 42.27499999999999900, 9.720633968232124100E-016, -7.937500000000007100 ) ) ;
#109 =( NAMED_UNIT ( * ) PLANE_ANGLE_UNIT ( ) SI_UNIT ( $, .RADIAN. ) );
#110 = CALENDAR_DATE ( 2023, 19, 5 ) ;
#111 = APPROVAL_ROLE ( '' ) ;
#112 = ORIENTED_EDGE ( 'NONE', *, *, #151, .F. ) ;
#113 = VECTOR ( 'NONE', #193, 1000.000000000000000 ) ;
#114 = ADVANCED_FACE ( 'NONE', ( #206 ), #77, .T. ) ;
#115 = CC_DESIGN_SECURITY_CLASSIFICATION ( #32, ( #258 ) ) ;
#116 = CONICAL_SURFACE ( 'NONE', #298, 7.937500000000001800, 0.7853981633974497200 ) ;
#117 = EDGE_LOOP ( 'NONE', ( #34, #294, #112, #135 ) ) ;
#118 = DIRECTION ( 'NONE',  ( 0.7071067811865464600, 0.7071067811865486800, 0.0000000000000000000 ) ) ;
#119 = DATE_AND_TIME ( #179, #241 ) ;
#120 = UNCERTAINTY_MEASURE_WITH_UNIT (LENGTH_MEASURE( 1.000000000000000100E-005 ), #248, 'distance_accuracy_value', 'NONE');
#121 = VECTOR ( 'NONE', #35, 1000.000000000000000 ) ;
#122 = ORIENTED_EDGE ( 'NONE', *, *, #20, .T. ) ;
#123 = PLANE ( 'NONE',  #265 ) ;
#124 = AXIS2_PLACEMENT_3D ( 'NONE', #306, #22, #139 ) ;
#125 = PERSON_AND_ORGANIZATION ( #14, #279 ) ;
#126 = PRODUCT_RELATED_PRODUCT_CATEGORY ( 'detail', '', ( #227 ) ) ;
#127 = CYLINDRICAL_SURFACE ( 'NONE', #21, 7.937500000000003600 ) ;
#128 = EDGE_LOOP ( 'NONE', ( #244, #286 ) ) ;
#129 = DIRECTION ( 'NONE',  ( 1.000000000000000000, 1.195655236086158700E-016, -0.0000000000000000000 ) ) ;
#130 = CARTESIAN_POINT ( 'NONE',  ( 0.0000000000000000000, 0.0000000000000000000, 0.0000000000000000000 ) ) ;
#131 = LOCAL_TIME ( 10, 51, 48.00000000000000000, #192 ) ;
#132 = DATE_TIME_ROLE ( 'creation_date' ) ;
#133 = ADVANCED_FACE ( 'NONE', ( #97 ), #292, .T. ) ;
#134 = VECTOR ( 'NONE', #82, 1000.000000000000100 ) ;
#135 = ORIENTED_EDGE ( 'NONE', *, *, #159, .F. ) ;
#136 = CALENDAR_DATE ( 2023, 19, 5 ) ;
#137 = AXIS2_PLACEMENT_3D ( 'NONE', #68, #170, #29 ) ;
#138 = CARTESIAN_POINT ( 'NONE',  ( 0.9999999999999986700, 7.937500000000000000, 0.0000000000000000000 ) ) ;
#139 = DIRECTION ( 'NONE',  ( -1.092739197465705300E-016, 1.000000000000000000, 0.0000000000000000000 ) ) ;
#140 = FACE_OUTER_BOUND ( 'NONE', #80, .T. ) ;
#141 = CLOSED_SHELL ( 'NONE', ( #160, #251, #114, #182, #41, #276 ) ) ;
#142 = LINE ( 'NONE', #281, #204 ) ;
#143 = CARTESIAN_POINT ( 'NONE',  ( -52.67499999999999000, -6.417679479692455400E-015, 0.0000000000000000000 ) ) ;
#144 = CARTESIAN_POINT ( 'NONE',  ( -52.67499999999999000, -7.937500000000008900, 9.720633968232118200E-016 ) ) ;
#145 = EDGE_CURVE ( 'NONE', #90, #267, #81, .T. ) ;
#146 = DIRECTION ( 'NONE',  ( 0.0000000000000000000, 1.000000000000000000, 0.0000000000000000000 ) ) ;
#147 = DATE_AND_TIME ( #208, #272 ) ;
#148 = AXIS2_PLACEMENT_3D ( 'NONE', #130, #180, #37 ) ;
#149 = VERTEX_POINT ( 'NONE', #73 ) ;
#150 = CIRCLE ( 'NONE', #187, 7.937500000000000000 ) ;
#151 = EDGE_CURVE ( 'NONE', #280, #267, #150, .T. ) ;
#152 = DIRECTION ( 'NONE',  ( -1.000000000000000000, -0.0000000000000000000, -0.0000000000000000000 ) ) ;
#153 = PERSON_AND_ORGANIZATION ( #14, #279 ) ;
#154 = ORIENTED_EDGE ( 'NONE', *, *, #12, .F. ) ;
#155 = DIRECTION ( 'NONE',  ( -1.000000000000000000, -0.0000000000000000000, -0.0000000000000000000 ) ) ;
#156 = CARTESIAN_POINT ( 'NONE',  ( -52.97499999999999400, 7.637499999999993100, 0.0000000000000000000 ) ) ;
#157 = AXIS2_PLACEMENT_3D ( 'NONE', #288, #219, #146 ) ;
#158 = APPROVAL_ROLE ( '' ) ;
#159 = EDGE_CURVE ( 'NONE', #168, #280, #201, .T. ) ;
#160 = ADVANCED_FACE ( 'NONE', ( #85 ), #266, .T. ) ;
#161 = EDGE_LOOP ( 'NONE', ( #223, #212 ) ) ;
#162 = EDGE_CURVE ( 'NONE', #310, #168, #142, .T. ) ;
#163 = EDGE_LOOP ( 'NONE', ( #302, #96, #103, #260 ) ) ;
#164 = CARTESIAN_POINT ( 'NONE',  ( -52.67499999999999000, 7.937499999999994700, 0.0000000000000000000 ) ) ;
#165 = CARTESIAN_POINT ( 'NONE',  ( -52.97499999999999400, -6.453549136775040600E-015, 0.0000000000000000000 ) ) ;
#166 = CC_DESIGN_PERSON_AND_ORGANIZATION_ASSIGNMENT ( #215, #59, ( #227 ) ) ;
#167 = DIRECTION ( 'NONE',  ( 0.0000000000000000000, 1.000000000000000000, 0.0000000000000000000 ) ) ;
#168 = VERTEX_POINT ( 'NONE', #164 ) ;
#169 = AXIS2_PLACEMENT_3D ( 'NONE', #102, #94, #232 ) ;
#170 = DIRECTION ( 'NONE',  ( -1.000000000000000000, 0.0000000000000000000, -0.0000000000000000000 ) ) ;
#171 = LOCAL_TIME ( 10, 51, 48.00000000000000000, #233 ) ;
#172 = MANIFOLD_SOLID_BREP ( 'È¸Àü4', #141 ) ;
#173 = CARTESIAN_POINT ( 'NONE',  ( 1.000000000000000000, 9.720633968232118200E-016, -7.937500000000000000 ) ) ;
#174 = ORIENTED_EDGE ( 'NONE', *, *, #162, .T. ) ;
#175 = DIRECTION ( 'NONE',  ( -1.092739197465705300E-016, 1.000000000000000000, 0.0000000000000000000 ) ) ;
#176 = EDGE_CURVE ( 'NONE', #168, #90, #23, .T. ) ;
#177 = DIRECTION ( 'NONE',  ( 1.000000000000000000, 1.195655236086158700E-016, -0.0000000000000000000 ) ) ;
#178 = DIRECTION ( 'NONE',  ( -1.000000000000000000, -0.0000000000000000000, -0.0000000000000000000 ) ) ;
#179 = CALENDAR_DATE ( 2023, 19, 5 ) ;
#180 = DIRECTION ( 'NONE',  ( 0.0000000000000000000, 0.0000000000000000000, 1.000000000000000000 ) ) ;
#181 = PERSON_AND_ORGANIZATION_ROLE ( 'design_supplier' ) ;
#182 = ADVANCED_FACE ( 'NONE', ( #140 ), #123, .T. ) ;
#183 = PRODUCT_DEFINITION ( 'UNKNOWN', '', #258, #6 ) ;
#184 = LINE ( 'NONE', #107, #121 ) ;
#185 = ORIENTED_EDGE ( 'NONE', *, *, #225, .F. ) ;
#186 = PRODUCT_DEFINITION_SHAPE ( 'NONE', 'NONE',  #183 ) ;
#187 = AXIS2_PLACEMENT_3D ( 'NONE', #75, #101, #262 ) ;
#188 = PERSON_AND_ORGANIZATION ( #14, #279 ) ;
#189 = FACE_OUTER_BOUND ( 'NONE', #117, .T. ) ;
#190 = EDGE_LOOP ( 'NONE', ( #197, #216, #290, #185 ) ) ;
#191 = EDGE_CURVE ( 'NONE', #310, #149, #259, .T. ) ;
#192 = COORDINATED_UNIVERSAL_TIME_OFFSET ( 9, 0, .AHEAD. ) ;
#193 = DIRECTION ( 'NONE',  ( 1.000000000000000000, 1.195655236086158700E-016, -0.0000000000000000000 ) ) ;
#194 = VECTOR ( 'NONE', #28, 1000.000000000000000 ) ;
#195 = APPROVAL ( #250, 'UNSPECIFIED' ) ;
#196 = FACE_OUTER_BOUND ( 'NONE', #253, .T. ) ;
#197 = ORIENTED_EDGE ( 'NONE', *, *, #271, .F. ) ;
#198 = DIRECTION ( 'NONE',  ( -1.000000000000000000, -0.0000000000000000000, -0.0000000000000000000 ) ) ;
#199 = LOCAL_TIME ( 10, 51, 48.00000000000000000, #263 ) ;
#200 = AXIS2_PLACEMENT_3D ( 'NONE', #67, #264, #240 ) ;
#201 = LINE ( 'NONE', #217, #194 ) ;
#202 = MECHANICAL_CONTEXT ( 'NONE', #11, 'mechanical' ) ;
#203 = PERSON_AND_ORGANIZATION_ROLE ( 'classification_officer' ) ;
#204 = VECTOR ( 'NONE', #118, 1000.000000000000000 ) ;
#205 = ORIENTED_EDGE ( 'NONE', *, *, #151, .T. ) ;
#206 = FACE_OUTER_BOUND ( 'NONE', #24, .T. ) ;
#207 = EDGE_CURVE ( 'NONE', #149, #90, #17, .T. ) ;
#208 = CALENDAR_DATE ( 2023, 19, 5 ) ;
#209 = CIRCLE ( 'NONE', #8, 7.637499999999999300 ) ;
#210 = DIRECTION ( 'NONE',  ( 1.000000000000000000, 1.195655236086158700E-016, -0.0000000000000000000 ) ) ;
#211 = CC_DESIGN_APPROVAL ( #195, ( #183 ) ) ;
#212 = ORIENTED_EDGE ( 'NONE', *, *, #225, .T. ) ;
#213 = DIRECTION ( 'NONE',  ( 1.000000000000000000, 1.195655236086158700E-016, -0.0000000000000000000 ) ) ;
#214 = DIRECTION ( 'NONE',  ( -1.195655236086158700E-016, 1.000000000000000000, 0.0000000000000000000 ) ) ;
#215 = PERSON_AND_ORGANIZATION ( #14, #279 ) ;
#216 = ORIENTED_EDGE ( 'NONE', *, *, #239, .T. ) ;
#217 = CARTESIAN_POINT ( 'NONE',  ( 0.9999999999999991100, 7.937500000000000000, 0.0000000000000000000 ) ) ;
#218 = AXIS2_PLACEMENT_3D ( 'NONE', #261, #99, #238 ) ;
#219 = DIRECTION ( 'NONE',  ( 1.000000000000000000, 1.195655236086158700E-016, -0.0000000000000000000 ) ) ;
#220 = VERTEX_POINT ( 'NONE', #173 ) ;
#221 = CIRCLE ( 'NONE', #43, 7.937500000000000000 ) ;
#222 = CARTESIAN_POINT ( 'NONE',  ( 0.0000000000000000000, 0.0000000000000000000, 0.0000000000000000000 ) ) ;
#223 = ORIENTED_EDGE ( 'NONE', *, *, #287, .T. ) ;
#224 = CARTESIAN_POINT ( 'NONE',  ( 0.9999999999999997800, -7.937500000000000000, 9.720633968232116200E-016 ) ) ;
#225 = EDGE_CURVE ( 'NONE', #220, #54, #78, .T. ) ;
#226 = APPLICATION_CONTEXT ( 'configuration controlled 3d designs of mechanical parts and assemblies' ) ;
#227 = PRODUCT ( '03-2067', '03-2067', '', ( #202 ) ) ;
#228 = APPROVAL_STATUS ( 'not_yet_approved' ) ;
#229 = CC_DESIGN_PERSON_AND_ORGANIZATION_ASSIGNMENT ( #19, #275, ( #183 ) ) ;
#230 = ADVANCED_FACE ( 'NONE', ( #71 ), #127, .T. ) ;
#231 = ORIENTED_EDGE ( 'NONE', *, *, #20, .F. ) ;
#232 = DIRECTION ( 'NONE',  ( 1.195655236086158700E-016, -1.000000000000000000, 0.0000000000000000000 ) ) ;
#233 = COORDINATED_UNIVERSAL_TIME_OFFSET ( 9, 0, .AHEAD. ) ;
#234 = CARTESIAN_POINT ( 'NONE',  ( 42.27499999999999900, 0.0000000000000000000, 7.937500000000007100 ) ) ;
#235 = CIRCLE ( 'NONE', #74, 7.937500000000001800 ) ;
#236 = VECTOR ( 'NONE', #86, 1000.000000000000000 ) ;
#237 = ORIENTED_EDGE ( 'NONE', *, *, #191, .F. ) ;
#238 = DIRECTION ( 'NONE',  ( 0.0000000000000000000, 1.000000000000000000, 0.0000000000000000000 ) ) ;
#239 = EDGE_CURVE ( 'NONE', #284, #100, #252, .T. ) ;
#240 = DIRECTION ( 'NONE',  ( 0.0000000000000000000, 0.0000000000000000000, 1.000000000000000000 ) ) ;
#241 = LOCAL_TIME ( 10, 51, 48.00000000000000000, #304 ) ;
#242 = CC_DESIGN_DATE_AND_TIME_ASSIGNMENT ( #76, #132, ( #183 ) ) ;
#243 = CYLINDRICAL_SURFACE ( 'NONE', #53, 7.937500000000000000 ) ;
#244 = ORIENTED_EDGE ( 'NONE', *, *, #254, .F. ) ;
#245 = DIRECTION ( 'NONE',  ( -1.000000000000000000, -0.0000000000000000000, -0.0000000000000000000 ) ) ;
#246 = CARTESIAN_POINT ( 'NONE',  ( 0.9999999999999981100, 7.937500000000000000, 0.0000000000000000000 ) ) ;
#247 = APPROVAL_DATE_TIME ( #312, #277 ) ;
#248 =( LENGTH_UNIT ( ) NAMED_UNIT ( * ) SI_UNIT ( .MILLI., .METRE. ) );
#249 = AXIS2_PLACEMENT_3D ( 'NONE', #269, #129, #293 ) ;
#250 = APPROVAL_STATUS ( 'not_yet_approved' ) ;
#251 = ADVANCED_FACE ( 'NONE', ( #189 ), #243, .T. ) ;
#252 = CIRCLE ( 'NONE', #313, 7.937500000000007100 ) ;
#253 = EDGE_LOOP ( 'NONE', ( #300, #72, #174, #93 ) ) ;
#254 = EDGE_CURVE ( 'NONE', #100, #284, #309, .T. ) ;
#255 = APPROVAL_PERSON_ORGANIZATION ( #9, #277, #158 ) ;
#256 = DIRECTION ( 'NONE',  ( 0.0000000000000000000, 0.0000000000000000000, -1.000000000000000000 ) ) ;
#257 = CARTESIAN_POINT ( 'NONE',  ( 1.000000000000000400, 1.092739197465706200E-016, 0.0000000000000000000 ) ) ;
#258 = PRODUCT_DEFINITION_FORMATION_WITH_SPECIFIED_SOURCE ( 'ANY', '', #227, .NOT_KNOWN. ) ;
#259 = CIRCLE ( 'NONE', #249, 7.637499999999999300 ) ;
#260 = ORIENTED_EDGE ( 'NONE', *, *, #162, .F. ) ;
#261 = CARTESIAN_POINT ( 'NONE',  ( -52.67499999999999000, -6.417679479692455400E-015, 0.0000000000000000000 ) ) ;
#262 = DIRECTION ( 'NONE',  ( -1.092739197465705300E-016, 1.000000000000000000, 0.0000000000000000000 ) ) ;
#263 = COORDINATED_UNIVERSAL_TIME_OFFSET ( 9, 0, .AHEAD. ) ;
#264 = DIRECTION ( 'NONE',  ( -1.000000000000000000, -0.0000000000000000000, -0.0000000000000000000 ) ) ;
#265 = AXIS2_PLACEMENT_3D ( 'NONE', #138, #48, #214 ) ;
#266 = CONICAL_SURFACE ( 'NONE', #157, 7.937500000000001800, 0.7853981633974497200 ) ;
#267 = VERTEX_POINT ( 'NONE', #224 ) ;
#268 = FACE_OUTER_BOUND ( 'NONE', #128, .T. ) ;
#269 = CARTESIAN_POINT ( 'NONE',  ( -52.97499999999999400, -6.453549136775040600E-015, 0.0000000000000000000 ) ) ;
#270 = CARTESIAN_POINT ( 'NONE',  ( -52.67499999999999000, -6.417679479692455400E-015, 0.0000000000000000000 ) ) ;
#271 = EDGE_CURVE ( 'NONE', #284, #220, #184, .T. ) ;
#272 = LOCAL_TIME ( 10, 51, 48.00000000000000000, #26 ) ;
#273 = CARTESIAN_POINT ( 'NONE',  ( 0.0000000000000000000, 0.0000000000000000000, 7.937500000000003600 ) ) ;
#274 =( NAMED_UNIT ( * ) SI_UNIT ( $, .STERADIAN. ) SOLID_ANGLE_UNIT ( ) );
#275 = PERSON_AND_ORGANIZATION_ROLE ( 'creator' ) ;
#276 = ADVANCED_FACE ( 'NONE', ( #196 ), #116, .T. ) ;
#277 = APPROVAL ( #301, 'UNSPECIFIED' ) ;
#278 = ORIENTED_EDGE ( 'NONE', *, *, #271, .T. ) ;
#279 = ORGANIZATION ( 'UNSPECIFIED', 'UNSPECIFIED', '' ) ;
#280 = VERTEX_POINT ( 'NONE', #246 ) ;
#281 = CARTESIAN_POINT ( 'NONE',  ( -52.67499999999999000, 7.937499999999994700, 0.0000000000000000000 ) ) ;
#282 = AXIS2_PLACEMENT_3D ( 'NONE', #83, #245, #105 ) ;
#283 = DIRECTION ( 'NONE',  ( -1.092739197465705300E-016, 1.000000000000000000, 0.0000000000000000000 ) ) ;
#284 = VERTEX_POINT ( 'NONE', #108 ) ;
#285 = DIRECTION ( 'NONE',  ( 0.0000000000000000000, 1.000000000000000000, 0.0000000000000000000 ) ) ;
#286 = ORIENTED_EDGE ( 'NONE', *, *, #239, .F. ) ;
#287 = EDGE_CURVE ( 'NONE', #54, #220, #64, .T. ) ;
#288 = CARTESIAN_POINT ( 'NONE',  ( -52.67499999999999000, -6.417679479692455400E-015, 0.0000000000000000000 ) ) ;
#289 = APPROVAL_DATE_TIME ( #44, #79 ) ;
#290 = ORIENTED_EDGE ( 'NONE', *, *, #303, .T. ) ;
#291 = CC_DESIGN_APPROVAL ( #277, ( #258 ) ) ;
#292 = CYLINDRICAL_SURFACE ( 'NONE', #200, 7.937500000000003600 ) ;
#293 = DIRECTION ( 'NONE',  ( 0.0000000000000000000, 1.000000000000000000, 0.0000000000000000000 ) ) ;
#294 = ORIENTED_EDGE ( 'NONE', *, *, #145, .T. ) ;
#295 = DIRECTION ( 'NONE',  ( 1.000000000000000000, 1.195655236086158700E-016, -0.0000000000000000000 ) ) ;
#296 = CARTESIAN_POINT ( 'NONE',  ( 42.27499999999999900, 0.0000000000000000000, 0.0000000000000000000 ) ) ;
#297 = APPLICATION_PROTOCOL_DEFINITION ( 'international standard', 'config_control_design', 1994, #11 ) ;
#298 = AXIS2_PLACEMENT_3D ( 'NONE', #270, #177, #56 ) ;
#299 = APPROVAL_PERSON_ORGANIZATION ( #52, #79, #89 ) ;
#300 = ORIENTED_EDGE ( 'NONE', *, *, #207, .F. ) ;
#301 = APPROVAL_STATUS ( 'not_yet_approved' ) ;
#302 = ORIENTED_EDGE ( 'NONE', *, *, #191, .T. ) ;
#303 = EDGE_CURVE ( 'NONE', #100, #54, #2, .T. ) ;
#304 = COORDINATED_UNIVERSAL_TIME_OFFSET ( 9, 0, .AHEAD. ) ;
#305 = CARTESIAN_POINT ( 'NONE',  ( 1.000000000000000000, 0.0000000000000000000, 7.937500000000000000 ) ) ;
#306 = CARTESIAN_POINT ( 'NONE',  ( 1.000000000000000000, 0.0000000000000000000, 0.0000000000000000000 ) ) ;
#307 = CC_DESIGN_PERSON_AND_ORGANIZATION_ASSIGNMENT ( #188, #13, ( #258 ) ) ;
#308 = DIRECTION ( 'NONE',  ( 1.000000000000000000, 1.195655236086158700E-016, -0.0000000000000000000 ) ) ;
#309 = CIRCLE ( 'NONE', #38, 7.937500000000007100 ) ;
#310 = VERTEX_POINT ( 'NONE', #156 ) ;
#311 = PLANE ( 'NONE',  #137 ) ;
#312 = DATE_AND_TIME ( #66, #131 ) ;
#313 = AXIS2_PLACEMENT_3D ( 'NONE', #33, #198, #55 ) ;
ENDSEC;
END-ISO-10303-21;
