ISO-10303-21;
HEADER;
FILE_DESCRIPTION (( 'STEP AP203' ),
    '1' );
FILE_NAME ('03-2069.STEP',
    '2023-05-19T01:45:30',
    ( 'USER' ),
    ( 'Hewlett-Packard Company' ),
    'SwSTEP 2.0',
    'SolidWorks 2014',
    '' );
FILE_SCHEMA (( 'CONFIG_CONTROL_DESIGN' ));
ENDSEC;

DATA;
#1 = CC_DESIGN_PERSON_AND_ORGANIZATION_ASSIGNMENT ( #180, #129, ( #349 ) ) ;
#2 = VERTEX_POINT ( 'NONE', #398 ) ;
#3 = CARTESIAN_POINT ( 'NONE',  ( 1.000000000000001600, 1.848952595132435000E-031, 0.0000000000000000000 ) ) ;
#4 = CARTESIAN_POINT ( 'NONE',  ( 1.000000000000000000, 0.0000000000000000000, 0.0000000000000000000 ) ) ;
#5 = EDGE_CURVE ( 'NONE', #104, #127, #136, .T. ) ;
#6 = CARTESIAN_POINT ( 'NONE',  ( 0.0000000000000000000, 0.0000000000000000000, 0.0000000000000000000 ) ) ;
#7 = FACE_OUTER_BOUND ( 'NONE', #142, .T. ) ;
#8 = APPROVAL_STATUS ( 'not_yet_approved' ) ;
#9 = EDGE_LOOP ( 'NONE', ( #273, #395, #411, #43 ) ) ;
#10 = AXIS2_PLACEMENT_3D ( 'NONE', #94, #278, #62 ) ;
#11 = ORIENTED_EDGE ( 'NONE', *, *, #196, .T. ) ;
#12 = CARTESIAN_POINT ( 'NONE',  ( -44.73749999999998300, 4.762499999999995700, 0.0000000000000000000 ) ) ;
#13 = DIRECTION ( 'NONE',  ( 1.000000000000000000, 1.248725001283619100E-016, -0.0000000000000000000 ) ) ;
#14 = LINE ( 'NONE', #403, #186 ) ;
#15 = CARTESIAN_POINT ( 'NONE',  ( -45.03749999999999400, -4.462500000000006600, 5.648683361067169800E-016 ) ) ;
#16 = ORIENTED_EDGE ( 'NONE', *, *, #74, .T. ) ;
#17 = AXIS2_PLACEMENT_3D ( 'NONE', #332, #44, #137 ) ;
#18 = PLANE ( 'NONE',  #189 ) ;
#19 = DIRECTION ( 'NONE',  ( -1.248725001283619100E-016, 1.000000000000000000, 0.0000000000000000000 ) ) ;
#20 = LOCAL_TIME ( 10, 45, 30.00000000000000000, #229 ) ;
#21 = VERTEX_POINT ( 'NONE', #106 ) ;
#22 = UNCERTAINTY_MEASURE_WITH_UNIT (LENGTH_MEASURE( 1.000000000000000100E-005 ), #345, 'distance_accuracy_value', 'NONE');
#23 = CC_DESIGN_PERSON_AND_ORGANIZATION_ASSIGNMENT ( #409, #355, ( #349 ) ) ;
#24 = EDGE_CURVE ( 'NONE', #79, #240, #214, .T. ) ;
#25 = ADVANCED_FACE ( 'NONE', ( #385 ), #118, .T. ) ;
#26 = LINE ( 'NONE', #111, #353 ) ;
#27 = ORIENTED_EDGE ( 'NONE', *, *, #309, .T. ) ;
#28 = DIRECTION ( 'NONE',  ( 1.248725001283619100E-016, -1.000000000000000000, 0.0000000000000000000 ) ) ;
#29 = APPLICATION_CONTEXT ( 'configuration controlled 3d designs of mechanical parts and assemblies' ) ;
#30 = AXIS2_PLACEMENT_3D ( 'NONE', #221, #33, #156 ) ;
#31 = FACE_OUTER_BOUND ( 'NONE', #154, .T. ) ;
#32 = EDGE_LOOP ( 'NONE', ( #71, #212 ) ) ;
#33 = DIRECTION ( 'NONE',  ( 1.000000000000000000, 1.248725001283619100E-016, -0.0000000000000000000 ) ) ;
#34 = CARTESIAN_POINT ( 'NONE',  ( -45.03749999999999400, -5.748817724659460400E-015, 0.0000000000000000000 ) ) ;
#35 = CALENDAR_DATE ( 2023, 19, 5 ) ;
#36 = CARTESIAN_POINT ( 'NONE',  ( 4.336808689942017700E-016, -1.248725001283618600E-016, 0.0000000000000000000 ) ) ;
#37 = FACE_OUTER_BOUND ( 'NONE', #32, .T. ) ;
#38 =( NAMED_UNIT ( * ) PLANE_ANGLE_UNIT ( ) SI_UNIT ( $, .RADIAN. ) );
#39 = AXIS2_PLACEMENT_3D ( 'NONE', #171, #396, #204 ) ;
#40 = DATE_AND_TIME ( #35, #20 ) ;
#41 = CALENDAR_DATE ( 2023, 19, 5 ) ;
#42 = CIRCLE ( 'NONE', #356, 4.762500000000001100 ) ;
#43 = ORIENTED_EDGE ( 'NONE', *, *, #203, .F. ) ;
#44 = DIRECTION ( 'NONE',  ( 1.000000000000000000, 1.248725001283619100E-016, -0.0000000000000000000 ) ) ;
#45 = SECURITY_CLASSIFICATION ( '', '', #164 ) ;
#46 = DIRECTION ( 'NONE',  ( 1.000000000000000000, 1.248725001283619100E-016, -0.0000000000000000000 ) ) ;
#47 = LOCAL_TIME ( 10, 45, 30.00000000000000000, #125 ) ;
#48 = FACE_OUTER_BOUND ( 'NONE', #85, .T. ) ;
#49 = EDGE_CURVE ( 'NONE', #177, #79, #287, .T. ) ;
#50 = CLOSED_SHELL ( 'NONE', ( #25, #311, #340, #90, #408, #185, #247, #149, #215, #148 ) ) ;
#51 = DIRECTION ( 'NONE',  ( -1.365923996832131400E-016, 1.000000000000000000, 0.0000000000000000000 ) ) ;
#52 = DIRECTION ( 'NONE',  ( 1.000000000000000000, 1.248725001283619100E-016, -0.0000000000000000000 ) ) ;
#53 = PERSON_AND_ORGANIZATION ( #201, #243 ) ;
#54 = LINE ( 'NONE', #386, #211 ) ;
#55 = DIRECTION ( 'NONE',  ( -0.7071067811865415800, 0.7071067811865535700, 8.659560562355008000E-017 ) ) ;
#56 = ORIENTED_EDGE ( 'NONE', *, *, #160, .T. ) ;
#57 = AXIS2_PLACEMENT_3D ( 'NONE', #6, #222, #227 ) ;
#58 = DIRECTION ( 'NONE',  ( -1.000000000000000000, -0.0000000000000000000, -0.0000000000000000000 ) ) ;
#59 = CALENDAR_DATE ( 2023, 19, 5 ) ;
#60 = LINE ( 'NONE', #12, #298 ) ;
#61 = ADVANCED_FACE ( 'NONE', ( #48 ), #110, .F. ) ;
#62 = DIRECTION ( 'NONE',  ( 0.0000000000000000000, 0.0000000000000000000, 1.000000000000000000 ) ) ;
#63 = AXIS2_PLACEMENT_3D ( 'NONE', #260, #13, #295 ) ;
#64 = DIRECTION ( 'NONE',  ( 1.000000000000000000, 1.248725001283619100E-016, -0.0000000000000000000 ) ) ;
#65 = FACE_OUTER_BOUND ( 'NONE', #399, .T. ) ;
#66 = ORIENTED_EDGE ( 'NONE', *, *, #351, .T. ) ;
#67 = DIRECTION ( 'NONE',  ( 0.0000000000000000000, 0.0000000000000000000, 1.000000000000000000 ) ) ;
#68 = DIRECTION ( 'NONE',  ( -1.365923996832131400E-016, 1.000000000000000000, 0.0000000000000000000 ) ) ;
#69 = CC_DESIGN_PERSON_AND_ORGANIZATION_ASSIGNMENT ( #53, #387, ( #45 ) ) ;
#70 = DATE_AND_TIME ( #145, #234 ) ;
#71 = ORIENTED_EDGE ( 'NONE', *, *, #351, .F. ) ;
#72 = CARTESIAN_POINT ( 'NONE',  ( 32.75000000000000000, 0.0000000000000000000, 0.0000000000000000000 ) ) ;
#73 = DIRECTION ( 'NONE',  ( 1.248725001283618800E-016, -1.000000000000000000, 0.0000000000000000000 ) ) ;
#74 = EDGE_CURVE ( 'NONE', #21, #240, #206, .T. ) ;
#75 = LINE ( 'NONE', #400, #140 ) ;
#76 = ORIENTED_EDGE ( 'NONE', *, *, #184, .T. ) ;
#77 = CARTESIAN_POINT ( 'NONE',  ( 3.721068108665262400E-017, 3.175000000000000700, 0.0000000000000000000 ) ) ;
#78 = PERSON_AND_ORGANIZATION ( #201, #243 ) ;
#79 = VERTEX_POINT ( 'NONE', #15 ) ;
#80 = CARTESIAN_POINT ( 'NONE',  ( -44.73749999999998300, -5.711355974620951300E-015, 0.0000000000000000000 ) ) ;
#81 = COORDINATED_UNIVERSAL_TIME_OFFSET ( 9, 0, .AHEAD. ) ;
#82 = DIRECTION ( 'NONE',  ( 1.000000000000000000, 1.248725001283619100E-016, -0.0000000000000000000 ) ) ;
#83 = LINE ( 'NONE', #141, #324 ) ;
#84 = AXIS2_PLACEMENT_3D ( 'NONE', #87, #144, #236 ) ;
#85 = EDGE_LOOP ( 'NONE', ( #93, #343 ) ) ;
#86 = DIRECTION ( 'NONE',  ( 1.000000000000000000, 1.248725001283619100E-016, -0.0000000000000000000 ) ) ;
#87 = CARTESIAN_POINT ( 'NONE',  ( 4.336808689942017700E-016, -1.248725001283618600E-016, 0.0000000000000000000 ) ) ;
#88 = EDGE_LOOP ( 'NONE', ( #232, #193, #308, #325 ) ) ;
#89 = CC_DESIGN_DATE_AND_TIME_ASSIGNMENT ( #163, #197, ( #45 ) ) ;
#90 = ADVANCED_FACE ( 'NONE', ( #377 ), #276, .T. ) ;
#91 = EDGE_CURVE ( 'NONE', #177, #21, #60, .T. ) ;
#92 = CONICAL_SURFACE ( 'NONE', #84, 3.175000000000000700, 0.7853981633974569400 ) ;
#93 = ORIENTED_EDGE ( 'NONE', *, *, #264, .T. ) ;
#94 = CARTESIAN_POINT ( 'NONE',  ( 32.75000000000000000, 0.0000000000000000000, 0.0000000000000000000 ) ) ;
#95 = DIRECTION ( 'NONE',  ( 1.000000000000000000, 1.248725001283619100E-016, -0.0000000000000000000 ) ) ;
#96 = MECHANICAL_CONTEXT ( 'NONE', #346, 'mechanical' ) ;
#97 =( GEOMETRIC_REPRESENTATION_CONTEXT ( 3 ) GLOBAL_UNCERTAINTY_ASSIGNED_CONTEXT ( ( #22 ) ) GLOBAL_UNIT_ASSIGNED_CONTEXT ( ( #345, #38, #256 ) ) REPRESENTATION_CONTEXT ( 'NONE', 'WORKASPACE' ) );
#98 = MANIFOLD_SOLID_BREP ( 'È¸Àü4', #50 ) ;
#99 = ORIENTED_EDGE ( 'NONE', *, *, #264, .F. ) ;
#100 = DIRECTION ( 'NONE',  ( 0.0000000000000000000, 0.0000000000000000000, 1.000000000000000000 ) ) ;
#101 = DIRECTION ( 'NONE',  ( 1.000000000000000000, 1.248725001283619100E-016, -0.0000000000000000000 ) ) ;
#102 = CIRCLE ( 'NONE', #119, 3.175000000000000700 ) ;
#103 = DIRECTION ( 'NONE',  ( 1.000000000000000000, 1.248725001283619100E-016, -0.0000000000000000000 ) ) ;
#104 = VERTEX_POINT ( 'NONE', #263 ) ;
#105 = AXIS2_PLACEMENT_3D ( 'NONE', #336, #86, #304 ) ;
#106 = CARTESIAN_POINT ( 'NONE',  ( -44.73749999999998300, 4.762499999999995700, 0.0000000000000000000 ) ) ;
#107 = VERTEX_POINT ( 'NONE', #133 ) ;
#108 = CLOSED_SHELL ( 'NONE', ( #375, #275, #61, #117 ) ) ;
#109 = APPROVAL ( #8, 'UNSPECIFIED' ) ;
#110 = PLANE ( 'NONE',  #366 ) ;
#111 = CARTESIAN_POINT ( 'NONE',  ( 1.000000000000000700, -4.762500000000001100, 5.832380380939271100E-016 ) ) ;
#112 = EDGE_CURVE ( 'NONE', #240, #371, #26, .T. ) ;
#113 = FACE_OUTER_BOUND ( 'NONE', #88, .T. ) ;
#114 = CARTESIAN_POINT ( 'NONE',  ( 1.000000000000000200, 3.175000000000000700, 0.0000000000000000000 ) ) ;
#115 = AXIS2_PLACEMENT_3D ( 'NONE', #34, #248, #28 ) ;
#116 = ORIENTED_EDGE ( 'NONE', *, *, #5, .F. ) ;
#117 = ADVANCED_FACE ( 'NONE', ( #37 ), #360, .F. ) ;
#118 = CONICAL_SURFACE ( 'NONE', #277, 4.762500000000002000, 0.7853981633974367300 ) ;
#119 = AXIS2_PLACEMENT_3D ( 'NONE', #143, #370, #19 ) ;
#120 = CIRCLE ( 'NONE', #30, 4.762500000000002000 ) ;
#121 = EDGE_LOOP ( 'NONE', ( #158, #267, #218, #172 ) ) ;
#122 = DIRECTION ( 'NONE',  ( -1.000000000000000000, -0.0000000000000000000, -0.0000000000000000000 ) ) ;
#123 = CC_DESIGN_APPROVAL ( #109, ( #45 ) ) ;
#124 = DIRECTION ( 'NONE',  ( 0.0000000000000000000, 0.0000000000000000000, 1.000000000000000000 ) ) ;
#125 = COORDINATED_UNIVERSAL_TIME_OFFSET ( 9, 0, .AHEAD. ) ;
#126 = VECTOR ( 'NONE', #327, 1000.000000000000000 ) ;
#127 = VERTEX_POINT ( 'NONE', #392 ) ;
#128 = EDGE_CURVE ( 'NONE', #347, #371, #266, .T. ) ;
#129 = PERSON_AND_ORGANIZATION_ROLE ( 'creator' ) ;
#130 = CYLINDRICAL_SURFACE ( 'NONE', #292, 3.175000000000000700 ) ;
#131 = VERTEX_POINT ( 'NONE', #77 ) ;
#132 = APPROVAL_STATUS ( 'not_yet_approved' ) ;
#133 = CARTESIAN_POINT ( 'NONE',  ( 1.000000000000001100, 3.175000000000000700, 0.0000000000000000000 ) ) ;
#134 = CARTESIAN_POINT ( 'NONE',  ( -44.73749999999998300, -4.762500000000008200, 5.832380380939272100E-016 ) ) ;
#135 = LOCAL_TIME ( 10, 45, 30.00000000000000000, #223 ) ;
#136 = CIRCLE ( 'NONE', #257, 3.175000000000000700 ) ;
#137 = DIRECTION ( 'NONE',  ( -1.365923996832131400E-016, 1.000000000000000000, 0.0000000000000000000 ) ) ;
#138 = DIRECTION ( 'NONE',  ( 1.000000000000000000, 1.248725001283619100E-016, -0.0000000000000000000 ) ) ;
#139 = CARTESIAN_POINT ( 'NONE',  ( 8.301510569017508600E-016, -3.175000000000000700, 0.0000000000000000000 ) ) ;
#140 = VECTOR ( 'NONE', #380, 1000.000000000000000 ) ;
#141 = CARTESIAN_POINT ( 'NONE',  ( 0.9999999999999995600, 3.175000000000000700, 0.0000000000000000000 ) ) ;
#142 = EDGE_LOOP ( 'NONE', ( #56, #244 ) ) ;
#143 = CARTESIAN_POINT ( 'NONE',  ( 4.336808689942017700E-016, -1.248725001283618600E-016, 0.0000000000000000000 ) ) ;
#144 = DIRECTION ( 'NONE',  ( -1.000000000000000000, -1.248725001283619100E-016, 0.0000000000000000000 ) ) ;
#145 = CALENDAR_DATE ( 2023, 19, 5 ) ;
#146 = CC_DESIGN_SECURITY_CLASSIFICATION ( #45, ( #349 ) ) ;
#147 = ORIENTED_EDGE ( 'NONE', *, *, #376, .T. ) ;
#148 = ADVANCED_FACE ( 'NONE', ( #364 ), #258, .T. ) ;
#149 = ADVANCED_FACE ( 'NONE', ( #113 ), #92, .T. ) ;
#150 = EDGE_CURVE ( 'NONE', #21, #347, #14, .T. ) ;
#151 = APPROVAL_PERSON_ORGANIZATION ( #190, #109, #228 ) ;
#152 = CARTESIAN_POINT ( 'NONE',  ( -44.73749999999998300, -5.711355974620951300E-015, 0.0000000000000000000 ) ) ;
#153 = VECTOR ( 'NONE', #367, 1000.000000000000100 ) ;
#154 = EDGE_LOOP ( 'NONE', ( #66, #27, #99, #245 ) ) ;
#155 = DIRECTION ( 'NONE',  ( 1.000000000000000000, 1.248725001283619100E-016, -0.0000000000000000000 ) ) ;
#156 = DIRECTION ( 'NONE',  ( 0.0000000000000000000, 1.000000000000000000, 0.0000000000000000000 ) ) ;
#157 = PERSON_AND_ORGANIZATION ( #201, #243 ) ;
#158 = ORIENTED_EDGE ( 'NONE', *, *, #24, .F. ) ;
#159 = DIRECTION ( 'NONE',  ( 0.0000000000000000000, 0.0000000000000000000, 1.000000000000000000 ) ) ;
#160 = EDGE_CURVE ( 'NONE', #107, #254, #341, .T. ) ;
#161 = DIRECTION ( 'NONE',  ( -1.000000000000000000, -0.0000000000000000000, -0.0000000000000000000 ) ) ;
#162 = CARTESIAN_POINT ( 'NONE',  ( -1.587499999999973300, 4.762500000000001100, 5.832380380939271100E-016 ) ) ;
#163 = DATE_AND_TIME ( #41, #413 ) ;
#164 = SECURITY_CLASSIFICATION_LEVEL ( 'unclassified' ) ;
#165 = VECTOR ( 'NONE', #55, 1000.000000000000000 ) ;
#166 = ORIENTED_EDGE ( 'NONE', *, *, #128, .F. ) ;
#167 = AXIS2_PLACEMENT_3D ( 'NONE', #3, #318, #68 ) ;
#168 = PERSON_AND_ORGANIZATION_ROLE ( 'creator' ) ;
#169 = PRODUCT ( '03-2069', '03-2069', '', ( #96 ) ) ;
#170 = MANIFOLD_SOLID_BREP ( 'È¸Àü3', #108 ) ;
#171 = CARTESIAN_POINT ( 'NONE',  ( 32.75000000000000000, 0.0000000000000000000, 0.0000000000000000000 ) ) ;
#172 = ORIENTED_EDGE ( 'NONE', *, *, #376, .F. ) ;
#173 = PRODUCT_RELATED_PRODUCT_CATEGORY ( 'detail', '', ( #169 ) ) ;
#174 = EDGE_CURVE ( 'NONE', #131, #225, #102, .T. ) ;
#175 = DIRECTION ( 'NONE',  ( 1.000000000000000000, 0.0000000000000000000, 0.0000000000000000000 ) ) ;
#176 = LINE ( 'NONE', #271, #165 ) ;
#177 = VERTEX_POINT ( 'NONE', #305 ) ;
#178 = DIRECTION ( 'NONE',  ( -1.365923996832131400E-016, 1.000000000000000000, 0.0000000000000000000 ) ) ;
#179 = DIRECTION ( 'NONE',  ( 1.000000000000000000, 1.248725001283619100E-016, -0.0000000000000000000 ) ) ;
#180 = PERSON_AND_ORGANIZATION ( #201, #243 ) ;
#181 = DIRECTION ( 'NONE',  ( 1.000000000000000000, 1.248725001283619100E-016, -0.0000000000000000000 ) ) ;
#182 = EDGE_LOOP ( 'NONE', ( #235, #335 ) ) ;
#183 = DESIGN_CONTEXT ( 'detailed design', #29, 'design' ) ;
#184 = EDGE_CURVE ( 'NONE', #378, #127, #333, .T. ) ;
#185 = ADVANCED_FACE ( 'NONE', ( #7 ), #18, .T. ) ;
#186 = VECTOR ( 'NONE', #210, 1000.000000000000000 ) ;
#187 = ORIENTED_EDGE ( 'NONE', *, *, #91, .F. ) ;
#188 = DIRECTION ( 'NONE',  ( 0.0000000000000000000, 1.000000000000000000, 0.0000000000000000000 ) ) ;
#189 = AXIS2_PLACEMENT_3D ( 'NONE', #114, #179, #241 ) ;
#190 = PERSON_AND_ORGANIZATION ( #201, #243 ) ;
#191 = CARTESIAN_POINT ( 'NONE',  ( 1.000000000000000000, 0.0000000000000000000, 0.0000000000000000000 ) ) ;
#192 = CYLINDRICAL_SURFACE ( 'NONE', #57, 3.175000000000003400 ) ;
#193 = ORIENTED_EDGE ( 'NONE', *, *, #285, .F. ) ;
#194 = PLANE ( 'NONE',  #115 ) ;
#195 = CIRCLE ( 'NONE', #209, 4.462500000000000400 ) ;
#196 = EDGE_CURVE ( 'NONE', #131, #347, #176, .T. ) ;
#197 = DATE_TIME_ROLE ( 'classification_date' ) ;
#198 = APPROVAL_STATUS ( 'not_yet_approved' ) ;
#199 = CIRCLE ( 'NONE', #404, 3.175000000000006000 ) ;
#200 = ORIENTED_EDGE ( 'NONE', *, *, #112, .T. ) ;
#201 = PERSON ( 'UNSPECIFIED', 'UNSPECIFIED', 'UNSPECIFIED', ('UNSPECIFIED'), ('UNSPECIFIED'), ('UNSPECIFIED') ) ;
#202 = AXIS2_PLACEMENT_3D ( 'NONE', #301, #67, #279 ) ;
#203 = EDGE_CURVE ( 'NONE', #131, #107, #83, .T. ) ;
#204 = DIRECTION ( 'NONE',  ( -0.0000000000000000000, 0.0000000000000000000, 1.000000000000000000 ) ) ;
#205 = APPROVAL_DATE_TIME ( #286, #373 ) ;
#206 = CIRCLE ( 'NONE', #342, 4.762500000000002000 ) ;
#207 = DIRECTION ( 'NONE',  ( 0.0000000000000000000, 1.000000000000000000, 0.0000000000000000000 ) ) ;
#208 = APPROVAL_ROLE ( '' ) ;
#209 = AXIS2_PLACEMENT_3D ( 'NONE', #323, #103, #291 ) ;
#210 = DIRECTION ( 'NONE',  ( 1.000000000000000000, 1.248725001283619100E-016, -0.0000000000000000000 ) ) ;
#211 = VECTOR ( 'NONE', #161, 1000.000000000000000 ) ;
#212 = ORIENTED_EDGE ( 'NONE', *, *, #397, .F. ) ;
#213 = APPROVAL_PERSON_ORGANIZATION ( #297, #373, #208 ) ;
#214 = LINE ( 'NONE', #134, #126 ) ;
#215 = ADVANCED_FACE ( 'NONE', ( #410 ), #401, .T. ) ;
#216 = EDGE_CURVE ( 'NONE', #225, #371, #239, .T. ) ;
#217 = CIRCLE ( 'NONE', #270, 3.175000000000000700 ) ;
#218 = ORIENTED_EDGE ( 'NONE', *, *, #91, .T. ) ;
#219 = PERSON_AND_ORGANIZATION_ROLE ( 'design_owner' ) ;
#220 = CC_DESIGN_PERSON_AND_ORGANIZATION_ASSIGNMENT ( #157, #219, ( #169 ) ) ;
#221 = CARTESIAN_POINT ( 'NONE',  ( -44.73749999999998300, -5.711355974620951300E-015, 0.0000000000000000000 ) ) ;
#222 = DIRECTION ( 'NONE',  ( -1.000000000000000000, -0.0000000000000000000, -0.0000000000000000000 ) ) ;
#223 = COORDINATED_UNIVERSAL_TIME_OFFSET ( 9, 0, .AHEAD. ) ;
#224 = EDGE_CURVE ( 'NONE', #79, #177, #195, .T. ) ;
#225 = VERTEX_POINT ( 'NONE', #269 ) ;
#226 = DIRECTION ( 'NONE',  ( -1.365923996832131400E-016, 1.000000000000000000, 0.0000000000000000000 ) ) ;
#227 = DIRECTION ( 'NONE',  ( 0.0000000000000000000, 0.0000000000000000000, 1.000000000000000000 ) ) ;
#228 = APPROVAL_ROLE ( '' ) ;
#229 = COORDINATED_UNIVERSAL_TIME_OFFSET ( 9, 0, .AHEAD. ) ;
#230 = FACE_OUTER_BOUND ( 'NONE', #329, .T. ) ;
#231 = AXIS2_PLACEMENT_3D ( 'NONE', #268, #52, #51 ) ;
#232 = ORIENTED_EDGE ( 'NONE', *, *, #196, .F. ) ;
#233 = DIRECTION ( 'NONE',  ( 0.7071067811865555700, 0.7071067811865393600, 0.0000000000000000000 ) ) ;
#234 = LOCAL_TIME ( 10, 45, 30.00000000000000000, #319 ) ;
#235 = ORIENTED_EDGE ( 'NONE', *, *, #49, .F. ) ;
#236 = DIRECTION ( 'NONE',  ( 1.248725001283618800E-016, -1.000000000000000000, 0.0000000000000000000 ) ) ;
#237 = EDGE_CURVE ( 'NONE', #225, #254, #75, .T. ) ;
#238 = CARTESIAN_POINT ( 'NONE',  ( -45.03749999999999400, -5.748817724659460400E-015, 0.0000000000000000000 ) ) ;
#239 = LINE ( 'NONE', #139, #153 ) ;
#240 = VERTEX_POINT ( 'NONE', #334 ) ;
#241 = DIRECTION ( 'NONE',  ( -1.248725001283619100E-016, 1.000000000000000000, 0.0000000000000000000 ) ) ;
#242 = PRODUCT_DEFINITION ( 'UNKNOWN', '', #349, #183 ) ;
#243 = ORGANIZATION ( 'UNSPECIFIED', 'UNSPECIFIED', '' ) ;
#244 = ORIENTED_EDGE ( 'NONE', *, *, #246, .T. ) ;
#245 = ORIENTED_EDGE ( 'NONE', *, *, #184, .F. ) ;
#246 = EDGE_CURVE ( 'NONE', #254, #107, #313, .T. ) ;
#247 = ADVANCED_FACE ( 'NONE', ( #65 ), #130, .T. ) ;
#248 = DIRECTION ( 'NONE',  ( -1.000000000000000000, -1.248725001283619100E-016, 0.0000000000000000000 ) ) ;
#249 = VECTOR ( 'NONE', #58, 1000.000000000000000 ) ;
#250 = ORIENTED_EDGE ( 'NONE', *, *, #150, .T. ) ;
#251 = CARTESIAN_POINT ( 'NONE',  ( 4.336808689942017700E-016, -1.248725001283618600E-016, 0.0000000000000000000 ) ) ;
#252 = AXIS2_PLACEMENT_3D ( 'NONE', #251, #255, #73 ) ;
#253 = APPLICATION_PROTOCOL_DEFINITION ( 'international standard', 'config_control_design', 1994, #29 ) ;
#254 = VERTEX_POINT ( 'NONE', #348 ) ;
#255 = DIRECTION ( 'NONE',  ( -1.000000000000000000, -1.248725001283619100E-016, 0.0000000000000000000 ) ) ;
#256 =( NAMED_UNIT ( * ) SI_UNIT ( $, .STERADIAN. ) SOLID_ANGLE_UNIT ( ) );
#257 = AXIS2_PLACEMENT_3D ( 'NONE', #344, #312, #296 ) ;
#258 = CONICAL_SURFACE ( 'NONE', #63, 4.762500000000002000, 0.7853981633974367300 ) ;
#259 = ORIENTED_EDGE ( 'NONE', *, *, #309, .F. ) ;
#260 = CARTESIAN_POINT ( 'NONE',  ( -44.73749999999998300, -5.711355974620951300E-015, 0.0000000000000000000 ) ) ;
#261 = APPROVAL ( #198, 'UNSPECIFIED' ) ;
#262 = EDGE_LOOP ( 'NONE', ( #281, #147, #250, #383 ) ) ;
#263 = CARTESIAN_POINT ( 'NONE',  ( 1.000000000000001800, 3.888253587292848500E-016, -3.175000000000000700 ) ) ;
#264 = EDGE_CURVE ( 'NONE', #127, #104, #217, .T. ) ;
#265 = DIRECTION ( 'NONE',  ( 0.0000000000000000000, 0.0000000000000000000, -1.000000000000000000 ) ) ;
#266 = CIRCLE ( 'NONE', #388, 4.762500000000001100 ) ;
#267 = ORIENTED_EDGE ( 'NONE', *, *, #224, .T. ) ;
#268 = CARTESIAN_POINT ( 'NONE',  ( 1.000000000000000000, 0.0000000000000000000, 0.0000000000000000000 ) ) ;
#269 = CARTESIAN_POINT ( 'NONE',  ( 8.301510569017508600E-016, -3.175000000000000700, 3.888253587292847100E-016 ) ) ;
#270 = AXIS2_PLACEMENT_3D ( 'NONE', #350, #321, #124 ) ;
#271 = CARTESIAN_POINT ( 'NONE',  ( 3.721068108665262400E-017, 3.175000000000000700, 3.888253587292847100E-016 ) ) ;
#272 = CONICAL_SURFACE ( 'NONE', #252, 3.175000000000000700, 0.7853981633974569400 ) ;
#273 = ORIENTED_EDGE ( 'NONE', *, *, #174, .T. ) ;
#274 = APPROVAL_DATE_TIME ( #40, #109 ) ;
#275 = ADVANCED_FACE ( 'NONE', ( #230 ), #293, .T. ) ;
#276 = CYLINDRICAL_SURFACE ( 'NONE', #17, 3.175000000000000700 ) ;
#277 = AXIS2_PLACEMENT_3D ( 'NONE', #80, #362, #207 ) ;
#278 = DIRECTION ( 'NONE',  ( -1.000000000000000000, -0.0000000000000000000, -0.0000000000000000000 ) ) ;
#279 = DIRECTION ( 'NONE',  ( 1.000000000000000000, 0.0000000000000000000, 0.0000000000000000000 ) ) ;
#280 = CYLINDRICAL_SURFACE ( 'NONE', #382, 4.762500000000001100 ) ;
#281 = ORIENTED_EDGE ( 'NONE', *, *, #112, .F. ) ;
#282 = CC_DESIGN_APPROVAL ( #261, ( #242 ) ) ;
#283 = CARTESIAN_POINT ( 'NONE',  ( 32.75000000000000000, 0.0000000000000000000, 3.175000000000006000 ) ) ;
#284 = DIRECTION ( 'NONE',  ( -1.000000000000000000, -0.0000000000000000000, -0.0000000000000000000 ) ) ;
#285 = EDGE_CURVE ( 'NONE', #225, #131, #381, .T. ) ;
#286 = DATE_AND_TIME ( #374, #47 ) ;
#287 = CIRCLE ( 'NONE', #300, 4.462500000000000400 ) ;
#288 = CARTESIAN_POINT ( 'NONE',  ( -1.587499999999972600, -3.231075940821330000E-016, 0.0000000000000000000 ) ) ;
#289 = EDGE_LOOP ( 'NONE', ( #16, #200, #166, #354 ) ) ;
#290 = ORIENTED_EDGE ( 'NONE', *, *, #246, .F. ) ;
#291 = DIRECTION ( 'NONE',  ( 0.0000000000000000000, 1.000000000000000000, 0.0000000000000000000 ) ) ;
#292 = AXIS2_PLACEMENT_3D ( 'NONE', #191, #155, #178 ) ;
#293 = CYLINDRICAL_SURFACE ( 'NONE', #337, 3.175000000000003400 ) ;
#294 = ORIENTED_EDGE ( 'NONE', *, *, #74, .F. ) ;
#295 = DIRECTION ( 'NONE',  ( 0.0000000000000000000, 1.000000000000000000, 0.0000000000000000000 ) ) ;
#296 = DIRECTION ( 'NONE',  ( 0.0000000000000000000, 0.0000000000000000000, 1.000000000000000000 ) ) ;
#297 = PERSON_AND_ORGANIZATION ( #201, #243 ) ;
#298 = VECTOR ( 'NONE', #233, 1000.000000000000100 ) ;
#299 = ORIENTED_EDGE ( 'NONE', *, *, #24, .T. ) ;
#300 = AXIS2_PLACEMENT_3D ( 'NONE', #238, #138, #365 ) ;
#301 = CARTESIAN_POINT ( 'NONE',  ( 0.0000000000000000000, 0.0000000000000000000, 0.0000000000000000000 ) ) ;
#302 = FACE_OUTER_BOUND ( 'NONE', #289, .T. ) ;
#303 = ORIENTED_EDGE ( 'NONE', *, *, #285, .T. ) ;
#304 = DIRECTION ( 'NONE',  ( -1.365923996832131400E-016, 1.000000000000000000, 0.0000000000000000000 ) ) ;
#305 = CARTESIAN_POINT ( 'NONE',  ( -45.03749999999999400, 4.462499999999994100, 0.0000000000000000000 ) ) ;
#306 = CC_DESIGN_PERSON_AND_ORGANIZATION_ASSIGNMENT ( #307, #168, ( #242 ) ) ;
#307 = PERSON_AND_ORGANIZATION ( #201, #243 ) ;
#308 = ORIENTED_EDGE ( 'NONE', *, *, #216, .T. ) ;
#309 = EDGE_CURVE ( 'NONE', #2, #104, #54, .T. ) ;
#310 = ORIENTED_EDGE ( 'NONE', *, *, #237, .F. ) ;
#311 = ADVANCED_FACE ( 'NONE', ( #302 ), #280, .T. ) ;
#312 = DIRECTION ( 'NONE',  ( -1.000000000000000000, -0.0000000000000000000, -0.0000000000000000000 ) ) ;
#313 = CIRCLE ( 'NONE', #167, 3.175000000000000700 ) ;
#314 = ORIENTED_EDGE ( 'NONE', *, *, #216, .F. ) ;
#315 = DIRECTION ( 'NONE',  ( -1.248725001283619100E-016, 1.000000000000000000, 0.0000000000000000000 ) ) ;
#316 = AXIS2_PLACEMENT_3D ( 'NONE', #36, #95, #315 ) ;
#317 = APPLICATION_PROTOCOL_DEFINITION ( 'international standard', 'config_control_design', 1994, #346 ) ;
#318 = DIRECTION ( 'NONE',  ( 1.000000000000000000, 1.248725001283619100E-016, -0.0000000000000000000 ) ) ;
#319 = COORDINATED_UNIVERSAL_TIME_OFFSET ( 9, 0, .AHEAD. ) ;
#320 = ORIENTED_EDGE ( 'NONE', *, *, #397, .T. ) ;
#321 = DIRECTION ( 'NONE',  ( -1.000000000000000000, -0.0000000000000000000, -0.0000000000000000000 ) ) ;
#322 = DIRECTION ( 'NONE',  ( -1.365923996832131400E-016, 1.000000000000000000, 0.0000000000000000000 ) ) ;
#323 = CARTESIAN_POINT ( 'NONE',  ( -45.03749999999999400, -5.748817724659460400E-015, 0.0000000000000000000 ) ) ;
#324 = VECTOR ( 'NONE', #82, 1000.000000000000000 ) ;
#325 = ORIENTED_EDGE ( 'NONE', *, *, #331, .T. ) ;
#326 = CC_DESIGN_DATE_AND_TIME_ASSIGNMENT ( #384, #357, ( #242 ) ) ;
#327 = DIRECTION ( 'NONE',  ( 0.7071067811865557900, -0.7071067811865392500, 8.659560562354833000E-017 ) ) ;
#328 = SHAPE_DEFINITION_REPRESENTATION ( #368, #361 ) ;
#329 = EDGE_LOOP ( 'NONE', ( #259, #320, #76, #116 ) ) ;
#330 = ORIENTED_EDGE ( 'NONE', *, *, #128, .T. ) ;
#331 = EDGE_CURVE ( 'NONE', #371, #347, #42, .T. ) ;
#332 = CARTESIAN_POINT ( 'NONE',  ( 1.000000000000000000, 0.0000000000000000000, 0.0000000000000000000 ) ) ;
#333 = LINE ( 'NONE', #338, #249 ) ;
#334 = CARTESIAN_POINT ( 'NONE',  ( -44.73749999999998300, -4.762500000000008200, 5.832380380939275000E-016 ) ) ;
#335 = ORIENTED_EDGE ( 'NONE', *, *, #224, .F. ) ;
#336 = CARTESIAN_POINT ( 'NONE',  ( 1.000000000000001600, 1.848952595132435000E-031, 0.0000000000000000000 ) ) ;
#337 = AXIS2_PLACEMENT_3D ( 'NONE', #412, #122, #159 ) ;
#338 = CARTESIAN_POINT ( 'NONE',  ( 0.0000000000000000000, 0.0000000000000000000, 3.175000000000003400 ) ) ;
#339 = ORIENTED_EDGE ( 'NONE', *, *, #203, .T. ) ;
#340 = ADVANCED_FACE ( 'NONE', ( #369 ), #272, .T. ) ;
#341 = CIRCLE ( 'NONE', #105, 3.175000000000000700 ) ;
#342 = AXIS2_PLACEMENT_3D ( 'NONE', #152, #379, #188 ) ;
#343 = ORIENTED_EDGE ( 'NONE', *, *, #5, .T. ) ;
#344 = CARTESIAN_POINT ( 'NONE',  ( 1.000000000000001800, 0.0000000000000000000, 0.0000000000000000000 ) ) ;
#345 =( LENGTH_UNIT ( ) NAMED_UNIT ( * ) SI_UNIT ( .MILLI., .METRE. ) );
#346 = APPLICATION_CONTEXT ( 'configuration controlled 3d designs of mechanical parts and assemblies' ) ;
#347 = VERTEX_POINT ( 'NONE', #162 ) ;
#348 = CARTESIAN_POINT ( 'NONE',  ( 1.000000000000002000, -3.175000000000000700, 3.888253587292847100E-016 ) ) ;
#349 = PRODUCT_DEFINITION_FORMATION_WITH_SPECIFIED_SOURCE ( 'ANY', '', #169, .NOT_KNOWN. ) ;
#350 = CARTESIAN_POINT ( 'NONE',  ( 1.000000000000001800, 0.0000000000000000000, 0.0000000000000000000 ) ) ;
#351 = EDGE_CURVE ( 'NONE', #378, #2, #199, .T. ) ;
#352 = CARTESIAN_POINT ( 'NONE',  ( -1.587499999999971700, -4.762500000000001100, 0.0000000000000000000 ) ) ;
#353 = VECTOR ( 'NONE', #46, 1000.000000000000000 ) ;
#354 = ORIENTED_EDGE ( 'NONE', *, *, #150, .F. ) ;
#355 = PERSON_AND_ORGANIZATION_ROLE ( 'design_supplier' ) ;
#356 = AXIS2_PLACEMENT_3D ( 'NONE', #288, #101, #322 ) ;
#357 = DATE_TIME_ROLE ( 'creation_date' ) ;
#358 = CIRCLE ( 'NONE', #10, 3.175000000000006000 ) ;
#359 = ORIENTED_EDGE ( 'NONE', *, *, #49, .T. ) ;
#360 = PLANE ( 'NONE',  #39 ) ;
#361 = ADVANCED_BREP_SHAPE_REPRESENTATION ( '03-2069', ( #170, #98, #202 ), #97 ) ;
#362 = DIRECTION ( 'NONE',  ( 1.000000000000000000, 1.248725001283619100E-016, -0.0000000000000000000 ) ) ;
#363 = CARTESIAN_POINT ( 'NONE',  ( 1.000000000000001300, -2.731847993664265200E-016, 0.0000000000000000000 ) ) ;
#364 = FACE_OUTER_BOUND ( 'NONE', #121, .T. ) ;
#365 = DIRECTION ( 'NONE',  ( 0.0000000000000000000, 1.000000000000000000, 0.0000000000000000000 ) ) ;
#366 = AXIS2_PLACEMENT_3D ( 'NONE', #363, #175, #265 ) ;
#367 = DIRECTION ( 'NONE',  ( -0.7071067811865413600, -0.7071067811865536800, 0.0000000000000000000 ) ) ;
#368 = PRODUCT_DEFINITION_SHAPE ( 'NONE', 'NONE',  #242 ) ;
#369 = FACE_OUTER_BOUND ( 'NONE', #407, .T. ) ;
#370 = DIRECTION ( 'NONE',  ( 1.000000000000000000, 1.248725001283619100E-016, -0.0000000000000000000 ) ) ;
#371 = VERTEX_POINT ( 'NONE', #352 ) ;
#372 = CARTESIAN_POINT ( 'NONE',  ( -1.587499999999972600, -3.231075940821330000E-016, 0.0000000000000000000 ) ) ;
#373 = APPROVAL ( #132, 'UNSPECIFIED' ) ;
#374 = CALENDAR_DATE ( 2023, 19, 5 ) ;
#375 = ADVANCED_FACE ( 'NONE', ( #31 ), #192, .T. ) ;
#376 = EDGE_CURVE ( 'NONE', #240, #21, #120, .T. ) ;
#377 = FACE_OUTER_BOUND ( 'NONE', #9, .T. ) ;
#378 = VERTEX_POINT ( 'NONE', #283 ) ;
#379 = DIRECTION ( 'NONE',  ( 1.000000000000000000, 1.248725001283619100E-016, -0.0000000000000000000 ) ) ;
#380 = DIRECTION ( 'NONE',  ( 1.000000000000000000, 1.248725001283619100E-016, -0.0000000000000000000 ) ) ;
#381 = CIRCLE ( 'NONE', #316, 3.175000000000000700 ) ;
#382 = AXIS2_PLACEMENT_3D ( 'NONE', #4, #64, #226 ) ;
#383 = ORIENTED_EDGE ( 'NONE', *, *, #331, .F. ) ;
#384 = DATE_AND_TIME ( #59, #135 ) ;
#385 = FACE_OUTER_BOUND ( 'NONE', #402, .T. ) ;
#386 = CARTESIAN_POINT ( 'NONE',  ( 0.0000000000000000000, 3.888253587292850500E-016, -3.175000000000003400 ) ) ;
#387 = PERSON_AND_ORGANIZATION_ROLE ( 'classification_officer' ) ;
#388 = AXIS2_PLACEMENT_3D ( 'NONE', #372, #181, #405 ) ;
#389 = FACE_OUTER_BOUND ( 'NONE', #182, .T. ) ;
#390 = ORIENTED_EDGE ( 'NONE', *, *, #174, .F. ) ;
#391 = APPROVAL_ROLE ( '' ) ;
#392 = CARTESIAN_POINT ( 'NONE',  ( 1.000000000000001800, 0.0000000000000000000, 3.175000000000000700 ) ) ;
#393 = CC_DESIGN_APPROVAL ( #373, ( #349 ) ) ;
#394 = APPROVAL_DATE_TIME ( #70, #261 ) ;
#395 = ORIENTED_EDGE ( 'NONE', *, *, #237, .T. ) ;
#396 = DIRECTION ( 'NONE',  ( -1.000000000000000000, 0.0000000000000000000, -0.0000000000000000000 ) ) ;
#397 = EDGE_CURVE ( 'NONE', #2, #378, #358, .T. ) ;
#398 = CARTESIAN_POINT ( 'NONE',  ( 32.75000000000000000, 3.888253587292854000E-016, -3.175000000000006500 ) ) ;
#399 = EDGE_LOOP ( 'NONE', ( #310, #303, #339, #290 ) ) ;
#400 = CARTESIAN_POINT ( 'NONE',  ( 1.000000000000000400, -3.175000000000000700, 3.888253587292847100E-016 ) ) ;
#401 = CYLINDRICAL_SURFACE ( 'NONE', #231, 4.762500000000001100 ) ;
#402 = EDGE_LOOP ( 'NONE', ( #359, #299, #294, #187 ) ) ;
#403 = CARTESIAN_POINT ( 'NONE',  ( 0.9999999999999993300, 4.762500000000001100, 0.0000000000000000000 ) ) ;
#404 = AXIS2_PLACEMENT_3D ( 'NONE', #72, #284, #100 ) ;
#405 = DIRECTION ( 'NONE',  ( -1.365923996832131400E-016, 1.000000000000000000, 0.0000000000000000000 ) ) ;
#406 = APPROVAL_PERSON_ORGANIZATION ( #78, #261, #391 ) ;
#407 = EDGE_LOOP ( 'NONE', ( #390, #11, #330, #314 ) ) ;
#408 = ADVANCED_FACE ( 'NONE', ( #389 ), #194, .T. ) ;
#409 = PERSON_AND_ORGANIZATION ( #201, #243 ) ;
#410 = FACE_OUTER_BOUND ( 'NONE', #262, .T. ) ;
#411 = ORIENTED_EDGE ( 'NONE', *, *, #160, .F. ) ;
#412 = CARTESIAN_POINT ( 'NONE',  ( 0.0000000000000000000, 0.0000000000000000000, 0.0000000000000000000 ) ) ;
#413 = LOCAL_TIME ( 10, 45, 30.00000000000000000, #81 ) ;
ENDSEC;
END-ISO-10303-21;
