ISO-10303-21;
HEADER;
FILE_DESCRIPTION (( 'STEP AP203' ),
    '1' );
FILE_NAME ('03-2070.STEP',
    '2023-05-19T01:45:47',
    ( 'USER' ),
    ( 'Hewlett-Packard Company' ),
    'SwSTEP 2.0',
    'SolidWorks 2014',
    '' );
FILE_SCHEMA (( 'CONFIG_CONTROL_DESIGN' ));
ENDSEC;

DATA;
#1 = AXIS2_PLACEMENT_3D ( 'NONE', #380, #240, #397 ) ;
#2 = EDGE_LOOP ( 'NONE', ( #170, #29, #136, #50 ) ) ;
#3 = CYLINDRICAL_SURFACE ( 'NONE', #354, 3.968750000000003600 ) ;
#4 = AXIS2_PLACEMENT_3D ( 'NONE', #258, #408, #228 ) ;
#5 = DIRECTION ( 'NONE',  ( -1.092739197465705300E-016, 1.000000000000000000, 0.0000000000000000000 ) ) ;
#6 = VERTEX_POINT ( 'NONE', #223 ) ;
#7 = EDGE_LOOP ( 'NONE', ( #217, #26, #75, #316 ) ) ;
#8 = CC_DESIGN_DATE_AND_TIME_ASSIGNMENT ( #348, #212, ( #347 ) ) ;
#9 = DIRECTION ( 'NONE',  ( 1.000000000000000000, 1.220147822927740700E-016, -0.0000000000000000000 ) ) ;
#10 = CARTESIAN_POINT ( 'NONE',  ( -0.7937499999999971800, -2.188640157376631100E-016, 0.0000000000000000000 ) ) ;
#11 = CALENDAR_DATE ( 2023, 19, 5 ) ;
#12 = LINE ( 'NONE', #193, #395 ) ;
#13 = AXIS2_PLACEMENT_3D ( 'NONE', #185, #377, #79 ) ;
#14 = DIRECTION ( 'NONE',  ( 0.0000000000000000000, 0.0000000000000000000, -1.000000000000000000 ) ) ;
#15 = ORIENTED_EDGE ( 'NONE', *, *, #128, .F. ) ;
#16 = DIRECTION ( 'NONE',  ( 1.000000000000000000, 1.220147822927740700E-016, -0.0000000000000000000 ) ) ;
#17 = EDGE_LOOP ( 'NONE', ( #140, #83, #301, #151 ) ) ;
#18 = CARTESIAN_POINT ( 'NONE',  ( 4.336808689942017700E-016, -1.220147822927739900E-016, 0.0000000000000000000 ) ) ;
#19 = CIRCLE ( 'NONE', #304, 3.968750000000000000 ) ;
#20 = AXIS2_PLACEMENT_3D ( 'NONE', #341, #293, #392 ) ;
#21 = PERSON_AND_ORGANIZATION_ROLE ( 'creator' ) ;
#22 = ORIENTED_EDGE ( 'NONE', *, *, #198, .T. ) ;
#23 = ORIENTED_EDGE ( 'NONE', *, *, #138, .T. ) ;
#24 = AXIS2_PLACEMENT_3D ( 'NONE', #252, #402, #218 ) ;
#25 = DATE_AND_TIME ( #139, #230 ) ;
#26 = ORIENTED_EDGE ( 'NONE', *, *, #231, .T. ) ;
#27 = CARTESIAN_POINT ( 'NONE',  ( -43.44999999999999600, -5.423557072913806700E-015, 0.0000000000000000000 ) ) ;
#28 = EDGE_LOOP ( 'NONE', ( #116, #36, #48, #279 ) ) ;
#29 = ORIENTED_EDGE ( 'NONE', *, *, #98, .T. ) ;
#30 = CARTESIAN_POINT ( 'NONE',  ( 1.000000000000000000, 0.0000000000000000000, 0.0000000000000000000 ) ) ;
#31 = AXIS2_PLACEMENT_3D ( 'NONE', #27, #123, #307 ) ;
#32 = CIRCLE ( 'NONE', #271, 3.968750000000000000 ) ;
#33 = AXIS2_PLACEMENT_3D ( 'NONE', #376, #182, #349 ) ;
#34 = ADVANCED_FACE ( 'NONE', ( #127 ), #308, .T. ) ;
#35 = CARTESIAN_POINT ( 'NONE',  ( -0.7937499999999966200, -4.762500000000000200, 0.0000000000000000000 ) ) ;
#36 = ORIENTED_EDGE ( 'NONE', *, *, #246, .T. ) ;
#37 = EDGE_LOOP ( 'NONE', ( #152, #243 ) ) ;
#38 = DIRECTION ( 'NONE',  ( 1.220147822927740900E-016, -1.000000000000000000, 0.0000000000000000000 ) ) ;
#39 = PRODUCT_DEFINITION_FORMATION_WITH_SPECIFIED_SOURCE ( 'ANY', '', #219, .NOT_KNOWN. ) ;
#40 = PERSON_AND_ORGANIZATION ( #76, #242 ) ;
#41 = ORIENTED_EDGE ( 'NONE', *, *, #187, .F. ) ;
#42 = AXIS2_PLACEMENT_3D ( 'NONE', #305, #120, #329 ) ;
#43 = ORIENTED_EDGE ( 'NONE', *, *, #138, .F. ) ;
#44 = ORIENTED_EDGE ( 'NONE', *, *, #147, .F. ) ;
#45 = ORIENTED_EDGE ( 'NONE', *, *, #128, .T. ) ;
#46 = VECTOR ( 'NONE', #97, 999.9999999999998900 ) ;
#47 = CARTESIAN_POINT ( 'NONE',  ( -5.056529823024532700E-017, 3.968750000000000000, 4.860316984116058100E-016 ) ) ;
#48 = ORIENTED_EDGE ( 'NONE', *, *, #162, .T. ) ;
#49 = AXIS2_PLACEMENT_3D ( 'NONE', #172, #289, #14 ) ;
#50 = ORIENTED_EDGE ( 'NONE', *, *, #87, .F. ) ;
#51 = CARTESIAN_POINT ( 'NONE',  ( 9.179270362186489400E-016, -3.968750000000000000, 0.0000000000000000000 ) ) ;
#52 = EDGE_LOOP ( 'NONE', ( #23, #45, #135, #44 ) ) ;
#53 = DIRECTION ( 'NONE',  ( 0.0000000000000000000, 0.0000000000000000000, 1.000000000000000000 ) ) ;
#54 = AXIS2_PLACEMENT_3D ( 'NONE', #30, #302, #118 ) ;
#55 = ORIENTED_EDGE ( 'NONE', *, *, #213, .F. ) ;
#56 = ORIENTED_EDGE ( 'NONE', *, *, #144, .T. ) ;
#57 = DIRECTION ( 'NONE',  ( -1.138269997360109700E-016, 1.000000000000000000, 0.0000000000000000000 ) ) ;
#58 = ORIENTED_EDGE ( 'NONE', *, *, #222, .T. ) ;
#59 = VERTEX_POINT ( 'NONE', #158 ) ;
#60 = CARTESIAN_POINT ( 'NONE',  ( -43.14999999999999900, -4.762500000000004600, 5.832380380939273100E-016 ) ) ;
#61 = CARTESIAN_POINT ( 'NONE',  ( -43.14999999999999900, -5.386952638225974900E-015, 0.0000000000000000000 ) ) ;
#62 = VECTOR ( 'NONE', #236, 1000.000000000000000 ) ;
#63 = AXIS2_PLACEMENT_3D ( 'NONE', #283, #382, #86 ) ;
#64 = DIRECTION ( 'NONE',  ( 0.0000000000000000000, 0.0000000000000000000, 1.000000000000000000 ) ) ;
#65 = ORIENTED_EDGE ( 'NONE', *, *, #159, .F. ) ;
#66 = DIRECTION ( 'NONE',  ( 1.000000000000000000, 0.0000000000000000000, 0.0000000000000000000 ) ) ;
#67 = ORIENTED_EDGE ( 'NONE', *, *, #87, .T. ) ;
#68 = AXIS2_PLACEMENT_3D ( 'NONE', #81, #226, #38 ) ;
#69 = EDGE_LOOP ( 'NONE', ( #43, #55 ) ) ;
#70 = MANIFOLD_SOLID_BREP ( 'È¸Àü3', #102 ) ;
#71 = SECURITY_CLASSIFICATION_LEVEL ( 'unclassified' ) ;
#72 = APPROVAL ( #399, 'UNSPECIFIED' ) ;
#73 = ORIENTED_EDGE ( 'NONE', *, *, #98, .F. ) ;
#74 = ORIENTED_EDGE ( 'NONE', *, *, #246, .F. ) ;
#75 = ORIENTED_EDGE ( 'NONE', *, *, #209, .T. ) ;
#76 = PERSON ( 'UNSPECIFIED', 'UNSPECIFIED', 'UNSPECIFIED', ('UNSPECIFIED'), ('UNSPECIFIED'), ('UNSPECIFIED') ) ;
#77 = DIRECTION ( 'NONE',  ( 0.7071067811865413600, 0.7071067811865536800, 0.0000000000000000000 ) ) ;
#78 = LOCAL_TIME ( 10, 45, 47.00000000000000000, #175 ) ;
#79 = DIRECTION ( 'NONE',  ( -1.092739197465705300E-016, 1.000000000000000000, 0.0000000000000000000 ) ) ;
#80 = VECTOR ( 'NONE', #77, 1000.000000000000100 ) ;
#81 = CARTESIAN_POINT ( 'NONE',  ( 4.336808689942017700E-016, -1.220147822927739900E-016, 0.0000000000000000000 ) ) ;
#82 = EDGE_LOOP ( 'NONE', ( #101, #22, #375, #130 ) ) ;
#83 = ORIENTED_EDGE ( 'NONE', *, *, #187, .T. ) ;
#84 = ADVANCED_FACE ( 'NONE', ( #207 ), #278, .T. ) ;
#85 = AXIS2_PLACEMENT_3D ( 'NONE', #61, #320, #270 ) ;
#86 = DIRECTION ( 'NONE',  ( -1.220147822927740700E-016, 1.000000000000000000, 0.0000000000000000000 ) ) ;
#87 = EDGE_CURVE ( 'NONE', #111, #90, #285, .T. ) ;
#88 = CARTESIAN_POINT ( 'NONE',  ( 9.179270362186489400E-016, -3.968750000000000000, 4.860316984116058100E-016 ) ) ;
#89 = ORIENTED_EDGE ( 'NONE', *, *, #122, .T. ) ;
#90 = VERTEX_POINT ( 'NONE', #328 ) ;
#91 = CALENDAR_DATE ( 2023, 19, 5 ) ;
#92 = CYLINDRICAL_SURFACE ( 'NONE', #13, 3.968750000000000000 ) ;
#93 = EDGE_CURVE ( 'NONE', #90, #292, #344, .T. ) ;
#94 = CARTESIAN_POINT ( 'NONE',  ( 1.000000000000000000, 0.0000000000000000000, 0.0000000000000000000 ) ) ;
#95 = VERTEX_POINT ( 'NONE', #35 ) ;
#96 = ORIENTED_EDGE ( 'NONE', *, *, #231, .F. ) ;
#97 = DIRECTION ( 'NONE',  ( -0.7071067811865464600, 0.7071067811865486800, 8.659560562354948900E-017 ) ) ;
#98 = EDGE_CURVE ( 'NONE', #59, #292, #197, .T. ) ;
#99 = CYLINDRICAL_SURFACE ( 'NONE', #157, 3.968750000000003600 ) ;
#100 = CC_DESIGN_APPROVAL ( #72, ( #39 ) ) ;
#101 = ORIENTED_EDGE ( 'NONE', *, *, #166, .T. ) ;
#102 = CLOSED_SHELL ( 'NONE', ( #225, #330, #282, #306 ) ) ;
#103 = PERSON_AND_ORGANIZATION ( #76, #242 ) ;
#104 = VECTOR ( 'NONE', #155, 1000.000000000000000 ) ;
#105 = PLANE ( 'NONE',  #109 ) ;
#106 = VERTEX_POINT ( 'NONE', #189 ) ;
#107 = PERSON_AND_ORGANIZATION_ROLE ( 'design_owner' ) ;
#108 = FACE_OUTER_BOUND ( 'NONE', #37, .T. ) ;
#109 = AXIS2_PLACEMENT_3D ( 'NONE', #245, #142, #345 ) ;
#110 = DATE_TIME_ROLE ( 'classification_date' ) ;
#111 = VERTEX_POINT ( 'NONE', #351 ) ;
#112 = EDGE_CURVE ( 'NONE', #111, #59, #404, .T. ) ;
#113 = COORDINATED_UNIVERSAL_TIME_OFFSET ( 9, 0, .AHEAD. ) ;
#114 = FACE_OUTER_BOUND ( 'NONE', #7, .T. ) ;
#115 = DIRECTION ( 'NONE',  ( -1.000000000000000000, -0.0000000000000000000, -0.0000000000000000000 ) ) ;
#116 = ORIENTED_EDGE ( 'NONE', *, *, #153, .F. ) ;
#117 = EDGE_CURVE ( 'NONE', #59, #111, #350, .T. ) ;
#118 = DIRECTION ( 'NONE',  ( 0.0000000000000000000, 0.0000000000000000000, 1.000000000000000000 ) ) ;
#119 = ADVANCED_FACE ( 'NONE', ( #114 ), #92, .T. ) ;
#120 = DIRECTION ( 'NONE',  ( -1.000000000000000000, -0.0000000000000000000, -0.0000000000000000000 ) ) ;
#121 = CIRCLE ( 'NONE', #337, 3.968750000000000000 ) ;
#122 = EDGE_CURVE ( 'NONE', #292, #90, #184, .T. ) ;
#123 = DIRECTION ( 'NONE',  ( 1.000000000000000000, 1.220147822927740700E-016, -0.0000000000000000000 ) ) ;
#124 = CC_DESIGN_PERSON_AND_ORGANIZATION_ASSIGNMENT ( #103, #21, ( #39 ) ) ;
#125 = DIRECTION ( 'NONE',  ( 1.000000000000000000, 1.220147822927740700E-016, -0.0000000000000000000 ) ) ;
#126 = LOCAL_TIME ( 10, 45, 47.00000000000000000, #215 ) ;
#127 = FACE_OUTER_BOUND ( 'NONE', #366, .T. ) ;
#128 = EDGE_CURVE ( 'NONE', #194, #300, #12, .T. ) ;
#129 = VERTEX_POINT ( 'NONE', #410 ) ;
#130 = ORIENTED_EDGE ( 'NONE', *, *, #209, .F. ) ;
#131 = VECTOR ( 'NONE', #313, 1000.000000000000000 ) ;
#132 = DIRECTION ( 'NONE',  ( 1.000000000000000000, 1.220147822927740700E-016, -0.0000000000000000000 ) ) ;
#133 = VERTEX_POINT ( 'NONE', #88 ) ;
#134 = DIRECTION ( 'NONE',  ( 1.000000000000000000, 1.220147822927740700E-016, -0.0000000000000000000 ) ) ;
#135 = ORIENTED_EDGE ( 'NONE', *, *, #144, .F. ) ;
#136 = ORIENTED_EDGE ( 'NONE', *, *, #93, .F. ) ;
#137 = CARTESIAN_POINT ( 'NONE',  ( -43.44999999999999600, -5.423557072913806700E-015, 0.0000000000000000000 ) ) ;
#138 = EDGE_CURVE ( 'NONE', #106, #194, #269, .T. ) ;
#139 = CALENDAR_DATE ( 2023, 19, 5 ) ;
#140 = ORIENTED_EDGE ( 'NONE', *, *, #166, .F. ) ;
#141 = DIRECTION ( 'NONE',  ( 1.000000000000000000, 1.220147822927740700E-016, -0.0000000000000000000 ) ) ;
#142 = DIRECTION ( 'NONE',  ( -1.000000000000000000, 0.0000000000000000000, -0.0000000000000000000 ) ) ;
#143 = CARTESIAN_POINT ( 'NONE',  ( -43.45000000000000300, -5.423557072913808300E-015, 0.0000000000000000000 ) ) ;
#144 = EDGE_CURVE ( 'NONE', #164, #300, #335, .T. ) ;
#145 = CYLINDRICAL_SURFACE ( 'NONE', #286, 4.762500000000000200 ) ;
#146 = APPLICATION_PROTOCOL_DEFINITION ( 'international standard', 'config_control_design', 1994, #322 ) ;
#147 = EDGE_CURVE ( 'NONE', #106, #164, #327, .T. ) ;
#148 = APPROVAL_ROLE ( '' ) ;
#149 = PERSON_AND_ORGANIZATION ( #76, #242 ) ;
#150 = CC_DESIGN_PERSON_AND_ORGANIZATION_ASSIGNMENT ( #403, #274, ( #39 ) ) ;
#151 = ORIENTED_EDGE ( 'NONE', *, *, #192, .F. ) ;
#152 = ORIENTED_EDGE ( 'NONE', *, *, #112, .F. ) ;
#153 = EDGE_CURVE ( 'NONE', #300, #95, #261, .T. ) ;
#154 = FACE_OUTER_BOUND ( 'NONE', #359, .T. ) ;
#155 = DIRECTION ( 'NONE',  ( -1.000000000000000000, -0.0000000000000000000, -0.0000000000000000000 ) ) ;
#156 = ADVANCED_FACE ( 'NONE', ( #161 ), #247, .T. ) ;
#157 = AXIS2_PLACEMENT_3D ( 'NONE', #267, #396, #369 ) ;
#158 = CARTESIAN_POINT ( 'NONE',  ( 35.92499999999999700, 4.860316984116066000E-016, -3.968750000000006200 ) ) ;
#159 = EDGE_CURVE ( 'NONE', #6, #95, #311, .T. ) ;
#160 = PRODUCT_DEFINITION_SHAPE ( 'NONE', 'NONE',  #347 ) ;
#161 = FACE_OUTER_BOUND ( 'NONE', #257, .T. ) ;
#162 = EDGE_CURVE ( 'NONE', #164, #6, #386, .T. ) ;
#163 = CARTESIAN_POINT ( 'NONE',  ( -0.7937499999999971800, -2.188640157376631100E-016, 0.0000000000000000000 ) ) ;
#164 = VERTEX_POINT ( 'NONE', #387 ) ;
#165 = DIRECTION ( 'NONE',  ( 1.000000000000000000, 1.220147822927740700E-016, -0.0000000000000000000 ) ) ;
#166 = EDGE_CURVE ( 'NONE', #220, #133, #176, .T. ) ;
#167 = CONICAL_SURFACE ( 'NONE', #201, 3.968750000000000000, 0.7853981633974499400 ) ;
#168 = DIRECTION ( 'NONE',  ( 0.0000000000000000000, 1.000000000000000000, 0.0000000000000000000 ) ) ;
#169 = SECURITY_CLASSIFICATION ( '', '', #71 ) ;
#170 = ORIENTED_EDGE ( 'NONE', *, *, #112, .T. ) ;
#171 = CARTESIAN_POINT ( 'NONE',  ( 4.336808689942017700E-016, -1.220147822927739900E-016, 0.0000000000000000000 ) ) ;
#172 = CARTESIAN_POINT ( 'NONE',  ( 1.000000000000000400, 2.185478394931412300E-016, 0.0000000000000000000 ) ) ;
#173 = AXIS2_PLACEMENT_3D ( 'NONE', #163, #360, #199 ) ;
#174 = DIRECTION ( 'NONE',  ( -1.365923996832131600E-016, 1.000000000000000000, 0.0000000000000000000 ) ) ;
#175 = COORDINATED_UNIVERSAL_TIME_OFFSET ( 9, 0, .AHEAD. ) ;
#176 = CIRCLE ( 'NONE', #235, 3.968750000000000000 ) ;
#177 = PLANE ( 'NONE',  #227 ) ;
#178 =( LENGTH_UNIT ( ) NAMED_UNIT ( * ) SI_UNIT ( .MILLI., .METRE. ) );
#179 = APPROVAL_ROLE ( '' ) ;
#180 = AXIS2_PLACEMENT_3D ( 'NONE', #317, #16, #174 ) ;
#181 = FACE_OUTER_BOUND ( 'NONE', #409, .T. ) ;
#182 = DIRECTION ( 'NONE',  ( -1.000000000000000000, -0.0000000000000000000, -0.0000000000000000000 ) ) ;
#183 = LOCAL_TIME ( 10, 45, 47.00000000000000000, #268 ) ;
#184 = CIRCLE ( 'NONE', #24, 3.968750000000000000 ) ;
#185 = CARTESIAN_POINT ( 'NONE',  ( 1.000000000000000000, 0.0000000000000000000, 0.0000000000000000000 ) ) ;
#186 = EDGE_LOOP ( 'NONE', ( #232, #89 ) ) ;
#187 = EDGE_CURVE ( 'NONE', #220, #6, #254, .T. ) ;
#188 = ORIENTED_EDGE ( 'NONE', *, *, #204, .T. ) ;
#189 = CARTESIAN_POINT ( 'NONE',  ( -43.44999999999999600, 4.462499999999995000, 0.0000000000000000000 ) ) ;
#190 = ADVANCED_FACE ( 'NONE', ( #154 ), #145, .T. ) ;
#191 = FACE_OUTER_BOUND ( 'NONE', #69, .T. ) ;
#192 = EDGE_CURVE ( 'NONE', #133, #95, #371, .T. ) ;
#193 = CARTESIAN_POINT ( 'NONE',  ( -43.14999999999999900, -4.762500000000005500, 5.832380380939270100E-016 ) ) ;
#194 = VERTEX_POINT ( 'NONE', #262 ) ;
#195 = CC_DESIGN_PERSON_AND_ORGANIZATION_ASSIGNMENT ( #334, #298, ( #169 ) ) ;
#196 = APPROVAL_DATE_TIME ( #277, #72 ) ;
#197 = LINE ( 'NONE', #405, #104 ) ;
#198 = EDGE_CURVE ( 'NONE', #133, #129, #361, .T. ) ;
#199 = DIRECTION ( 'NONE',  ( -1.138269997360109700E-016, 1.000000000000000000, 0.0000000000000000000 ) ) ;
#200 = FACE_OUTER_BOUND ( 'NONE', #186, .T. ) ;
#201 = AXIS2_PLACEMENT_3D ( 'NONE', #18, #208, #370 ) ;
#202 = ORIENTED_EDGE ( 'NONE', *, *, #213, .T. ) ;
#203 = CARTESIAN_POINT ( 'NONE',  ( 0.9999999999999995600, 3.968750000000000000, 0.0000000000000000000 ) ) ;
#204 = EDGE_CURVE ( 'NONE', #355, #129, #32, .T. ) ;
#205 = DIRECTION ( 'NONE',  ( -1.220147822927740700E-016, 1.000000000000000000, 0.0000000000000000000 ) ) ;
#206 = APPROVAL_PERSON_ORGANIZATION ( #284, #72, #250 ) ;
#207 = FACE_OUTER_BOUND ( 'NONE', #17, .T. ) ;
#208 = DIRECTION ( 'NONE',  ( -1.000000000000000000, -1.220147822927740700E-016, 0.0000000000000000000 ) ) ;
#209 = EDGE_CURVE ( 'NONE', #220, #355, #234, .T. ) ;
#210 =( NAMED_UNIT ( * ) SI_UNIT ( $, .STERADIAN. ) SOLID_ANGLE_UNIT ( ) );
#211 = CIRCLE ( 'NONE', #321, 4.762500000000000200 ) ;
#212 = DATE_TIME_ROLE ( 'creation_date' ) ;
#213 = EDGE_CURVE ( 'NONE', #194, #106, #224, .T. ) ;
#214 = CC_DESIGN_DATE_AND_TIME_ASSIGNMENT ( #394, #110, ( #169 ) ) ;
#215 = COORDINATED_UNIVERSAL_TIME_OFFSET ( 9, 0, .AHEAD. ) ;
#216 = ORIENTED_EDGE ( 'NONE', *, *, #147, .T. ) ;
#217 = ORIENTED_EDGE ( 'NONE', *, *, #198, .F. ) ;
#218 = DIRECTION ( 'NONE',  ( 0.0000000000000000000, 0.0000000000000000000, 1.000000000000000000 ) ) ;
#219 = PRODUCT ( '03-2070', '03-2070', '', ( #297 ) ) ;
#220 = VERTEX_POINT ( 'NONE', #237 ) ;
#221 = CLOSED_SHELL ( 'NONE', ( #381, #190, #84, #256, #383, #34, #119, #407, #353, #156 ) ) ;
#222 = EDGE_CURVE ( 'NONE', #129, #355, #19, .T. ) ;
#223 = CARTESIAN_POINT ( 'NONE',  ( -0.7937499999999977400, 4.762500000000000200, 5.832380380939269100E-016 ) ) ;
#224 = CIRCLE ( 'NONE', #255, 4.462500000000000400 ) ;
#225 = ADVANCED_FACE ( 'NONE', ( #352 ), #3, .T. ) ;
#226 = DIRECTION ( 'NONE',  ( -1.000000000000000000, -1.220147822927740700E-016, 0.0000000000000000000 ) ) ;
#227 = AXIS2_PLACEMENT_3D ( 'NONE', #143, #398, #248 ) ;
#228 = DIRECTION ( 'NONE',  ( 0.0000000000000000000, 1.000000000000000000, 0.0000000000000000000 ) ) ;
#229 = ORIENTED_EDGE ( 'NONE', *, *, #153, .T. ) ;
#230 = LOCAL_TIME ( 10, 45, 47.00000000000000000, #299 ) ;
#231 = EDGE_CURVE ( 'NONE', #133, #220, #121, .T. ) ;
#232 = ORIENTED_EDGE ( 'NONE', *, *, #93, .T. ) ;
#233 = ORIENTED_EDGE ( 'NONE', *, *, #162, .F. ) ;
#234 = LINE ( 'NONE', #203, #131 ) ;
#235 = AXIS2_PLACEMENT_3D ( 'NONE', #312, #132, #338 ) ;
#236 = DIRECTION ( 'NONE',  ( 1.000000000000000000, 1.220147822927740700E-016, -0.0000000000000000000 ) ) ;
#237 = CARTESIAN_POINT ( 'NONE',  ( -5.056529823024532700E-017, 3.968750000000000000, 0.0000000000000000000 ) ) ;
#238 = EDGE_CURVE ( 'NONE', #95, #6, #211, .T. ) ;
#239 = DIRECTION ( 'NONE',  ( 1.000000000000000000, 1.220147822927740700E-016, -0.0000000000000000000 ) ) ;
#240 = DIRECTION ( 'NONE',  ( 1.000000000000000000, 1.220147822927740700E-016, -0.0000000000000000000 ) ) ;
#241 = CARTESIAN_POINT ( 'NONE',  ( 0.9999999999999993300, -7.320350136717032200E-032, 0.0000000000000000000 ) ) ;
#242 = ORGANIZATION ( 'UNSPECIFIED', 'UNSPECIFIED', '' ) ;
#243 = ORIENTED_EDGE ( 'NONE', *, *, #117, .F. ) ;
#244 = APPROVAL ( #324, 'UNSPECIFIED' ) ;
#245 = CARTESIAN_POINT ( 'NONE',  ( 35.92499999999999700, 0.0000000000000000000, 0.0000000000000000000 ) ) ;
#246 = EDGE_CURVE ( 'NONE', #300, #164, #287, .T. ) ;
#247 = CONICAL_SURFACE ( 'NONE', #1, 4.762500000000000200, 0.7853981633974569400 ) ;
#248 = DIRECTION ( 'NONE',  ( 1.220147822927740700E-016, -1.000000000000000000, 0.0000000000000000000 ) ) ;
#249 = APPLICATION_PROTOCOL_DEFINITION ( 'international standard', 'config_control_design', 1994, #272 ) ;
#250 = APPROVAL_ROLE ( '' ) ;
#251 =( GEOMETRIC_REPRESENTATION_CONTEXT ( 3 ) GLOBAL_UNCERTAINTY_ASSIGNED_CONTEXT ( ( #389 ) ) GLOBAL_UNIT_ASSIGNED_CONTEXT ( ( #178, #372, #210 ) ) REPRESENTATION_CONTEXT ( 'NONE', 'WORKASPACE' ) );
#252 = CARTESIAN_POINT ( 'NONE',  ( 1.000000000000000000, 0.0000000000000000000, 0.0000000000000000000 ) ) ;
#253 = APPROVAL_DATE_TIME ( #318, #244 ) ;
#254 = LINE ( 'NONE', #47, #46 ) ;
#255 = AXIS2_PLACEMENT_3D ( 'NONE', #137, #340, #168 ) ;
#256 = ADVANCED_FACE ( 'NONE', ( #379 ), #406, .T. ) ;
#257 = EDGE_LOOP ( 'NONE', ( #15, #202, #216, #74 ) ) ;
#258 = CARTESIAN_POINT ( 'NONE',  ( -43.14999999999999900, -5.386952638225974900E-015, 0.0000000000000000000 ) ) ;
#259 = CC_DESIGN_APPROVAL ( #244, ( #169 ) ) ;
#260 = APPROVAL_PERSON_ORGANIZATION ( #326, #244, #148 ) ;
#261 = LINE ( 'NONE', #356, #319 ) ;
#262 = CARTESIAN_POINT ( 'NONE',  ( -43.44999999999999600, -4.462500000000005700, 5.648683361067167800E-016 ) ) ;
#263 = DIRECTION ( 'NONE',  ( -1.000000000000000000, -0.0000000000000000000, -0.0000000000000000000 ) ) ;
#264 = ORIENTED_EDGE ( 'NONE', *, *, #122, .F. ) ;
#265 = DIRECTION ( 'NONE',  ( -1.092739197465705300E-016, 1.000000000000000000, 0.0000000000000000000 ) ) ;
#266 = DIRECTION ( 'NONE',  ( 1.000000000000000000, 1.220147822927740700E-016, -0.0000000000000000000 ) ) ;
#267 = CARTESIAN_POINT ( 'NONE',  ( 0.0000000000000000000, 0.0000000000000000000, 0.0000000000000000000 ) ) ;
#268 = COORDINATED_UNIVERSAL_TIME_OFFSET ( 9, 0, .AHEAD. ) ;
#269 = CIRCLE ( 'NONE', #31, 4.462500000000000400 ) ;
#270 = DIRECTION ( 'NONE',  ( 0.0000000000000000000, 1.000000000000000000, 0.0000000000000000000 ) ) ;
#271 = AXIS2_PLACEMENT_3D ( 'NONE', #390, #239, #5 ) ;
#272 = APPLICATION_CONTEXT ( 'configuration controlled 3d designs of mechanical parts and assemblies' ) ;
#273 = FACE_OUTER_BOUND ( 'NONE', #28, .T. ) ;
#274 = PERSON_AND_ORGANIZATION_ROLE ( 'design_supplier' ) ;
#275 = ADVANCED_BREP_SHAPE_REPRESENTATION ( '03-2070', ( #70, #331, #314 ), #251 ) ;
#276 = CC_DESIGN_SECURITY_CLASSIFICATION ( #169, ( #39 ) ) ;
#277 = DATE_AND_TIME ( #343, #411 ) ;
#278 = CONICAL_SURFACE ( 'NONE', #68, 3.968750000000000000, 0.7853981633974499400 ) ;
#279 = ORIENTED_EDGE ( 'NONE', *, *, #238, .F. ) ;
#280 = FACE_OUTER_BOUND ( 'NONE', #413, .T. ) ;
#281 = CARTESIAN_POINT ( 'NONE',  ( -43.14999999999999900, 4.762499999999994800, 0.0000000000000000000 ) ) ;
#282 = ADVANCED_FACE ( 'NONE', ( #200 ), #393, .F. ) ;
#283 = CARTESIAN_POINT ( 'NONE',  ( 0.9999999999999993300, 3.968750000000000000, 0.0000000000000000000 ) ) ;
#284 = PERSON_AND_ORGANIZATION ( #76, #242 ) ;
#285 = LINE ( 'NONE', #378, #412 ) ;
#286 = AXIS2_PLACEMENT_3D ( 'NONE', #94, #165, #362 ) ;
#287 = CIRCLE ( 'NONE', #373, 4.762500000000000200 ) ;
#288 = DIRECTION ( 'NONE',  ( -0.7071067811865462400, -0.7071067811865489100, 0.0000000000000000000 ) ) ;
#289 = DIRECTION ( 'NONE',  ( 1.000000000000000000, 0.0000000000000000000, 0.0000000000000000000 ) ) ;
#290 = PERSON_AND_ORGANIZATION ( #76, #242 ) ;
#291 = PRODUCT_RELATED_PRODUCT_CATEGORY ( 'detail', '', ( #219 ) ) ;
#292 = VERTEX_POINT ( 'NONE', #368 ) ;
#293 = DIRECTION ( 'NONE',  ( 1.000000000000000000, 1.220147822927740700E-016, -0.0000000000000000000 ) ) ;
#294 = CARTESIAN_POINT ( 'NONE',  ( 0.9999999999999988900, 3.968750000000000000, 0.0000000000000000000 ) ) ;
#295 = CARTESIAN_POINT ( 'NONE',  ( 0.0000000000000000000, 0.0000000000000000000, 0.0000000000000000000 ) ) ;
#296 = VECTOR ( 'NONE', #134, 1000.000000000000000 ) ;
#297 = MECHANICAL_CONTEXT ( 'NONE', #272, 'mechanical' ) ;
#298 = PERSON_AND_ORGANIZATION_ROLE ( 'classification_officer' ) ;
#299 = COORDINATED_UNIVERSAL_TIME_OFFSET ( 9, 0, .AHEAD. ) ;
#300 = VERTEX_POINT ( 'NONE', #60 ) ;
#301 = ORIENTED_EDGE ( 'NONE', *, *, #159, .T. ) ;
#302 = DIRECTION ( 'NONE',  ( -1.000000000000000000, -0.0000000000000000000, -0.0000000000000000000 ) ) ;
#303 = VECTOR ( 'NONE', #288, 999.9999999999998900 ) ;
#304 = AXIS2_PLACEMENT_3D ( 'NONE', #241, #9, #265 ) ;
#305 = CARTESIAN_POINT ( 'NONE',  ( 35.92499999999999700, 0.0000000000000000000, 0.0000000000000000000 ) ) ;
#306 = ADVANCED_FACE ( 'NONE', ( #108 ), #105, .F. ) ;
#307 = DIRECTION ( 'NONE',  ( 0.0000000000000000000, 1.000000000000000000, 0.0000000000000000000 ) ) ;
#308 = PLANE ( 'NONE',  #63 ) ;
#309 = SHAPE_DEFINITION_REPRESENTATION ( #160, #275 ) ;
#310 = ORIENTED_EDGE ( 'NONE', *, *, #238, .T. ) ;
#311 = CIRCLE ( 'NONE', #173, 4.762500000000000200 ) ;
#312 = CARTESIAN_POINT ( 'NONE',  ( 4.336808689942017700E-016, -1.220147822927739900E-016, 0.0000000000000000000 ) ) ;
#313 = DIRECTION ( 'NONE',  ( 1.000000000000000000, 1.220147822927740700E-016, -0.0000000000000000000 ) ) ;
#314 = AXIS2_PLACEMENT_3D ( 'NONE', #295, #64, #66 ) ;
#315 = CARTESIAN_POINT ( 'NONE',  ( -43.14999999999999900, -5.386952638225974900E-015, 0.0000000000000000000 ) ) ;
#316 = ORIENTED_EDGE ( 'NONE', *, *, #222, .F. ) ;
#317 = CARTESIAN_POINT ( 'NONE',  ( 1.000000000000000000, 0.0000000000000000000, 0.0000000000000000000 ) ) ;
#318 = DATE_AND_TIME ( #385, #78 ) ;
#319 = VECTOR ( 'NONE', #125, 1000.000000000000000 ) ;
#320 = DIRECTION ( 'NONE',  ( 1.000000000000000000, 1.220147822927740700E-016, -0.0000000000000000000 ) ) ;
#321 = AXIS2_PLACEMENT_3D ( 'NONE', #10, #266, #57 ) ;
#322 = APPLICATION_CONTEXT ( 'configuration controlled 3d designs of mechanical parts and assemblies' ) ;
#323 = ORIENTED_EDGE ( 'NONE', *, *, #192, .T. ) ;
#324 = APPROVAL_STATUS ( 'not_yet_approved' ) ;
#325 = DESIGN_CONTEXT ( 'detailed design', #322, 'design' ) ;
#326 = PERSON_AND_ORGANIZATION ( #76, #242 ) ;
#327 = LINE ( 'NONE', #281, #80 ) ;
#328 = CARTESIAN_POINT ( 'NONE',  ( 1.000000000000000000, 0.0000000000000000000, 3.968750000000000000 ) ) ;
#329 = DIRECTION ( 'NONE',  ( 0.0000000000000000000, 0.0000000000000000000, 1.000000000000000000 ) ) ;
#330 = ADVANCED_FACE ( 'NONE', ( #280 ), #99, .T. ) ;
#331 = MANIFOLD_SOLID_BREP ( 'È¸Àü4', #221 ) ;
#332 = CYLINDRICAL_SURFACE ( 'NONE', #180, 4.762500000000000200 ) ;
#333 = CC_DESIGN_PERSON_AND_ORGANIZATION_ASSIGNMENT ( #149, #107, ( #219 ) ) ;
#334 = PERSON_AND_ORGANIZATION ( #76, #242 ) ;
#335 = CIRCLE ( 'NONE', #4, 4.762500000000000200 ) ;
#336 = CARTESIAN_POINT ( 'NONE',  ( 0.9999999999999993300, 4.762500000000000200, 0.0000000000000000000 ) ) ;
#337 = AXIS2_PLACEMENT_3D ( 'NONE', #171, #367, #205 ) ;
#338 = DIRECTION ( 'NONE',  ( -1.220147822927740700E-016, 1.000000000000000000, 0.0000000000000000000 ) ) ;
#339 = FACE_OUTER_BOUND ( 'NONE', #52, .T. ) ;
#340 = DIRECTION ( 'NONE',  ( 1.000000000000000000, 1.220147822927740700E-016, -0.0000000000000000000 ) ) ;
#341 = CARTESIAN_POINT ( 'NONE',  ( 1.000000000000000000, 0.0000000000000000000, 0.0000000000000000000 ) ) ;
#342 = DIRECTION ( 'NONE',  ( 0.0000000000000000000, 1.000000000000000000, 0.0000000000000000000 ) ) ;
#343 = CALENDAR_DATE ( 2023, 19, 5 ) ;
#344 = CIRCLE ( 'NONE', #54, 3.968750000000000000 ) ;
#345 = DIRECTION ( 'NONE',  ( -0.0000000000000000000, 0.0000000000000000000, 1.000000000000000000 ) ) ;
#346 = APPROVAL_STATUS ( 'not_yet_approved' ) ;
#347 = PRODUCT_DEFINITION ( 'UNKNOWN', '', #39, #325 ) ;
#348 = DATE_AND_TIME ( #11, #126 ) ;
#349 = DIRECTION ( 'NONE',  ( 0.0000000000000000000, 0.0000000000000000000, 1.000000000000000000 ) ) ;
#350 = CIRCLE ( 'NONE', #33, 3.968750000000006200 ) ;
#351 = CARTESIAN_POINT ( 'NONE',  ( 35.92499999999999700, 0.0000000000000000000, 3.968750000000006200 ) ) ;
#352 = FACE_OUTER_BOUND ( 'NONE', #2, .T. ) ;
#353 = ADVANCED_FACE ( 'NONE', ( #273 ), #332, .T. ) ;
#354 = AXIS2_PLACEMENT_3D ( 'NONE', #364, #263, #53 ) ;
#355 = VERTEX_POINT ( 'NONE', #294 ) ;
#356 = CARTESIAN_POINT ( 'NONE',  ( 1.000000000000000700, -4.762500000000000200, 5.832380380939270100E-016 ) ) ;
#357 = DIRECTION ( 'NONE',  ( 0.7071067811865415800, -0.7071067811865535700, 8.659560562355008000E-017 ) ) ;
#358 = APPROVAL_DATE_TIME ( #25, #363 ) ;
#359 = EDGE_LOOP ( 'NONE', ( #56, #229, #65, #233 ) ) ;
#360 = DIRECTION ( 'NONE',  ( 1.000000000000000000, 1.220147822927740700E-016, -0.0000000000000000000 ) ) ;
#361 = LINE ( 'NONE', #388, #296 ) ;
#362 = DIRECTION ( 'NONE',  ( -1.365923996832131600E-016, 1.000000000000000000, 0.0000000000000000000 ) ) ;
#363 = APPROVAL ( #346, 'UNSPECIFIED' ) ;
#364 = CARTESIAN_POINT ( 'NONE',  ( 0.0000000000000000000, 0.0000000000000000000, 0.0000000000000000000 ) ) ;
#365 = APPROVAL_PERSON_ORGANIZATION ( #40, #363, #179 ) ;
#366 = EDGE_LOOP ( 'NONE', ( #188, #58 ) ) ;
#367 = DIRECTION ( 'NONE',  ( 1.000000000000000000, 1.220147822927740700E-016, -0.0000000000000000000 ) ) ;
#368 = CARTESIAN_POINT ( 'NONE',  ( 1.000000000000000000, 4.860316984116061100E-016, -3.968750000000000000 ) ) ;
#369 = DIRECTION ( 'NONE',  ( 0.0000000000000000000, 0.0000000000000000000, 1.000000000000000000 ) ) ;
#370 = DIRECTION ( 'NONE',  ( 1.220147822927740900E-016, -1.000000000000000000, 0.0000000000000000000 ) ) ;
#371 = LINE ( 'NONE', #51, #303 ) ;
#372 =( NAMED_UNIT ( * ) PLANE_ANGLE_UNIT ( ) SI_UNIT ( $, .RADIAN. ) );
#373 = AXIS2_PLACEMENT_3D ( 'NONE', #315, #141, #342 ) ;
#374 = PERSON_AND_ORGANIZATION_ROLE ( 'creator' ) ;
#375 = ORIENTED_EDGE ( 'NONE', *, *, #204, .F. ) ;
#376 = CARTESIAN_POINT ( 'NONE',  ( 35.92499999999999700, 0.0000000000000000000, 0.0000000000000000000 ) ) ;
#377 = DIRECTION ( 'NONE',  ( 1.000000000000000000, 1.220147822927740700E-016, -0.0000000000000000000 ) ) ;
#378 = CARTESIAN_POINT ( 'NONE',  ( 0.0000000000000000000, 0.0000000000000000000, 3.968750000000003600 ) ) ;
#379 = FACE_OUTER_BOUND ( 'NONE', #82, .T. ) ;
#380 = CARTESIAN_POINT ( 'NONE',  ( -43.14999999999999900, -5.386952638225974900E-015, 0.0000000000000000000 ) ) ;
#381 = ADVANCED_FACE ( 'NONE', ( #339 ), #391, .T. ) ;
#382 = DIRECTION ( 'NONE',  ( 1.000000000000000000, 1.220147822927740700E-016, -0.0000000000000000000 ) ) ;
#383 = ADVANCED_FACE ( 'NONE', ( #191 ), #177, .T. ) ;
#384 = CC_DESIGN_APPROVAL ( #363, ( #347 ) ) ;
#385 = CALENDAR_DATE ( 2023, 19, 5 ) ;
#386 = LINE ( 'NONE', #336, #62 ) ;
#387 = CARTESIAN_POINT ( 'NONE',  ( -43.14999999999999900, 4.762499999999994800, 0.0000000000000000000 ) ) ;
#388 = CARTESIAN_POINT ( 'NONE',  ( 1.000000000000000400, -3.968750000000000000, 4.860316984116058100E-016 ) ) ;
#389 = UNCERTAINTY_MEASURE_WITH_UNIT (LENGTH_MEASURE( 1.000000000000000100E-005 ), #178, 'distance_accuracy_value', 'NONE');
#390 = CARTESIAN_POINT ( 'NONE',  ( 0.9999999999999993300, -7.320350136717032200E-032, 0.0000000000000000000 ) ) ;
#391 = CONICAL_SURFACE ( 'NONE', #85, 4.762500000000000200, 0.7853981633974569400 ) ;
#392 = DIRECTION ( 'NONE',  ( -1.092739197465705300E-016, 1.000000000000000000, 0.0000000000000000000 ) ) ;
#393 = PLANE ( 'NONE',  #49 ) ;
#394 = DATE_AND_TIME ( #91, #183 ) ;
#395 = VECTOR ( 'NONE', #357, 1000.000000000000000 ) ;
#396 = DIRECTION ( 'NONE',  ( -1.000000000000000000, -0.0000000000000000000, -0.0000000000000000000 ) ) ;
#397 = DIRECTION ( 'NONE',  ( 0.0000000000000000000, 1.000000000000000000, 0.0000000000000000000 ) ) ;
#398 = DIRECTION ( 'NONE',  ( -1.000000000000000000, -1.220147822927740700E-016, 0.0000000000000000000 ) ) ;
#399 = APPROVAL_STATUS ( 'not_yet_approved' ) ;
#400 = CC_DESIGN_PERSON_AND_ORGANIZATION_ASSIGNMENT ( #290, #374, ( #347 ) ) ;
#401 = ORIENTED_EDGE ( 'NONE', *, *, #117, .T. ) ;
#402 = DIRECTION ( 'NONE',  ( -1.000000000000000000, -0.0000000000000000000, -0.0000000000000000000 ) ) ;
#403 = PERSON_AND_ORGANIZATION ( #76, #242 ) ;
#404 = CIRCLE ( 'NONE', #42, 3.968750000000006200 ) ;
#405 = CARTESIAN_POINT ( 'NONE',  ( 0.0000000000000000000, 4.860316984116063000E-016, -3.968750000000003600 ) ) ;
#406 = CYLINDRICAL_SURFACE ( 'NONE', #20, 3.968750000000000000 ) ;
#407 = ADVANCED_FACE ( 'NONE', ( #181 ), #167, .T. ) ;
#408 = DIRECTION ( 'NONE',  ( 1.000000000000000000, 1.220147822927740700E-016, -0.0000000000000000000 ) ) ;
#409 = EDGE_LOOP ( 'NONE', ( #41, #96, #323, #310 ) ) ;
#410 = CARTESIAN_POINT ( 'NONE',  ( 0.9999999999999997800, -3.968750000000000000, 4.860316984116058100E-016 ) ) ;
#411 = LOCAL_TIME ( 10, 45, 47.00000000000000000, #113 ) ;
#412 = VECTOR ( 'NONE', #115, 1000.000000000000000 ) ;
#413 = EDGE_LOOP ( 'NONE', ( #73, #401, #67, #264 ) ) ;
ENDSEC;
END-ISO-10303-21;
