ISO-10303-21;
HEADER;
FILE_DESCRIPTION (( 'STEP AP203' ),
    '1' );
FILE_NAME ('03-2071.STEP',
    '2023-05-19T01:46:01',
    ( 'USER' ),
    ( 'Hewlett-Packard Company' ),
    'SwSTEP 2.0',
    'SolidWorks 2014',
    '' );
FILE_SCHEMA (( 'CONFIG_CONTROL_DESIGN' ));
ENDSEC;

DATA;
#1 = APPROVAL ( #292, 'UNSPECIFIED' ) ;
#2 = EDGE_LOOP ( 'NONE', ( #268, #126 ) ) ;
#3 = PERSON_AND_ORGANIZATION_ROLE ( 'creator' ) ;
#4 = PRODUCT_DEFINITION ( 'UNKNOWN', '', #252, #276 ) ;
#5 = LOCAL_TIME ( 10, 46, 1.000000000000000000, #78 ) ;
#6 = CYLINDRICAL_SURFACE ( 'NONE', #90, 4.762499999999999300 ) ;
#7 = CC_DESIGN_PERSON_AND_ORGANIZATION_ASSIGNMENT ( #58, #108, ( #165 ) ) ;
#8 = ORIENTED_EDGE ( 'NONE', *, *, #136, .T. ) ;
#9 = AXIS2_PLACEMENT_3D ( 'NONE', #290, #228, #83 ) ;
#10 = CONICAL_SURFACE ( 'NONE', #51, 4.762500000000000200, 0.7853981633974569400 ) ;
#11 = VERTEX_POINT ( 'NONE', #129 ) ;
#12 = CALENDAR_DATE ( 2023, 19, 5 ) ;
#13 = CARTESIAN_POINT ( 'NONE',  ( 39.10000000000000100, 0.0000000000000000000, 0.0000000000000000000 ) ) ;
#14 = ORIENTED_EDGE ( 'NONE', *, *, #117, .T. ) ;
#15 = DIRECTION ( 'NONE',  ( 0.0000000000000000000, 0.0000000000000000000, 1.000000000000000000 ) ) ;
#16 = SECURITY_CLASSIFICATION ( '', '', #104 ) ;
#17 = ADVANCED_FACE ( 'NONE', ( #257 ), #197, .T. ) ;
#18 = FACE_OUTER_BOUND ( 'NONE', #85, .T. ) ;
#19 = CARTESIAN_POINT ( 'NONE',  ( 0.9999999999999988900, 4.762500000000000200, 0.0000000000000000000 ) ) ;
#20 = AXIS2_PLACEMENT_3D ( 'NONE', #31, #160, #188 ) ;
#21 = CARTESIAN_POINT ( 'NONE',  ( -43.14999999999999900, 4.762499999999994800, 0.0000000000000000000 ) ) ;
#22 = DIRECTION ( 'NONE',  ( 0.0000000000000000000, 1.000000000000000000, 0.0000000000000000000 ) ) ;
#23 =( GEOMETRIC_REPRESENTATION_CONTEXT ( 3 ) GLOBAL_UNCERTAINTY_ASSIGNED_CONTEXT ( ( #52 ) ) GLOBAL_UNIT_ASSIGNED_CONTEXT ( ( #158, #225, #79 ) ) REPRESENTATION_CONTEXT ( 'NONE', 'WORKASPACE' ) );
#24 = PERSON_AND_ORGANIZATION ( #179, #125 ) ;
#25 = ORIENTED_EDGE ( 'NONE', *, *, #143, .T. ) ;
#26 = APPLICATION_PROTOCOL_DEFINITION ( 'international standard', 'config_control_design', 1994, #57 ) ;
#27 = AXIS2_PLACEMENT_3D ( 'NONE', #204, #205, #187 ) ;
#28 = PLANE ( 'NONE',  #33 ) ;
#29 = FACE_OUTER_BOUND ( 'NONE', #271, .T. ) ;
#30 = PLANE ( 'NONE',  #27 ) ;
#31 = CARTESIAN_POINT ( 'NONE',  ( 0.0000000000000000000, 0.0000000000000000000, 0.0000000000000000000 ) ) ;
#32 = APPROVAL_STATUS ( 'not_yet_approved' ) ;
#33 = AXIS2_PLACEMENT_3D ( 'NONE', #186, #155, #313 ) ;
#34 = COORDINATED_UNIVERSAL_TIME_OFFSET ( 9, 0, .AHEAD. ) ;
#35 = CLOSED_SHELL ( 'NONE', ( #17, #72, #281, #260, #177, #218 ) ) ;
#36 = CIRCLE ( 'NONE', #56, 4.762500000000000200 ) ;
#37 = CC_DESIGN_PERSON_AND_ORGANIZATION_ASSIGNMENT ( #215, #265, ( #16 ) ) ;
#38 = ORIENTED_EDGE ( 'NONE', *, *, #112, .T. ) ;
#39 = AXIS2_PLACEMENT_3D ( 'NONE', #183, #250, #176 ) ;
#40 = LOCAL_TIME ( 10, 46, 1.000000000000000000, #109 ) ;
#41 = AXIS2_PLACEMENT_3D ( 'NONE', #221, #305, #242 ) ;
#42 = ORIENTED_EDGE ( 'NONE', *, *, #107, .F. ) ;
#43 = DIRECTION ( 'NONE',  ( 0.0000000000000000000, 0.0000000000000000000, 1.000000000000000000 ) ) ;
#44 = CARTESIAN_POINT ( 'NONE',  ( 39.10000000000000100, 0.0000000000000000000, 0.0000000000000000000 ) ) ;
#45 = LINE ( 'NONE', #178, #105 ) ;
#46 = PLANE ( 'NONE',  #89 ) ;
#47 = CARTESIAN_POINT ( 'NONE',  ( 0.9999999999999995600, -6.138646323317009100E-032, 0.0000000000000000000 ) ) ;
#48 = CALENDAR_DATE ( 2023, 19, 5 ) ;
#49 = CARTESIAN_POINT ( 'NONE',  ( 0.9999999999999995600, -6.138646323317009100E-032, 0.0000000000000000000 ) ) ;
#50 = VERTEX_POINT ( 'NONE', #118 ) ;
#51 = AXIS2_PLACEMENT_3D ( 'NONE', #157, #259, #311 ) ;
#52 = UNCERTAINTY_MEASURE_WITH_UNIT (LENGTH_MEASURE( 1.000000000000000100E-005 ), #158, 'distance_accuracy_value', 'NONE');
#53 = AXIS2_PLACEMENT_3D ( 'NONE', #123, #280, #149 ) ;
#54 = FACE_OUTER_BOUND ( 'NONE', #248, .T. ) ;
#55 = CC_DESIGN_DATE_AND_TIME_ASSIGNMENT ( #263, #132, ( #16 ) ) ;
#56 = AXIS2_PLACEMENT_3D ( 'NONE', #47, #220, #73 ) ;
#57 = APPLICATION_CONTEXT ( 'configuration controlled 3d designs of mechanical parts and assemblies' ) ;
#58 = PERSON_AND_ORGANIZATION ( #179, #125 ) ;
#59 = VERTEX_POINT ( 'NONE', #238 ) ;
#60 = PERSON_AND_ORGANIZATION_ROLE ( 'creator' ) ;
#61 = AXIS2_PLACEMENT_3D ( 'NONE', #217, #71, #241 ) ;
#62 = AXIS2_PLACEMENT_3D ( 'NONE', #49, #222, #282 ) ;
#63 = VECTOR ( 'NONE', #258, 1000.000000000000000 ) ;
#64 = VERTEX_POINT ( 'NONE', #94 ) ;
#65 = DIRECTION ( 'NONE',  ( -1.000000000000000000, 0.0000000000000000000, -0.0000000000000000000 ) ) ;
#66 = AXIS2_PLACEMENT_3D ( 'NONE', #199, #98, #261 ) ;
#67 = DIRECTION ( 'NONE',  ( 0.0000000000000000000, 0.0000000000000000000, 1.000000000000000000 ) ) ;
#68 = AXIS2_PLACEMENT_3D ( 'NONE', #307, #180, #22 ) ;
#69 = FACE_OUTER_BOUND ( 'NONE', #274, .T. ) ;
#70 = APPROVAL ( #291, 'UNSPECIFIED' ) ;
#71 = DIRECTION ( 'NONE',  ( 1.000000000000000000, 1.220147822927740700E-016, -0.0000000000000000000 ) ) ;
#72 = ADVANCED_FACE ( 'NONE', ( #69 ), #6, .T. ) ;
#73 = DIRECTION ( 'NONE',  ( -1.365923996832131600E-016, 1.000000000000000000, 0.0000000000000000000 ) ) ;
#74 = VERTEX_POINT ( 'NONE', #146 ) ;
#75 = AXIS2_PLACEMENT_3D ( 'NONE', #44, #65, #236 ) ;
#76 = DIRECTION ( 'NONE',  ( 0.0000000000000000000, 0.0000000000000000000, 1.000000000000000000 ) ) ;
#77 = AXIS2_PLACEMENT_3D ( 'NONE', #127, #285, #76 ) ;
#78 = COORDINATED_UNIVERSAL_TIME_OFFSET ( 9, 0, .AHEAD. ) ;
#79 =( NAMED_UNIT ( * ) SI_UNIT ( $, .STERADIAN. ) SOLID_ANGLE_UNIT ( ) );
#80 = ORIENTED_EDGE ( 'NONE', *, *, #147, .T. ) ;
#81 = AXIS2_PLACEMENT_3D ( 'NONE', #300, #171, #15 ) ;
#82 = ORIENTED_EDGE ( 'NONE', *, *, #133, .T. ) ;
#83 = DIRECTION ( 'NONE',  ( 1.000000000000000000, 0.0000000000000000000, 0.0000000000000000000 ) ) ;
#84 = LOCAL_TIME ( 10, 46, 1.000000000000000000, #153 ) ;
#85 = EDGE_LOOP ( 'NONE', ( #116, #25, #82, #245 ) ) ;
#86 = AXIS2_PLACEMENT_3D ( 'NONE', #13, #195, #43 ) ;
#87 = CC_DESIGN_APPROVAL ( #70, ( #16 ) ) ;
#88 = CYLINDRICAL_SURFACE ( 'NONE', #41, 4.762499999999999300 ) ;
#89 = AXIS2_PLACEMENT_3D ( 'NONE', #275, #278, #148 ) ;
#90 = AXIS2_PLACEMENT_3D ( 'NONE', #172, #256, #119 ) ;
#91 = APPROVAL_DATE_TIME ( #163, #266 ) ;
#92 = DIRECTION ( 'NONE',  ( 1.000000000000000000, 1.220147822927740700E-016, -0.0000000000000000000 ) ) ;
#93 = EDGE_LOOP ( 'NONE', ( #154, #294, #262, #212 ) ) ;
#94 = CARTESIAN_POINT ( 'NONE',  ( -43.44999999999999600, 4.462499999999995000, 0.0000000000000000000 ) ) ;
#95 = AXIS2_PLACEMENT_3D ( 'NONE', #308, #214, #67 ) ;
#96 = CIRCLE ( 'NONE', #53, 4.762500000000000200 ) ;
#97 = ADVANCED_FACE ( 'NONE', ( #203 ), #46, .F. ) ;
#98 = DIRECTION ( 'NONE',  ( 1.000000000000000000, 1.220147822927740700E-016, -0.0000000000000000000 ) ) ;
#99 = APPROVAL_PERSON_ORGANIZATION ( #167, #266, #209 ) ;
#100 = VERTEX_POINT ( 'NONE', #174 ) ;
#101 = AXIS2_PLACEMENT_3D ( 'NONE', #302, #92, #102 ) ;
#102 = DIRECTION ( 'NONE',  ( 0.0000000000000000000, 1.000000000000000000, 0.0000000000000000000 ) ) ;
#103 = EDGE_CURVE ( 'NONE', #59, #306, #310, .T. ) ;
#104 = SECURITY_CLASSIFICATION_LEVEL ( 'unclassified' ) ;
#105 = VECTOR ( 'NONE', #243, 1000.000000000000000 ) ;
#106 = CC_DESIGN_SECURITY_CLASSIFICATION ( #16, ( #252 ) ) ;
#107 = EDGE_CURVE ( 'NONE', #100, #59, #251, .T. ) ;
#108 = PERSON_AND_ORGANIZATION_ROLE ( 'design_owner' ) ;
#109 = COORDINATED_UNIVERSAL_TIME_OFFSET ( 9, 0, .AHEAD. ) ;
#110 = ORIENTED_EDGE ( 'NONE', *, *, #152, .T. ) ;
#111 = EDGE_CURVE ( 'NONE', #59, #100, #130, .T. ) ;
#112 = EDGE_CURVE ( 'NONE', #100, #216, #301, .T. ) ;
#113 = LINE ( 'NONE', #21, #233 ) ;
#114 = EDGE_CURVE ( 'NONE', #306, #216, #247, .T. ) ;
#115 = LOCAL_TIME ( 10, 46, 1.000000000000000000, #189 ) ;
#116 = ORIENTED_EDGE ( 'NONE', *, *, #117, .F. ) ;
#117 = EDGE_CURVE ( 'NONE', #11, #74, #138, .T. ) ;
#118 = CARTESIAN_POINT ( 'NONE',  ( 1.000000000000000200, -4.762500000000000200, 5.832380380939269100E-016 ) ) ;
#119 = DIRECTION ( 'NONE',  ( -1.365923996832131900E-016, 1.000000000000000000, 0.0000000000000000000 ) ) ;
#120 = CIRCLE ( 'NONE', #66, 4.762500000000000200 ) ;
#121 = ADVANCED_FACE ( 'NONE', ( #54 ), #196, .F. ) ;
#122 = PRODUCT_RELATED_PRODUCT_CATEGORY ( 'detail', '', ( #165 ) ) ;
#123 = CARTESIAN_POINT ( 'NONE',  ( -43.14999999999999900, -5.386952638225974900E-015, 0.0000000000000000000 ) ) ;
#124 = EDGE_CURVE ( 'NONE', #216, #306, #185, .T. ) ;
#125 = ORGANIZATION ( 'UNSPECIFIED', 'UNSPECIFIED', '' ) ;
#126 = ORIENTED_EDGE ( 'NONE', *, *, #143, .F. ) ;
#127 = CARTESIAN_POINT ( 'NONE',  ( 1.000000000000000000, 0.0000000000000000000, 0.0000000000000000000 ) ) ;
#128 = EDGE_CURVE ( 'NONE', #64, #11, #239, .T. ) ;
#129 = CARTESIAN_POINT ( 'NONE',  ( -43.44999999999999600, -4.462500000000005700, 5.648683361067167800E-016 ) ) ;
#130 = CIRCLE ( 'NONE', #86, 4.762500000000007300 ) ;
#131 = EDGE_CURVE ( 'NONE', #211, #74, #120, .T. ) ;
#132 = DATE_TIME_ROLE ( 'classification_date' ) ;
#133 = EDGE_CURVE ( 'NONE', #64, #211, #113, .T. ) ;
#134 = EDGE_LOOP ( 'NONE', ( #289, #194 ) ) ;
#135 = APPLICATION_PROTOCOL_DEFINITION ( 'international standard', 'config_control_design', 1994, #269 ) ;
#136 = EDGE_CURVE ( 'NONE', #74, #50, #45, .T. ) ;
#137 = APPROVAL_DATE_TIME ( #202, #70 ) ;
#138 = LINE ( 'NONE', #142, #295 ) ;
#139 = EDGE_CURVE ( 'NONE', #175, #50, #173, .T. ) ;
#140 = ORIENTED_EDGE ( 'NONE', *, *, #147, .F. ) ;
#141 = EDGE_CURVE ( 'NONE', #211, #175, #288, .T. ) ;
#142 = CARTESIAN_POINT ( 'NONE',  ( -43.14999999999999900, -4.762500000000005500, 5.832380380939270100E-016 ) ) ;
#143 = EDGE_CURVE ( 'NONE', #11, #64, #279, .T. ) ;
#144 = APPROVAL_PERSON_ORGANIZATION ( #210, #70, #161 ) ;
#145 = ORIENTED_EDGE ( 'NONE', *, *, #111, .F. ) ;
#146 = CARTESIAN_POINT ( 'NONE',  ( -43.14999999999999900, -4.762500000000005500, 5.832380380939272100E-016 ) ) ;
#147 = EDGE_CURVE ( 'NONE', #50, #175, #36, .T. ) ;
#148 = DIRECTION ( 'NONE',  ( 0.0000000000000000000, 0.0000000000000000000, -1.000000000000000000 ) ) ;
#149 = DIRECTION ( 'NONE',  ( 0.0000000000000000000, 1.000000000000000000, 0.0000000000000000000 ) ) ;
#150 = SHAPE_DEFINITION_REPRESENTATION ( #156, #184 ) ;
#151 = EDGE_LOOP ( 'NONE', ( #286, #80 ) ) ;
#152 = EDGE_CURVE ( 'NONE', #74, #211, #96, .T. ) ;
#153 = COORDINATED_UNIVERSAL_TIME_OFFSET ( 9, 0, .AHEAD. ) ;
#154 = ORIENTED_EDGE ( 'NONE', *, *, #107, .T. ) ;
#155 = DIRECTION ( 'NONE',  ( 1.000000000000000000, 1.220147822927740700E-016, -0.0000000000000000000 ) ) ;
#156 = PRODUCT_DEFINITION_SHAPE ( 'NONE', 'NONE',  #4 ) ;
#157 = CARTESIAN_POINT ( 'NONE',  ( -43.14999999999999900, -5.386952638225974900E-015, 0.0000000000000000000 ) ) ;
#158 =( LENGTH_UNIT ( ) NAMED_UNIT ( * ) SI_UNIT ( .MILLI., .METRE. ) );
#159 = FACE_OUTER_BOUND ( 'NONE', #182, .T. ) ;
#160 = DIRECTION ( 'NONE',  ( -1.000000000000000000, -0.0000000000000000000, -0.0000000000000000000 ) ) ;
#161 = APPROVAL_ROLE ( '' ) ;
#162 = APPROVAL_ROLE ( '' ) ;
#163 = DATE_AND_TIME ( #223, #273 ) ;
#164 = ORIENTED_EDGE ( 'NONE', *, *, #131, .T. ) ;
#165 = PRODUCT ( '03-2071', '03-2071', '', ( #249 ) ) ;
#166 = FACE_OUTER_BOUND ( 'NONE', #2, .T. ) ;
#167 = PERSON_AND_ORGANIZATION ( #179, #125 ) ;
#168 = DIRECTION ( 'NONE',  ( 0.7071067811865415800, -0.7071067811865535700, 8.659560562355008000E-017 ) ) ;
#169 = ORIENTED_EDGE ( 'NONE', *, *, #141, .F. ) ;
#170 = CARTESIAN_POINT ( 'NONE',  ( 0.0000000000000000000, 0.0000000000000000000, 4.762500000000003700 ) ) ;
#171 = DIRECTION ( 'NONE',  ( -1.000000000000000000, -0.0000000000000000000, -0.0000000000000000000 ) ) ;
#172 = CARTESIAN_POINT ( 'NONE',  ( 1.000000000000000000, 0.0000000000000000000, 0.0000000000000000000 ) ) ;
#173 = CIRCLE ( 'NONE', #62, 4.762500000000000200 ) ;
#174 = CARTESIAN_POINT ( 'NONE',  ( 39.10000000000000100, 0.0000000000000000000, 4.762500000000007300 ) ) ;
#175 = VERTEX_POINT ( 'NONE', #19 ) ;
#176 = DIRECTION ( 'NONE',  ( 0.0000000000000000000, 0.0000000000000000000, 1.000000000000000000 ) ) ;
#177 = ADVANCED_FACE ( 'NONE', ( #29 ), #88, .T. ) ;
#178 = CARTESIAN_POINT ( 'NONE',  ( 1.000000000000000700, -4.762499999999999300, 5.832380380939268100E-016 ) ) ;
#179 = PERSON ( 'UNSPECIFIED', 'UNSPECIFIED', 'UNSPECIFIED', ('UNSPECIFIED'), ('UNSPECIFIED'), ('UNSPECIFIED') ) ;
#180 = DIRECTION ( 'NONE',  ( 1.000000000000000000, 1.220147822927740700E-016, -0.0000000000000000000 ) ) ;
#181 = PERSON_AND_ORGANIZATION ( #179, #125 ) ;
#182 = EDGE_LOOP ( 'NONE', ( #224, #213, #38, #231 ) ) ;
#183 = CARTESIAN_POINT ( 'NONE',  ( 0.0000000000000000000, 0.0000000000000000000, 0.0000000000000000000 ) ) ;
#184 = ADVANCED_BREP_SHAPE_REPRESENTATION ( '03-2071', ( #299, #232, #9 ), #23 ) ;
#185 = CIRCLE ( 'NONE', #77, 4.762500000000000200 ) ;
#186 = CARTESIAN_POINT ( 'NONE',  ( 0.9999999999999993300, 4.762500000000000200, 0.0000000000000000000 ) ) ;
#187 = DIRECTION ( 'NONE',  ( 1.220147822927740700E-016, -1.000000000000000000, 0.0000000000000000000 ) ) ;
#188 = DIRECTION ( 'NONE',  ( 0.0000000000000000000, 0.0000000000000000000, 1.000000000000000000 ) ) ;
#189 = COORDINATED_UNIVERSAL_TIME_OFFSET ( 9, 0, .AHEAD. ) ;
#190 = ORIENTED_EDGE ( 'NONE', *, *, #133, .F. ) ;
#191 = DATE_TIME_ROLE ( 'creation_date' ) ;
#192 = CC_DESIGN_APPROVAL ( #1, ( #4 ) ) ;
#193 = VECTOR ( 'NONE', #303, 1000.000000000000000 ) ;
#194 = ORIENTED_EDGE ( 'NONE', *, *, #114, .T. ) ;
#195 = DIRECTION ( 'NONE',  ( -1.000000000000000000, -0.0000000000000000000, -0.0000000000000000000 ) ) ;
#196 = PLANE ( 'NONE',  #75 ) ;
#197 = CONICAL_SURFACE ( 'NONE', #101, 4.762500000000000200, 0.7853981633974569400 ) ;
#198 = ADVANCED_FACE ( 'NONE', ( #272 ), #267, .T. ) ;
#199 = CARTESIAN_POINT ( 'NONE',  ( -43.14999999999999900, -5.386952638225974900E-015, 0.0000000000000000000 ) ) ;
#200 = ORIENTED_EDGE ( 'NONE', *, *, #136, .F. ) ;
#201 = DIRECTION ( 'NONE',  ( 1.000000000000000000, 1.220147822927740700E-016, -0.0000000000000000000 ) ) ;
#202 = DATE_AND_TIME ( #255, #5 ) ;
#203 = FACE_OUTER_BOUND ( 'NONE', #134, .T. ) ;
#204 = CARTESIAN_POINT ( 'NONE',  ( -43.45000000000000300, -5.423557072913808300E-015, 0.0000000000000000000 ) ) ;
#205 = DIRECTION ( 'NONE',  ( -1.000000000000000000, -1.220147822927740700E-016, 0.0000000000000000000 ) ) ;
#206 = CYLINDRICAL_SURFACE ( 'NONE', #20, 4.762500000000003700 ) ;
#207 = ORIENTED_EDGE ( 'NONE', *, *, #131, .F. ) ;
#208 = CARTESIAN_POINT ( 'NONE',  ( 1.000000000000000000, 5.832380380939272100E-016, -4.762500000000000200 ) ) ;
#209 = APPROVAL_ROLE ( '' ) ;
#210 = PERSON_AND_ORGANIZATION ( #179, #125 ) ;
#211 = VERTEX_POINT ( 'NONE', #287 ) ;
#212 = ORIENTED_EDGE ( 'NONE', *, *, #112, .F. ) ;
#213 = ORIENTED_EDGE ( 'NONE', *, *, #111, .T. ) ;
#214 = DIRECTION ( 'NONE',  ( -1.000000000000000000, -0.0000000000000000000, -0.0000000000000000000 ) ) ;
#215 = PERSON_AND_ORGANIZATION ( #179, #125 ) ;
#216 = VERTEX_POINT ( 'NONE', #309 ) ;
#217 = CARTESIAN_POINT ( 'NONE',  ( -43.44999999999999600, -5.423557072913806700E-015, 0.0000000000000000000 ) ) ;
#218 = ADVANCED_FACE ( 'NONE', ( #18 ), #10, .T. ) ;
#219 = FACE_OUTER_BOUND ( 'NONE', #151, .T. ) ;
#220 = DIRECTION ( 'NONE',  ( 1.000000000000000000, 1.220147822927740700E-016, -0.0000000000000000000 ) ) ;
#221 = CARTESIAN_POINT ( 'NONE',  ( 1.000000000000000000, 0.0000000000000000000, 0.0000000000000000000 ) ) ;
#222 = DIRECTION ( 'NONE',  ( 1.000000000000000000, 1.220147822927740700E-016, -0.0000000000000000000 ) ) ;
#223 = CALENDAR_DATE ( 2023, 19, 5 ) ;
#224 = ORIENTED_EDGE ( 'NONE', *, *, #103, .F. ) ;
#225 =( NAMED_UNIT ( * ) PLANE_ANGLE_UNIT ( ) SI_UNIT ( $, .RADIAN. ) );
#226 = CC_DESIGN_PERSON_AND_ORGANIZATION_ASSIGNMENT ( #181, #3, ( #4 ) ) ;
#227 = VECTOR ( 'NONE', #201, 1000.000000000000000 ) ;
#228 = DIRECTION ( 'NONE',  ( 0.0000000000000000000, 0.0000000000000000000, 1.000000000000000000 ) ) ;
#229 = PERSON_AND_ORGANIZATION_ROLE ( 'design_supplier' ) ;
#230 = DATE_AND_TIME ( #284, #40 ) ;
#231 = ORIENTED_EDGE ( 'NONE', *, *, #114, .F. ) ;
#232 = MANIFOLD_SOLID_BREP ( 'È¸Àü4', #35 ) ;
#233 = VECTOR ( 'NONE', #246, 1000.000000000000100 ) ;
#234 = EDGE_LOOP ( 'NONE', ( #237, #14, #207, #190 ) ) ;
#235 = APPROVAL_DATE_TIME ( #293, #1 ) ;
#236 = DIRECTION ( 'NONE',  ( -0.0000000000000000000, 0.0000000000000000000, 1.000000000000000000 ) ) ;
#237 = ORIENTED_EDGE ( 'NONE', *, *, #128, .T. ) ;
#238 = CARTESIAN_POINT ( 'NONE',  ( 39.10000000000000100, 5.832380380939278000E-016, -4.762500000000007300 ) ) ;
#239 = CIRCLE ( 'NONE', #68, 4.462500000000000400 ) ;
#240 = CC_DESIGN_DATE_AND_TIME_ASSIGNMENT ( #230, #191, ( #4 ) ) ;
#241 = DIRECTION ( 'NONE',  ( 0.0000000000000000000, 1.000000000000000000, 0.0000000000000000000 ) ) ;
#242 = DIRECTION ( 'NONE',  ( -1.365923996832131900E-016, 1.000000000000000000, 0.0000000000000000000 ) ) ;
#243 = DIRECTION ( 'NONE',  ( 1.000000000000000000, 1.220147822927740700E-016, -0.0000000000000000000 ) ) ;
#244 = APPROVAL_PERSON_ORGANIZATION ( #297, #1, #162 ) ;
#245 = ORIENTED_EDGE ( 'NONE', *, *, #152, .F. ) ;
#246 = DIRECTION ( 'NONE',  ( 0.7071067811865413600, 0.7071067811865536800, 0.0000000000000000000 ) ) ;
#247 = CIRCLE ( 'NONE', #81, 4.762500000000000200 ) ;
#248 = EDGE_LOOP ( 'NONE', ( #42, #145 ) ) ;
#249 = MECHANICAL_CONTEXT ( 'NONE', #57, 'mechanical' ) ;
#250 = DIRECTION ( 'NONE',  ( -1.000000000000000000, -0.0000000000000000000, -0.0000000000000000000 ) ) ;
#251 = CIRCLE ( 'NONE', #95, 4.762500000000007300 ) ;
#252 = PRODUCT_DEFINITION_FORMATION_WITH_SPECIFIED_SOURCE ( 'ANY', '', #165, .NOT_KNOWN. ) ;
#253 = CLOSED_SHELL ( 'NONE', ( #198, #304, #97, #121 ) ) ;
#254 = CARTESIAN_POINT ( 'NONE',  ( 0.0000000000000000000, 5.832380380939274100E-016, -4.762500000000003700 ) ) ;
#255 = CALENDAR_DATE ( 2023, 19, 5 ) ;
#256 = DIRECTION ( 'NONE',  ( 1.000000000000000000, 1.220147822927740700E-016, -0.0000000000000000000 ) ) ;
#257 = FACE_OUTER_BOUND ( 'NONE', #234, .T. ) ;
#258 = DIRECTION ( 'NONE',  ( -1.000000000000000000, -0.0000000000000000000, -0.0000000000000000000 ) ) ;
#259 = DIRECTION ( 'NONE',  ( 1.000000000000000000, 1.220147822927740700E-016, -0.0000000000000000000 ) ) ;
#260 = ADVANCED_FACE ( 'NONE', ( #219 ), #28, .T. ) ;
#261 = DIRECTION ( 'NONE',  ( 0.0000000000000000000, 1.000000000000000000, 0.0000000000000000000 ) ) ;
#262 = ORIENTED_EDGE ( 'NONE', *, *, #124, .F. ) ;
#263 = DATE_AND_TIME ( #12, #84 ) ;
#264 = ORIENTED_EDGE ( 'NONE', *, *, #141, .T. ) ;
#265 = PERSON_AND_ORGANIZATION_ROLE ( 'classification_officer' ) ;
#266 = APPROVAL ( #32, 'UNSPECIFIED' ) ;
#267 = CYLINDRICAL_SURFACE ( 'NONE', #39, 4.762500000000003700 ) ;
#268 = ORIENTED_EDGE ( 'NONE', *, *, #128, .F. ) ;
#269 = APPLICATION_CONTEXT ( 'configuration controlled 3d designs of mechanical parts and assemblies' ) ;
#270 = PERSON_AND_ORGANIZATION ( #179, #125 ) ;
#271 = EDGE_LOOP ( 'NONE', ( #200, #110, #264, #140 ) ) ;
#272 = FACE_OUTER_BOUND ( 'NONE', #93, .T. ) ;
#273 = LOCAL_TIME ( 10, 46, 1.000000000000000000, #34 ) ;
#274 = EDGE_LOOP ( 'NONE', ( #164, #8, #298, #169 ) ) ;
#275 = CARTESIAN_POINT ( 'NONE',  ( 1.000000000000000400, 1.821231995776177200E-016, 0.0000000000000000000 ) ) ;
#276 = DESIGN_CONTEXT ( 'detailed design', #269, 'design' ) ;
#277 = CC_DESIGN_APPROVAL ( #266, ( #252 ) ) ;
#278 = DIRECTION ( 'NONE',  ( 1.000000000000000000, 0.0000000000000000000, 0.0000000000000000000 ) ) ;
#279 = CIRCLE ( 'NONE', #61, 4.462500000000000400 ) ;
#280 = DIRECTION ( 'NONE',  ( 1.000000000000000000, 1.220147822927740700E-016, -0.0000000000000000000 ) ) ;
#281 = ADVANCED_FACE ( 'NONE', ( #166 ), #30, .T. ) ;
#282 = DIRECTION ( 'NONE',  ( -1.365923996832131600E-016, 1.000000000000000000, 0.0000000000000000000 ) ) ;
#283 = CARTESIAN_POINT ( 'NONE',  ( 0.9999999999999993300, 4.762499999999999300, 0.0000000000000000000 ) ) ;
#284 = CALENDAR_DATE ( 2023, 19, 5 ) ;
#285 = DIRECTION ( 'NONE',  ( -1.000000000000000000, -0.0000000000000000000, -0.0000000000000000000 ) ) ;
#286 = ORIENTED_EDGE ( 'NONE', *, *, #139, .T. ) ;
#287 = CARTESIAN_POINT ( 'NONE',  ( -43.14999999999999900, 4.762499999999994800, 0.0000000000000000000 ) ) ;
#288 = LINE ( 'NONE', #283, #227 ) ;
#289 = ORIENTED_EDGE ( 'NONE', *, *, #124, .T. ) ;
#290 = CARTESIAN_POINT ( 'NONE',  ( 0.0000000000000000000, 0.0000000000000000000, 0.0000000000000000000 ) ) ;
#291 = APPROVAL_STATUS ( 'not_yet_approved' ) ;
#292 = APPROVAL_STATUS ( 'not_yet_approved' ) ;
#293 = DATE_AND_TIME ( #48, #115 ) ;
#294 = ORIENTED_EDGE ( 'NONE', *, *, #103, .T. ) ;
#295 = VECTOR ( 'NONE', #168, 1000.000000000000000 ) ;
#296 = CC_DESIGN_PERSON_AND_ORGANIZATION_ASSIGNMENT ( #24, #60, ( #252 ) ) ;
#297 = PERSON_AND_ORGANIZATION ( #179, #125 ) ;
#298 = ORIENTED_EDGE ( 'NONE', *, *, #139, .F. ) ;
#299 = MANIFOLD_SOLID_BREP ( 'È¸Àü3', #253 ) ;
#300 = CARTESIAN_POINT ( 'NONE',  ( 1.000000000000000000, 0.0000000000000000000, 0.0000000000000000000 ) ) ;
#301 = LINE ( 'NONE', #170, #193 ) ;
#302 = CARTESIAN_POINT ( 'NONE',  ( -43.14999999999999900, -5.386952638225974900E-015, 0.0000000000000000000 ) ) ;
#303 = DIRECTION ( 'NONE',  ( -1.000000000000000000, -0.0000000000000000000, -0.0000000000000000000 ) ) ;
#304 = ADVANCED_FACE ( 'NONE', ( #159 ), #206, .T. ) ;
#305 = DIRECTION ( 'NONE',  ( 1.000000000000000000, 1.220147822927740700E-016, -0.0000000000000000000 ) ) ;
#306 = VERTEX_POINT ( 'NONE', #208 ) ;
#307 = CARTESIAN_POINT ( 'NONE',  ( -43.44999999999999600, -5.423557072913806700E-015, 0.0000000000000000000 ) ) ;
#308 = CARTESIAN_POINT ( 'NONE',  ( 39.10000000000000100, 0.0000000000000000000, 0.0000000000000000000 ) ) ;
#309 = CARTESIAN_POINT ( 'NONE',  ( 1.000000000000000000, 0.0000000000000000000, 4.762500000000000200 ) ) ;
#310 = LINE ( 'NONE', #254, #63 ) ;
#311 = DIRECTION ( 'NONE',  ( 0.0000000000000000000, 1.000000000000000000, 0.0000000000000000000 ) ) ;
#312 = CC_DESIGN_PERSON_AND_ORGANIZATION_ASSIGNMENT ( #270, #229, ( #252 ) ) ;
#313 = DIRECTION ( 'NONE',  ( -1.220147822927740700E-016, 1.000000000000000000, 0.0000000000000000000 ) ) ;
ENDSEC;
END-ISO-10303-21;
