ISO-10303-21;
HEADER;
FILE_DESCRIPTION (( 'STEP AP203' ),
    '1' );
FILE_NAME ('03-2074.STEP',
    '2023-05-19T01:46:49',
    ( 'USER' ),
    ( 'Hewlett-Packard Company' ),
    'SwSTEP 2.0',
    'SolidWorks 2014',
    '' );
FILE_SCHEMA (( 'CONFIG_CONTROL_DESIGN' ));
ENDSEC;

DATA;
#1 = DATE_AND_TIME ( #127, #309 ) ;
#2 = VECTOR ( 'NONE', #170, 1000.000000000000000 ) ;
#3 = AXIS2_PLACEMENT_3D ( 'NONE', #186, #47, #211 ) ;
#4 = PERSON_AND_ORGANIZATION ( #81, #229 ) ;
#5 = ORIENTED_EDGE ( 'NONE', *, *, #267, .F. ) ;
#6 = ORIENTED_EDGE ( 'NONE', *, *, #305, .F. ) ;
#7 = EDGE_CURVE ( 'NONE', #59, #23, #301, .T. ) ;
#8 = CYLINDRICAL_SURFACE ( 'NONE', #136, 9.525000000000007500 ) ;
#9 = DIRECTION ( 'NONE',  ( 1.000000000000000000, 1.214600194994491000E-016, -0.0000000000000000000 ) ) ;
#10 = CARTESIAN_POINT ( 'NONE',  ( 77.20000000000000300, 0.0000000000000000000, 0.0000000000000000000 ) ) ;
#11 = APPROVAL ( #55, 'UNSPECIFIED' ) ;
#12 = CALENDAR_DATE ( 2023, 19, 5 ) ;
#13 = ORIENTED_EDGE ( 'NONE', *, *, #50, .F. ) ;
#14 = ORIENTED_EDGE ( 'NONE', *, *, #201, .F. ) ;
#15 = EDGE_LOOP ( 'NONE', ( #18, #285 ) ) ;
#16 = CARTESIAN_POINT ( 'NONE',  ( -55.84999999999998700, -6.905002108543680300E-015, 0.0000000000000000000 ) ) ;
#17 = VERTEX_POINT ( 'NONE', #275 ) ;
#18 = ORIENTED_EDGE ( 'NONE', *, *, #289, .T. ) ;
#19 = DIRECTION ( 'NONE',  ( 0.7071067811865599000, -0.7071067811865350300, 8.659560562354781200E-017 ) ) ;
#20 = VECTOR ( 'NONE', #19, 1000.000000000000100 ) ;
#21 = DIRECTION ( 'NONE',  ( 1.000000000000000000, 1.214600194994491000E-016, -0.0000000000000000000 ) ) ;
#22 = ORIENTED_EDGE ( 'NONE', *, *, #114, .F. ) ;
#23 = VERTEX_POINT ( 'NONE', #167 ) ;
#24 = ORIENTED_EDGE ( 'NONE', *, *, #61, .T. ) ;
#25 = ORIENTED_EDGE ( 'NONE', *, *, #228, .T. ) ;
#26 =( LENGTH_UNIT ( ) NAMED_UNIT ( * ) SI_UNIT ( .MILLI., .METRE. ) );
#27 = ORIENTED_EDGE ( 'NONE', *, *, #103, .T. ) ;
#28 = AXIS2_PLACEMENT_3D ( 'NONE', #66, #273, #45 ) ;
#29 = APPLICATION_CONTEXT ( 'configuration controlled 3d designs of mechanical parts and assemblies' ) ;
#30 = DATE_AND_TIME ( #93, #156 ) ;
#31 = ADVANCED_FACE ( 'NONE', ( #242 ), #46, .T. ) ;
#32 = VERTEX_POINT ( 'NONE', #117 ) ;
#33 = APPROVAL_STATUS ( 'not_yet_approved' ) ;
#34 = FACE_OUTER_BOUND ( 'NONE', #15, .T. ) ;
#35 = EDGE_CURVE ( 'NONE', #221, #17, #182, .T. ) ;
#36 = APPROVAL_DATE_TIME ( #106, #11 ) ;
#37 = EDGE_LOOP ( 'NONE', ( #307, #115, #94, #187 ) ) ;
#38 = CC_DESIGN_APPROVAL ( #11, ( #311 ) ) ;
#39 = FACE_OUTER_BOUND ( 'NONE', #112, .T. ) ;
#40 = AXIS2_PLACEMENT_3D ( 'NONE', #234, #100, #252 ) ;
#41 = APPROVAL_PERSON_ORGANIZATION ( #111, #11, #220 ) ;
#42 = ORIENTED_EDGE ( 'NONE', *, *, #129, .F. ) ;
#43 = DIRECTION ( 'NONE',  ( 1.000000000000000000, 1.214600194994491000E-016, -0.0000000000000000000 ) ) ;
#44 = CARTESIAN_POINT ( 'NONE',  ( -56.14999999999999900, -9.225000000000006800, 1.148106374200643800E-015 ) ) ;
#45 = DIRECTION ( 'NONE',  ( -1.138269997360109900E-016, 1.000000000000000000, 0.0000000000000000000 ) ) ;
#46 = PLANE ( 'NONE',  #193 ) ;
#47 = DIRECTION ( 'NONE',  ( -1.000000000000000000, -0.0000000000000000000, -0.0000000000000000000 ) ) ;
#48 = VECTOR ( 'NONE', #207, 1000.000000000000000 ) ;
#49 = CARTESIAN_POINT ( 'NONE',  ( -56.14999999999999900, -6.941440114393516100E-015, 0.0000000000000000000 ) ) ;
#50 = EDGE_CURVE ( 'NONE', #74, #238, #126, .T. ) ;
#51 = PLANE ( 'NONE',  #173 ) ;
#52 = DIRECTION ( 'NONE',  ( 1.000000000000000000, 0.0000000000000000000, 0.0000000000000000000 ) ) ;
#53 = EDGE_LOOP ( 'NONE', ( #180, #157, #245, #6 ) ) ;
#54 = ADVANCED_FACE ( 'NONE', ( #293 ), #188, .F. ) ;
#55 = APPROVAL_STATUS ( 'not_yet_approved' ) ;
#56 = CC_DESIGN_PERSON_AND_ORGANIZATION_ASSIGNMENT ( #270, #78, ( #311 ) ) ;
#57 = VECTOR ( 'NONE', #95, 1000.000000000000000 ) ;
#58 = AXIS2_PLACEMENT_3D ( 'NONE', #49, #213, #72 ) ;
#59 = VERTEX_POINT ( 'NONE', #44 ) ;
#60 = CIRCLE ( 'NONE', #223, 9.524999999999998600 ) ;
#61 = EDGE_CURVE ( 'NONE', #262, #225, #60, .T. ) ;
#62 = CLOSED_SHELL ( 'NONE', ( #77, #124, #31, #258, #195, #150 ) ) ;
#63 = CARTESIAN_POINT ( 'NONE',  ( 0.0000000000000000000, 1.166476076187854800E-015, -9.525000000000007500 ) ) ;
#64 = DIRECTION ( 'NONE',  ( 1.000000000000000000, 1.214600194994491000E-016, -0.0000000000000000000 ) ) ;
#65 = CC_DESIGN_DATE_AND_TIME_ASSIGNMENT ( #30, #240, ( #311 ) ) ;
#66 = CARTESIAN_POINT ( 'NONE',  ( 1.000000000000000000, 0.0000000000000000000, 0.0000000000000000000 ) ) ;
#67 = DIRECTION ( 'NONE',  ( -1.000000000000000000, -1.214600194994491000E-016, 0.0000000000000000000 ) ) ;
#68 = DATE_AND_TIME ( #132, #198 ) ;
#69 = EDGE_LOOP ( 'NONE', ( #107, #133 ) ) ;
#70 = DIRECTION ( 'NONE',  ( -1.000000000000000000, -0.0000000000000000000, -0.0000000000000000000 ) ) ;
#71 = CARTESIAN_POINT ( 'NONE',  ( 0.9999999999999978900, 9.525000000000000400, 0.0000000000000000000 ) ) ;
#72 = DIRECTION ( 'NONE',  ( 0.0000000000000000000, 1.000000000000000000, 0.0000000000000000000 ) ) ;
#73 = LINE ( 'NONE', #194, #130 ) ;
#74 = VERTEX_POINT ( 'NONE', #269 ) ;
#75 = AXIS2_PLACEMENT_3D ( 'NONE', #251, #70, #98 ) ;
#76 =( NAMED_UNIT ( * ) SI_UNIT ( $, .STERADIAN. ) SOLID_ANGLE_UNIT ( ) );
#77 = ADVANCED_FACE ( 'NONE', ( #178 ), #168, .T. ) ;
#78 = PERSON_AND_ORGANIZATION_ROLE ( 'creator' ) ;
#79 = PERSON_AND_ORGANIZATION ( #81, #229 ) ;
#80 = CLOSED_SHELL ( 'NONE', ( #175, #239, #283, #54 ) ) ;
#81 = PERSON ( 'UNSPECIFIED', 'UNSPECIFIED', 'UNSPECIFIED', ('UNSPECIFIED'), ('UNSPECIFIED'), ('UNSPECIFIED') ) ;
#82 = EDGE_CURVE ( 'NONE', #17, #32, #227, .T. ) ;
#83 = CIRCLE ( 'NONE', #122, 9.524999999999998600 ) ;
#84 = PERSON_AND_ORGANIZATION ( #81, #229 ) ;
#85 = LOCAL_TIME ( 10, 46, 49.00000000000000000, #151 ) ;
#86 = PRODUCT_DEFINITION_FORMATION_WITH_SPECIFIED_SOURCE ( 'ANY', '', #141, .NOT_KNOWN. ) ;
#87 = ORIENTED_EDGE ( 'NONE', *, *, #243, .F. ) ;
#88 = ORIENTED_EDGE ( 'NONE', *, *, #253, .F. ) ;
#89 = ORIENTED_EDGE ( 'NONE', *, *, #35, .F. ) ;
#90 = CYLINDRICAL_SURFACE ( 'NONE', #91, 9.524999999999998600 ) ;
#91 = AXIS2_PLACEMENT_3D ( 'NONE', #143, #166, #276 ) ;
#92 = DIRECTION ( 'NONE',  ( 0.0000000000000000000, 1.000000000000000000, 0.0000000000000000000 ) ) ;
#93 = CALENDAR_DATE ( 2023, 19, 5 ) ;
#94 = ORIENTED_EDGE ( 'NONE', *, *, #253, .T. ) ;
#95 = DIRECTION ( 'NONE',  ( -1.000000000000000000, -0.0000000000000000000, -0.0000000000000000000 ) ) ;
#96 = DESIGN_CONTEXT ( 'detailed design', #29, 'design' ) ;
#97 = DIRECTION ( 'NONE',  ( -1.000000000000000000, -0.0000000000000000000, -0.0000000000000000000 ) ) ;
#98 = DIRECTION ( 'NONE',  ( 0.0000000000000000000, 0.0000000000000000000, 1.000000000000000000 ) ) ;
#99 = CARTESIAN_POINT ( 'NONE',  ( 0.9999999999999988900, -1.228565254147864400E-031, 0.0000000000000000000 ) ) ;
#100 = DIRECTION ( 'NONE',  ( -1.000000000000000000, -0.0000000000000000000, -0.0000000000000000000 ) ) ;
#101 = FACE_OUTER_BOUND ( 'NONE', #209, .T. ) ;
#102 = CARTESIAN_POINT ( 'NONE',  ( 77.20000000000000300, 1.166476076187855600E-015, -9.525000000000014600 ) ) ;
#103 = EDGE_CURVE ( 'NONE', #249, #32, #118, .T. ) ;
#104 = DIRECTION ( 'NONE',  ( 1.000000000000000000, 1.214600194994491000E-016, -0.0000000000000000000 ) ) ;
#105 = APPLICATION_PROTOCOL_DEFINITION ( 'international standard', 'config_control_design', 1994, #123 ) ;
#106 = DATE_AND_TIME ( #160, #224 ) ;
#107 = ORIENTED_EDGE ( 'NONE', *, *, #228, .F. ) ;
#108 = APPROVAL_STATUS ( 'not_yet_approved' ) ;
#109 = APPROVAL ( #108, 'UNSPECIFIED' ) ;
#110 = CYLINDRICAL_SURFACE ( 'NONE', #75, 9.525000000000007500 ) ;
#111 = PERSON_AND_ORGANIZATION ( #81, #229 ) ;
#112 = EDGE_LOOP ( 'NONE', ( #291, #27, #153, #89 ) ) ;
#113 = FACE_OUTER_BOUND ( 'NONE', #53, .T. ) ;
#114 = EDGE_CURVE ( 'NONE', #221, #249, #288, .T. ) ;
#115 = ORIENTED_EDGE ( 'NONE', *, *, #7, .T. ) ;
#116 = CC_DESIGN_APPROVAL ( #109, ( #86 ) ) ;
#117 = CARTESIAN_POINT ( 'NONE',  ( 1.000000000000000000, 1.166476076187854400E-015, -9.525000000000000400 ) ) ;
#118 = LINE ( 'NONE', #63, #48 ) ;
#119 = DIRECTION ( 'NONE',  ( -1.138269997360109700E-016, 1.000000000000000000, 0.0000000000000000000 ) ) ;
#120 = CARTESIAN_POINT ( 'NONE',  ( 77.20000000000000300, 0.0000000000000000000, 9.525000000000014600 ) ) ;
#121 = CARTESIAN_POINT ( 'NONE',  ( 1.000000000000000400, 9.106159978880886000E-017, 0.0000000000000000000 ) ) ;
#122 = AXIS2_PLACEMENT_3D ( 'NONE', #169, #21, #191 ) ;
#123 = APPLICATION_CONTEXT ( 'configuration controlled 3d designs of mechanical parts and assemblies' ) ;
#124 = ADVANCED_FACE ( 'NONE', ( #113 ), #222, .T. ) ;
#125 = PERSON_AND_ORGANIZATION_ROLE ( 'creator' ) ;
#126 = CIRCLE ( 'NONE', #179, 9.525000000000000400 ) ;
#127 = CALENDAR_DATE ( 2023, 19, 5 ) ;
#128 = APPROVAL_DATE_TIME ( #1, #210 ) ;
#129 = EDGE_CURVE ( 'NONE', #249, #221, #278, .T. ) ;
#130 = VECTOR ( 'NONE', #257, 1000.000000000000000 ) ;
#131 = CC_DESIGN_PERSON_AND_ORGANIZATION_ASSIGNMENT ( #139, #125, ( #86 ) ) ;
#132 = CALENDAR_DATE ( 2023, 19, 5 ) ;
#133 = ORIENTED_EDGE ( 'NONE', *, *, #7, .F. ) ;
#134 = ADVANCED_BREP_SHAPE_REPRESENTATION ( '03-2074', ( #192, #294, #271 ), #218 ) ;
#135 = FACE_OUTER_BOUND ( 'NONE', #296, .T. ) ;
#136 = AXIS2_PLACEMENT_3D ( 'NONE', #190, #235, #304 ) ;
#137 = DIRECTION ( 'NONE',  ( 0.0000000000000000000, 1.000000000000000000, 0.0000000000000000000 ) ) ;
#138 = CARTESIAN_POINT ( 'NONE',  ( 1.000000000000000000, 0.0000000000000000000, 0.0000000000000000000 ) ) ;
#139 = PERSON_AND_ORGANIZATION ( #81, #229 ) ;
#140 = EDGE_LOOP ( 'NONE', ( #22, #42 ) ) ;
#141 = PRODUCT ( '03-2074', '03-2074', '', ( #310 ) ) ;
#142 = CARTESIAN_POINT ( 'NONE',  ( -56.14999999999999900, -6.941440114393516100E-015, 0.0000000000000000000 ) ) ;
#143 = CARTESIAN_POINT ( 'NONE',  ( 1.000000000000000000, 0.0000000000000000000, 0.0000000000000000000 ) ) ;
#144 = CARTESIAN_POINT ( 'NONE',  ( -55.84999999999998700, 9.524999999999991500, 0.0000000000000000000 ) ) ;
#145 = CARTESIAN_POINT ( 'NONE',  ( -55.84999999999998700, -9.525000000000005700, 1.166476076187854200E-015 ) ) ;
#146 = CIRCLE ( 'NONE', #183, 9.525000000000000400 ) ;
#147 = AXIS2_PLACEMENT_3D ( 'NONE', #142, #64, #137 ) ;
#148 = DIRECTION ( 'NONE',  ( 1.000000000000000000, 1.214600194994491000E-016, -0.0000000000000000000 ) ) ;
#149 = DIRECTION ( 'NONE',  ( 1.000000000000000000, 0.0000000000000000000, 0.0000000000000000000 ) ) ;
#150 = ADVANCED_FACE ( 'NONE', ( #233 ), #214, .T. ) ;
#151 = COORDINATED_UNIVERSAL_TIME_OFFSET ( 9, 0, .AHEAD. ) ;
#152 = SECURITY_CLASSIFICATION_LEVEL ( 'unclassified' ) ;
#153 = ORIENTED_EDGE ( 'NONE', *, *, #82, .F. ) ;
#154 = CC_DESIGN_PERSON_AND_ORGANIZATION_ASSIGNMENT ( #79, #286, ( #86 ) ) ;
#155 = CIRCLE ( 'NONE', #40, 9.525000000000000400 ) ;
#156 = LOCAL_TIME ( 10, 46, 49.00000000000000000, #219 ) ;
#157 = ORIENTED_EDGE ( 'NONE', *, *, #267, .T. ) ;
#158 = LINE ( 'NONE', #189, #20 ) ;
#159 = CARTESIAN_POINT ( 'NONE',  ( -55.84999999999998700, -6.905002108543680300E-015, 0.0000000000000000000 ) ) ;
#160 = CALENDAR_DATE ( 2023, 19, 5 ) ;
#161 = ORIENTED_EDGE ( 'NONE', *, *, #82, .T. ) ;
#162 = DIRECTION ( 'NONE',  ( 0.0000000000000000000, 0.0000000000000000000, 1.000000000000000000 ) ) ;
#163 = CARTESIAN_POINT ( 'NONE',  ( -56.14999999999999100, -6.941440114393514500E-015, 0.0000000000000000000 ) ) ;
#164 = SECURITY_CLASSIFICATION ( '', '', #152 ) ;
#165 = DIRECTION ( 'NONE',  ( 1.000000000000000000, 1.214600194994491000E-016, -0.0000000000000000000 ) ) ;
#166 = DIRECTION ( 'NONE',  ( 1.000000000000000000, 1.214600194994491000E-016, -0.0000000000000000000 ) ) ;
#167 = CARTESIAN_POINT ( 'NONE',  ( -56.14999999999999900, 9.224999999999994300, 0.0000000000000000000 ) ) ;
#168 = CONICAL_SURFACE ( 'NONE', #246, 9.524999999999998600, 0.7853981633974309600 ) ;
#169 = CARTESIAN_POINT ( 'NONE',  ( -55.84999999999998700, -6.905002108543680300E-015, 0.0000000000000000000 ) ) ;
#170 = DIRECTION ( 'NONE',  ( 1.000000000000000000, 1.214600194994491000E-016, -0.0000000000000000000 ) ) ;
#171 = CARTESIAN_POINT ( 'NONE',  ( 0.0000000000000000000, 0.0000000000000000000, 0.0000000000000000000 ) ) ;
#172 = PERSON_AND_ORGANIZATION ( #81, #229 ) ;
#173 = AXIS2_PLACEMENT_3D ( 'NONE', #236, #104, #256 ) ;
#174 = ORIENTED_EDGE ( 'NONE', *, *, #305, .T. ) ;
#175 = ADVANCED_FACE ( 'NONE', ( #39 ), #110, .T. ) ;
#176 = PERSON_AND_ORGANIZATION_ROLE ( 'design_owner' ) ;
#177 = DATE_TIME_ROLE ( 'classification_date' ) ;
#178 = FACE_OUTER_BOUND ( 'NONE', #205, .T. ) ;
#179 = AXIS2_PLACEMENT_3D ( 'NONE', #99, #232, #119 ) ;
#180 = ORIENTED_EDGE ( 'NONE', *, *, #243, .T. ) ;
#181 = CC_DESIGN_PERSON_AND_ORGANIZATION_ASSIGNMENT ( #4, #312, ( #164 ) ) ;
#182 = LINE ( 'NONE', #185, #57 ) ;
#183 = AXIS2_PLACEMENT_3D ( 'NONE', #281, #148, #308 ) ;
#184 = DIRECTION ( 'NONE',  ( 0.0000000000000000000, 1.000000000000000000, 0.0000000000000000000 ) ) ;
#185 = CARTESIAN_POINT ( 'NONE',  ( 0.0000000000000000000, 0.0000000000000000000, 9.525000000000007500 ) ) ;
#186 = CARTESIAN_POINT ( 'NONE',  ( 77.20000000000000300, 0.0000000000000000000, 0.0000000000000000000 ) ) ;
#187 = ORIENTED_EDGE ( 'NONE', *, *, #61, .F. ) ;
#188 = PLANE ( 'NONE',  #237 ) ;
#189 = CARTESIAN_POINT ( 'NONE',  ( -55.84999999999998700, -9.525000000000005700, 1.166476076187853600E-015 ) ) ;
#190 = CARTESIAN_POINT ( 'NONE',  ( 0.0000000000000000000, 0.0000000000000000000, 0.0000000000000000000 ) ) ;
#191 = DIRECTION ( 'NONE',  ( 0.0000000000000000000, 1.000000000000000000, 0.0000000000000000000 ) ) ;
#192 = MANIFOLD_SOLID_BREP ( 'È¸Àü3', #80 ) ;
#193 = AXIS2_PLACEMENT_3D ( 'NONE', #163, #67, #300 ) ;
#194 = CARTESIAN_POINT ( 'NONE',  ( 0.9999999999999988900, 9.524999999999998600, 0.0000000000000000000 ) ) ;
#195 = ADVANCED_FACE ( 'NONE', ( #268 ), #90, .T. ) ;
#196 = APPLICATION_PROTOCOL_DEFINITION ( 'international standard', 'config_control_design', 1994, #29 ) ;
#197 = APPROVAL_ROLE ( '' ) ;
#198 = LOCAL_TIME ( 10, 46, 49.00000000000000000, #248 ) ;
#199 = CC_DESIGN_DATE_AND_TIME_ASSIGNMENT ( #68, #177, ( #164 ) ) ;
#200 = ORIENTED_EDGE ( 'NONE', *, *, #201, .T. ) ;
#201 = EDGE_CURVE ( 'NONE', #32, #17, #155, .T. ) ;
#202 = VECTOR ( 'NONE', #215, 1000.000000000000000 ) ;
#203 = AXIS2_PLACEMENT_3D ( 'NONE', #121, #52, #216 ) ;
#204 = APPROVAL_DATE_TIME ( #260, #109 ) ;
#205 = EDGE_LOOP ( 'NONE', ( #25, #230, #87, #88 ) ) ;
#206 = CIRCLE ( 'NONE', #58, 9.225000000000001400 ) ;
#207 = DIRECTION ( 'NONE',  ( -1.000000000000000000, -0.0000000000000000000, -0.0000000000000000000 ) ) ;
#208 = APPROVAL_PERSON_ORGANIZATION ( #265, #109, #259 ) ;
#209 = EDGE_LOOP ( 'NONE', ( #303, #272, #313, #14 ) ) ;
#210 = APPROVAL ( #33, 'UNSPECIFIED' ) ;
#211 = DIRECTION ( 'NONE',  ( 0.0000000000000000000, 0.0000000000000000000, 1.000000000000000000 ) ) ;
#212 = EDGE_CURVE ( 'NONE', #59, #262, #158, .T. ) ;
#213 = DIRECTION ( 'NONE',  ( 1.000000000000000000, 1.214600194994491000E-016, -0.0000000000000000000 ) ) ;
#214 = CONICAL_SURFACE ( 'NONE', #295, 9.524999999999998600, 0.7853981633974309600 ) ;
#215 = DIRECTION ( 'NONE',  ( 0.7071067811865596700, 0.7071067811865353600, 0.0000000000000000000 ) ) ;
#216 = DIRECTION ( 'NONE',  ( 0.0000000000000000000, 0.0000000000000000000, -1.000000000000000000 ) ) ;
#217 =( NAMED_UNIT ( * ) PLANE_ANGLE_UNIT ( ) SI_UNIT ( $, .RADIAN. ) );
#218 =( GEOMETRIC_REPRESENTATION_CONTEXT ( 3 ) GLOBAL_UNCERTAINTY_ASSIGNED_CONTEXT ( ( #244 ) ) GLOBAL_UNIT_ASSIGNED_CONTEXT ( ( #26, #217, #76 ) ) REPRESENTATION_CONTEXT ( 'NONE', 'WORKASPACE' ) );
#219 = COORDINATED_UNIVERSAL_TIME_OFFSET ( 9, 0, .AHEAD. ) ;
#220 = APPROVAL_ROLE ( '' ) ;
#221 = VERTEX_POINT ( 'NONE', #120 ) ;
#222 = CYLINDRICAL_SURFACE ( 'NONE', #28, 9.524999999999998600 ) ;
#223 = AXIS2_PLACEMENT_3D ( 'NONE', #159, #9, #184 ) ;
#224 = LOCAL_TIME ( 10, 46, 49.00000000000000000, #282 ) ;
#225 = VERTEX_POINT ( 'NONE', #144 ) ;
#226 = CC_DESIGN_APPROVAL ( #210, ( #164 ) ) ;
#227 = CIRCLE ( 'NONE', #264, 9.525000000000000400 ) ;
#228 = EDGE_CURVE ( 'NONE', #23, #59, #206, .T. ) ;
#229 = ORGANIZATION ( 'UNSPECIFIED', 'UNSPECIFIED', '' ) ;
#230 = ORIENTED_EDGE ( 'NONE', *, *, #212, .T. ) ;
#231 = CARTESIAN_POINT ( 'NONE',  ( 77.20000000000000300, 0.0000000000000000000, 0.0000000000000000000 ) ) ;
#232 = DIRECTION ( 'NONE',  ( 1.000000000000000000, 1.214600194994491000E-016, -0.0000000000000000000 ) ) ;
#233 = FACE_OUTER_BOUND ( 'NONE', #37, .T. ) ;
#234 = CARTESIAN_POINT ( 'NONE',  ( 1.000000000000000000, 0.0000000000000000000, 0.0000000000000000000 ) ) ;
#235 = DIRECTION ( 'NONE',  ( -1.000000000000000000, -0.0000000000000000000, -0.0000000000000000000 ) ) ;
#236 = CARTESIAN_POINT ( 'NONE',  ( 0.9999999999999983300, 9.525000000000000400, 0.0000000000000000000 ) ) ;
#237 = AXIS2_PLACEMENT_3D ( 'NONE', #10, #277, #287 ) ;
#238 = VERTEX_POINT ( 'NONE', #71 ) ;
#239 = ADVANCED_FACE ( 'NONE', ( #101 ), #8, .T. ) ;
#240 = DATE_TIME_ROLE ( 'creation_date' ) ;
#241 = CC_DESIGN_SECURITY_CLASSIFICATION ( #164, ( #86 ) ) ;
#242 = FACE_OUTER_BOUND ( 'NONE', #69, .T. ) ;
#243 = EDGE_CURVE ( 'NONE', #225, #262, #83, .T. ) ;
#244 = UNCERTAINTY_MEASURE_WITH_UNIT (LENGTH_MEASURE( 1.000000000000000100E-005 ), #26, 'distance_accuracy_value', 'NONE');
#245 = ORIENTED_EDGE ( 'NONE', *, *, #289, .F. ) ;
#246 = AXIS2_PLACEMENT_3D ( 'NONE', #297, #43, #92 ) ;
#247 = DIRECTION ( 'NONE',  ( 0.0000000000000000000, 0.0000000000000000000, 1.000000000000000000 ) ) ;
#248 = COORDINATED_UNIVERSAL_TIME_OFFSET ( 9, 0, .AHEAD. ) ;
#249 = VERTEX_POINT ( 'NONE', #102 ) ;
#250 = PRODUCT_RELATED_PRODUCT_CATEGORY ( 'detail', '', ( #141 ) ) ;
#251 = CARTESIAN_POINT ( 'NONE',  ( 0.0000000000000000000, 0.0000000000000000000, 0.0000000000000000000 ) ) ;
#252 = DIRECTION ( 'NONE',  ( 0.0000000000000000000, 0.0000000000000000000, 1.000000000000000000 ) ) ;
#253 = EDGE_CURVE ( 'NONE', #23, #225, #255, .T. ) ;
#254 = CARTESIAN_POINT ( 'NONE',  ( 1.000000000000001100, -9.524999999999998600, 1.166476076187853600E-015 ) ) ;
#255 = LINE ( 'NONE', #279, #202 ) ;
#256 = DIRECTION ( 'NONE',  ( -1.214600194994491000E-016, 1.000000000000000000, 0.0000000000000000000 ) ) ;
#257 = DIRECTION ( 'NONE',  ( 1.000000000000000000, 1.214600194994491000E-016, -0.0000000000000000000 ) ) ;
#258 = ADVANCED_FACE ( 'NONE', ( #34 ), #51, .T. ) ;
#259 = APPROVAL_ROLE ( '' ) ;
#260 = DATE_AND_TIME ( #12, #85 ) ;
#261 = PRODUCT_DEFINITION_SHAPE ( 'NONE', 'NONE',  #311 ) ;
#262 = VERTEX_POINT ( 'NONE', #145 ) ;
#263 = LINE ( 'NONE', #254, #2 ) ;
#264 = AXIS2_PLACEMENT_3D ( 'NONE', #138, #299, #162 ) ;
#265 = PERSON_AND_ORGANIZATION ( #81, #229 ) ;
#266 = EDGE_LOOP ( 'NONE', ( #5, #24, #174, #13 ) ) ;
#267 = EDGE_CURVE ( 'NONE', #262, #74, #263, .T. ) ;
#268 = FACE_OUTER_BOUND ( 'NONE', #266, .T. ) ;
#269 = CARTESIAN_POINT ( 'NONE',  ( 1.000000000000000000, -9.525000000000000400, 1.166476076187853800E-015 ) ) ;
#270 = PERSON_AND_ORGANIZATION ( #81, #229 ) ;
#271 = AXIS2_PLACEMENT_3D ( 'NONE', #171, #284, #149 ) ;
#272 = ORIENTED_EDGE ( 'NONE', *, *, #129, .T. ) ;
#273 = DIRECTION ( 'NONE',  ( 1.000000000000000000, 1.214600194994491000E-016, -0.0000000000000000000 ) ) ;
#274 = DIRECTION ( 'NONE',  ( 0.0000000000000000000, 1.000000000000000000, 0.0000000000000000000 ) ) ;
#275 = CARTESIAN_POINT ( 'NONE',  ( 1.000000000000000000, 0.0000000000000000000, 9.525000000000000400 ) ) ;
#276 = DIRECTION ( 'NONE',  ( -1.138269997360109900E-016, 1.000000000000000000, 0.0000000000000000000 ) ) ;
#277 = DIRECTION ( 'NONE',  ( -1.000000000000000000, 0.0000000000000000000, -0.0000000000000000000 ) ) ;
#278 = CIRCLE ( 'NONE', #3, 9.525000000000014600 ) ;
#279 = CARTESIAN_POINT ( 'NONE',  ( -55.84999999999998700, 9.524999999999991500, 0.0000000000000000000 ) ) ;
#280 = AXIS2_PLACEMENT_3D ( 'NONE', #231, #97, #247 ) ;
#281 = CARTESIAN_POINT ( 'NONE',  ( 0.9999999999999988900, -1.228565254147864400E-031, 0.0000000000000000000 ) ) ;
#282 = COORDINATED_UNIVERSAL_TIME_OFFSET ( 9, 0, .AHEAD. ) ;
#283 = ADVANCED_FACE ( 'NONE', ( #135 ), #306, .F. ) ;
#284 = DIRECTION ( 'NONE',  ( 0.0000000000000000000, 0.0000000000000000000, 1.000000000000000000 ) ) ;
#285 = ORIENTED_EDGE ( 'NONE', *, *, #50, .T. ) ;
#286 = PERSON_AND_ORGANIZATION_ROLE ( 'design_supplier' ) ;
#287 = DIRECTION ( 'NONE',  ( -0.0000000000000000000, 0.0000000000000000000, 1.000000000000000000 ) ) ;
#288 = CIRCLE ( 'NONE', #280, 9.525000000000014600 ) ;
#289 = EDGE_CURVE ( 'NONE', #238, #74, #146, .T. ) ;
#290 = SHAPE_DEFINITION_REPRESENTATION ( #261, #134 ) ;
#291 = ORIENTED_EDGE ( 'NONE', *, *, #114, .T. ) ;
#292 = CC_DESIGN_PERSON_AND_ORGANIZATION_ASSIGNMENT ( #172, #176, ( #141 ) ) ;
#293 = FACE_OUTER_BOUND ( 'NONE', #140, .T. ) ;
#294 = MANIFOLD_SOLID_BREP ( 'È¸Àü4', #62 ) ;
#295 = AXIS2_PLACEMENT_3D ( 'NONE', #16, #165, #274 ) ;
#296 = EDGE_LOOP ( 'NONE', ( #161, #200 ) ) ;
#297 = CARTESIAN_POINT ( 'NONE',  ( -55.84999999999998700, -6.905002108543680300E-015, 0.0000000000000000000 ) ) ;
#298 = APPROVAL_PERSON_ORGANIZATION ( #84, #210, #197 ) ;
#299 = DIRECTION ( 'NONE',  ( -1.000000000000000000, -0.0000000000000000000, -0.0000000000000000000 ) ) ;
#300 = DIRECTION ( 'NONE',  ( 1.214600194994491000E-016, -1.000000000000000000, 0.0000000000000000000 ) ) ;
#301 = CIRCLE ( 'NONE', #147, 9.225000000000001400 ) ;
#302 = COORDINATED_UNIVERSAL_TIME_OFFSET ( 9, 0, .AHEAD. ) ;
#303 = ORIENTED_EDGE ( 'NONE', *, *, #103, .F. ) ;
#304 = DIRECTION ( 'NONE',  ( 0.0000000000000000000, 0.0000000000000000000, 1.000000000000000000 ) ) ;
#305 = EDGE_CURVE ( 'NONE', #225, #238, #73, .T. ) ;
#306 = PLANE ( 'NONE',  #203 ) ;
#307 = ORIENTED_EDGE ( 'NONE', *, *, #212, .F. ) ;
#308 = DIRECTION ( 'NONE',  ( -1.138269997360109700E-016, 1.000000000000000000, 0.0000000000000000000 ) ) ;
#309 = LOCAL_TIME ( 10, 46, 49.00000000000000000, #302 ) ;
#310 = MECHANICAL_CONTEXT ( 'NONE', #123, 'mechanical' ) ;
#311 = PRODUCT_DEFINITION ( 'UNKNOWN', '', #86, #96 ) ;
#312 = PERSON_AND_ORGANIZATION_ROLE ( 'classification_officer' ) ;
#313 = ORIENTED_EDGE ( 'NONE', *, *, #35, .T. ) ;
ENDSEC;
END-ISO-10303-21;
