ISO-10303-21;
HEADER;
FILE_DESCRIPTION (( 'STEP AP203' ),
    '1' );
FILE_NAME ('03-2075.STEP',
    '2023-05-19T01:47:06',
    ( 'USER' ),
    ( 'Hewlett-Packard Company' ),
    'SwSTEP 2.0',
    'SolidWorks 2014',
    '' );
FILE_SCHEMA (( 'CONFIG_CONTROL_DESIGN' ));
ENDSEC;

DATA;
#1 = CARTESIAN_POINT ( 'NONE',  ( 0.9999999999999985600, 12.69999999999999900, 0.0000000000000000000 ) ) ;
#2 = AXIS2_PLACEMENT_3D ( 'NONE', #303, #168, #16 ) ;
#3 = VERTEX_POINT ( 'NONE', #306 ) ;
#4 = CARTESIAN_POINT ( 'NONE',  ( -87.60000000000000900, -1.080797209303984300E-014, 0.0000000000000000000 ) ) ;
#5 = AXIS2_PLACEMENT_3D ( 'NONE', #309, #172, #27 ) ;
#6 = APPROVAL_STATUS ( 'not_yet_approved' ) ;
#7 = CARTESIAN_POINT ( 'NONE',  ( 77.20000000000000300, 0.0000000000000000000, 12.70000000000001400 ) ) ;
#8 = VERTEX_POINT ( 'NONE', #197 ) ;
#9 = DATE_AND_TIME ( #85, #142 ) ;
#10 = ORIENTED_EDGE ( 'NONE', *, *, #99, .F. ) ;
#11 = FACE_OUTER_BOUND ( 'NONE', #37, .T. ) ;
#12 = VERTEX_POINT ( 'NONE', #105 ) ;
#13 = AXIS2_PLACEMENT_3D ( 'NONE', #4, #113, #270 ) ;
#14 = AXIS2_PLACEMENT_3D ( 'NONE', #286, #151, #213 ) ;
#15 = EDGE_LOOP ( 'NONE', ( #273, #126 ) ) ;
#16 = DIRECTION ( 'NONE',  ( 1.000000000000000000, 0.0000000000000000000, 0.0000000000000000000 ) ) ;
#17 = AXIS2_PLACEMENT_3D ( 'NONE', #148, #235, #176 ) ;
#18 = ORIENTED_EDGE ( 'NONE', *, *, #124, .F. ) ;
#19 = PERSON_AND_ORGANIZATION ( #274, #248 ) ;
#20 = EDGE_LOOP ( 'NONE', ( #69, #167, #206, #310 ) ) ;
#21 = ORIENTED_EDGE ( 'NONE', *, *, #99, .T. ) ;
#22 = ORIENTED_EDGE ( 'NONE', *, *, #91, .F. ) ;
#23 = ORIENTED_EDGE ( 'NONE', *, *, #54, .T. ) ;
#24 = EDGE_LOOP ( 'NONE', ( #297, #30 ) ) ;
#25 = CC_DESIGN_PERSON_AND_ORGANIZATION_ASSIGNMENT ( #188, #49, ( #170 ) ) ;
#26 = AXIS2_PLACEMENT_3D ( 'NONE', #238, #107, #262 ) ;
#27 = DIRECTION ( 'NONE',  ( 0.0000000000000000000, 0.0000000000000000000, 1.000000000000000000 ) ) ;
#28 = DIRECTION ( 'NONE',  ( 0.0000000000000000000, 1.000000000000000000, 0.0000000000000000000 ) ) ;
#29 = PERSON_AND_ORGANIZATION ( #274, #248 ) ;
#30 = ORIENTED_EDGE ( 'NONE', *, *, #124, .T. ) ;
#31 = CARTESIAN_POINT ( 'NONE',  ( 1.000000000000000000, 0.0000000000000000000, 0.0000000000000000000 ) ) ;
#32 = AXIS2_PLACEMENT_3D ( 'NONE', #195, #196, #55 ) ;
#33 = DIRECTION ( 'NONE',  ( -1.195183497228115300E-016, 1.000000000000000000, 0.0000000000000000000 ) ) ;
#34 = ADVANCED_FACE ( 'NONE', ( #11 ), #259, .F. ) ;
#35 = DIRECTION ( 'NONE',  ( 1.000000000000000000, 1.219861410049643600E-016, -0.0000000000000000000 ) ) ;
#36 = CYLINDRICAL_SURFACE ( 'NONE', #236, 12.70000000000000600 ) ;
#37 = EDGE_LOOP ( 'NONE', ( #59, #101 ) ) ;
#38 = DIRECTION ( 'NONE',  ( 0.0000000000000000000, 1.000000000000000000, 0.0000000000000000000 ) ) ;
#39 = PERSON_AND_ORGANIZATION_ROLE ( 'creator' ) ;
#40 = CALENDAR_DATE ( 2023, 19, 5 ) ;
#41 = CLOSED_SHELL ( 'NONE', ( #243, #267, #177, #34 ) ) ;
#42 = ORIENTED_EDGE ( 'NONE', *, *, #60, .T. ) ;
#43 = EDGE_CURVE ( 'NONE', #194, #75, #257, .T. ) ;
#44 = CIRCLE ( 'NONE', #104, 12.69999999999999900 ) ;
#45 = PRODUCT_DEFINITION ( 'UNKNOWN', '', #128, #83 ) ;
#46 = EDGE_CURVE ( 'NONE', #75, #3, #143, .T. ) ;
#47 = DATE_AND_TIME ( #116, #173 ) ;
#48 = EDGE_LOOP ( 'NONE', ( #285, #95, #139, #230 ) ) ;
#49 = PERSON_AND_ORGANIZATION_ROLE ( 'design_owner' ) ;
#50 = MANIFOLD_SOLID_BREP ( 'È¸Àü4', #117 ) ;
#51 = AXIS2_PLACEMENT_3D ( 'NONE', #181, #35, #244 ) ;
#52 = VERTEX_POINT ( 'NONE', #114 ) ;
#53 = VECTOR ( 'NONE', #293, 1000.000000000000000 ) ;
#54 = EDGE_CURVE ( 'NONE', #79, #3, #312, .T. ) ;
#55 = DIRECTION ( 'NONE',  ( 1.219861410049643600E-016, -1.000000000000000000, 0.0000000000000000000 ) ) ;
#56 = DIRECTION ( 'NONE',  ( 0.0000000000000000000, 0.0000000000000000000, 1.000000000000000000 ) ) ;
#57 = DIRECTION ( 'NONE',  ( 0.7071067811865435800, -0.7071067811865514600, 8.659560562354982200E-017 ) ) ;
#58 = APPROVAL_DATE_TIME ( #121, #65 ) ;
#59 = ORIENTED_EDGE ( 'NONE', *, *, #60, .F. ) ;
#60 = EDGE_CURVE ( 'NONE', #194, #79, #80, .T. ) ;
#61 = DIRECTION ( 'NONE',  ( 1.000000000000000000, 1.219861410049643600E-016, -0.0000000000000000000 ) ) ;
#62 = ADVANCED_FACE ( 'NONE', ( #192 ), #305, .T. ) ;
#63 = DIRECTION ( 'NONE',  ( 1.000000000000000000, 1.219861410049643600E-016, -0.0000000000000000000 ) ) ;
#64 = FACE_OUTER_BOUND ( 'NONE', #210, .T. ) ;
#65 = APPROVAL ( #115, 'UNSPECIFIED' ) ;
#66 = CARTESIAN_POINT ( 'NONE',  ( 1.000000000000000200, 1.024442997624099600E-016, 0.0000000000000000000 ) ) ;
#67 = APPROVAL_PERSON_ORGANIZATION ( #129, #65, #204 ) ;
#68 = EDGE_CURVE ( 'NONE', #79, #194, #72, .T. ) ;
#69 = ORIENTED_EDGE ( 'NONE', *, *, #78, .F. ) ;
#70 = PERSON_AND_ORGANIZATION_ROLE ( 'creator' ) ;
#71 = CARTESIAN_POINT ( 'NONE',  ( -87.60000000000000900, -1.080797209303984300E-014, 0.0000000000000000000 ) ) ;
#72 = CIRCLE ( 'NONE', #231, 12.70000000000001400 ) ;
#73 = AXIS2_PLACEMENT_3D ( 'NONE', #137, #292, #38 ) ;
#74 = EDGE_CURVE ( 'NONE', #3, #75, #140, .T. ) ;
#75 = VERTEX_POINT ( 'NONE', #240 ) ;
#76 = ORIENTED_EDGE ( 'NONE', *, *, #106, .F. ) ;
#77 = SECURITY_CLASSIFICATION_LEVEL ( 'unclassified' ) ;
#78 = EDGE_CURVE ( 'NONE', #8, #12, #186, .T. ) ;
#79 = VERTEX_POINT ( 'NONE', #263 ) ;
#80 = CIRCLE ( 'NONE', #14, 12.70000000000001400 ) ;
#81 = DIRECTION ( 'NONE',  ( 0.7071067811865434600, 0.7071067811865516800, 0.0000000000000000000 ) ) ;
#82 = CC_DESIGN_APPROVAL ( #65, ( #45 ) ) ;
#83 = DESIGN_CONTEXT ( 'detailed design', #92, 'design' ) ;
#84 = EDGE_CURVE ( 'NONE', #52, #8, #242, .T. ) ;
#85 = CALENDAR_DATE ( 2023, 19, 5 ) ;
#86 = VECTOR ( 'NONE', #247, 1000.000000000000000 ) ;
#87 = DIRECTION ( 'NONE',  ( 1.000000000000000000, 1.219861410049643600E-016, -0.0000000000000000000 ) ) ;
#88 = ADVANCED_FACE ( 'NONE', ( #64 ), #146, .T. ) ;
#89 = AXIS2_PLACEMENT_3D ( 'NONE', #135, #290, #154 ) ;
#90 = DIRECTION ( 'NONE',  ( 0.0000000000000000000, 1.000000000000000000, 0.0000000000000000000 ) ) ;
#91 = EDGE_CURVE ( 'NONE', #302, #12, #300, .T. ) ;
#92 = APPLICATION_CONTEXT ( 'configuration controlled 3d designs of mechanical parts and assemblies' ) ;
#93 = DATE_AND_TIME ( #149, #209 ) ;
#94 = EDGE_CURVE ( 'NONE', #52, #302, #132, .T. ) ;
#95 = ORIENTED_EDGE ( 'NONE', *, *, #68, .T. ) ;
#96 = ORIENTED_EDGE ( 'NONE', *, *, #119, .F. ) ;
#97 = FACE_OUTER_BOUND ( 'NONE', #48, .T. ) ;
#98 = CC_DESIGN_PERSON_AND_ORGANIZATION_ASSIGNMENT ( #296, #70, ( #45 ) ) ;
#99 = EDGE_CURVE ( 'NONE', #12, #239, #234, .T. ) ;
#100 = PERSON_AND_ORGANIZATION ( #274, #248 ) ;
#101 = ORIENTED_EDGE ( 'NONE', *, *, #68, .F. ) ;
#102 = DATE_TIME_ROLE ( 'classification_date' ) ;
#103 = DIRECTION ( 'NONE',  ( 0.0000000000000000000, 0.0000000000000000000, 1.000000000000000000 ) ) ;
#104 = AXIS2_PLACEMENT_3D ( 'NONE', #220, #61, #216 ) ;
#105 = CARTESIAN_POINT ( 'NONE',  ( -87.60000000000000900, -12.70000000000001000, 1.555301434917139200E-015 ) ) ;
#106 = EDGE_CURVE ( 'NONE', #109, #239, #118, .T. ) ;
#107 = DIRECTION ( 'NONE',  ( -1.000000000000000000, -0.0000000000000000000, -0.0000000000000000000 ) ) ;
#108 = LOCAL_TIME ( 10, 47, 6.000000000000000000, #166 ) ;
#109 = VERTEX_POINT ( 'NONE', #155 ) ;
#110 = EDGE_CURVE ( 'NONE', #302, #109, #169, .T. ) ;
#111 = VECTOR ( 'NONE', #268, 1000.000000000000000 ) ;
#112 = CC_DESIGN_DATE_AND_TIME_ASSIGNMENT ( #47, #223, ( #45 ) ) ;
#113 = DIRECTION ( 'NONE',  ( 1.000000000000000000, 1.219861410049643600E-016, -0.0000000000000000000 ) ) ;
#114 = CARTESIAN_POINT ( 'NONE',  ( -87.90000000000000600, 12.39999999999999100, 0.0000000000000000000 ) ) ;
#115 = APPROVAL_STATUS ( 'not_yet_approved' ) ;
#116 = CALENDAR_DATE ( 2023, 19, 5 ) ;
#117 = CLOSED_SHELL ( 'NONE', ( #218, #153, #88, #134, #62, #288 ) ) ;
#118 = CIRCLE ( 'NONE', #51, 12.69999999999999900 ) ;
#119 = EDGE_CURVE ( 'NONE', #8, #52, #227, .T. ) ;
#120 = CARTESIAN_POINT ( 'NONE',  ( -87.60000000000000900, 12.69999999999998900, 0.0000000000000000000 ) ) ;
#121 = DATE_AND_TIME ( #183, #237 ) ;
#122 = ORIENTED_EDGE ( 'NONE', *, *, #131, .T. ) ;
#123 = APPROVAL_ROLE ( '' ) ;
#124 = EDGE_CURVE ( 'NONE', #239, #109, #291, .T. ) ;
#125 = VECTOR ( 'NONE', #57, 1000.000000000000000 ) ;
#126 = ORIENTED_EDGE ( 'NONE', *, *, #74, .T. ) ;
#127 = CARTESIAN_POINT ( 'NONE',  ( -87.60000000000000900, -12.70000000000001000, 1.555301434917138400E-015 ) ) ;
#128 = PRODUCT_DEFINITION_FORMATION_WITH_SPECIFIED_SOURCE ( 'ANY', '', #170, .NOT_KNOWN. ) ;
#129 = PERSON_AND_ORGANIZATION ( #274, #248 ) ;
#130 = ORIENTED_EDGE ( 'NONE', *, *, #94, .F. ) ;
#131 = EDGE_CURVE ( 'NONE', #12, #302, #44, .T. ) ;
#132 = LINE ( 'NONE', #158, #179 ) ;
#133 = AXIS2_PLACEMENT_3D ( 'NONE', #258, #152, #90 ) ;
#134 = ADVANCED_FACE ( 'NONE', ( #282 ), #201, .T. ) ;
#135 = CARTESIAN_POINT ( 'NONE',  ( 0.9999999999999981100, -2.342405889047626900E-031, 0.0000000000000000000 ) ) ;
#136 = EDGE_LOOP ( 'NONE', ( #225, #21, #76, #175 ) ) ;
#137 = CARTESIAN_POINT ( 'NONE',  ( -87.90000000000000600, -1.084456793534133200E-014, 0.0000000000000000000 ) ) ;
#138 = CARTESIAN_POINT ( 'NONE',  ( 1.000000000000001600, -12.69999999999999900, 1.555301434917138400E-015 ) ) ;
#139 = ORIENTED_EDGE ( 'NONE', *, *, #43, .T. ) ;
#140 = CIRCLE ( 'NONE', #5, 12.69999999999999900 ) ;
#141 = APPROVAL ( #6, 'UNSPECIFIED' ) ;
#142 = LOCAL_TIME ( 10, 47, 6.000000000000000000, #205 ) ;
#143 = CIRCLE ( 'NONE', #26, 12.69999999999999900 ) ;
#144 = AXIS2_PLACEMENT_3D ( 'NONE', #222, #87, #178 ) ;
#145 = CYLINDRICAL_SURFACE ( 'NONE', #253, 12.70000000000000600 ) ;
#146 = PLANE ( 'NONE',  #32 ) ;
#147 = DIRECTION ( 'NONE',  ( -1.195183497228115300E-016, 1.000000000000000000, 0.0000000000000000000 ) ) ;
#148 = CARTESIAN_POINT ( 'NONE',  ( 77.20000000000000300, 0.0000000000000000000, 0.0000000000000000000 ) ) ;
#149 = CALENDAR_DATE ( 2023, 19, 5 ) ;
#150 = ORIENTED_EDGE ( 'NONE', *, *, #84, .F. ) ;
#151 = DIRECTION ( 'NONE',  ( -1.000000000000000000, -0.0000000000000000000, -0.0000000000000000000 ) ) ;
#152 = DIRECTION ( 'NONE',  ( 1.000000000000000000, 1.219861410049643600E-016, -0.0000000000000000000 ) ) ;
#153 = ADVANCED_FACE ( 'NONE', ( #221 ), #276, .T. ) ;
#154 = DIRECTION ( 'NONE',  ( -1.195183497228115300E-016, 1.000000000000000000, 0.0000000000000000000 ) ) ;
#155 = CARTESIAN_POINT ( 'NONE',  ( 0.9999999999999965600, 12.69999999999999900, 0.0000000000000000000 ) ) ;
#156 = FACE_OUTER_BOUND ( 'NONE', #20, .T. ) ;
#157 = CC_DESIGN_APPROVAL ( #141, ( #128 ) ) ;
#158 = CARTESIAN_POINT ( 'NONE',  ( -87.60000000000000900, 12.69999999999998900, 0.0000000000000000000 ) ) ;
#159 = DIRECTION ( 'NONE',  ( -1.000000000000000000, -0.0000000000000000000, -0.0000000000000000000 ) ) ;
#160 = CARTESIAN_POINT ( 'NONE',  ( 0.0000000000000000000, 0.0000000000000000000, 0.0000000000000000000 ) ) ;
#161 = PERSON_AND_ORGANIZATION ( #274, #248 ) ;
#162 = EDGE_LOOP ( 'NONE', ( #184, #281, #22, #130 ) ) ;
#163 = DIRECTION ( 'NONE',  ( -1.000000000000000000, -0.0000000000000000000, -0.0000000000000000000 ) ) ;
#164 = FACE_OUTER_BOUND ( 'NONE', #249, .T. ) ;
#165 =( LENGTH_UNIT ( ) NAMED_UNIT ( * ) SI_UNIT ( .MILLI., .METRE. ) );
#166 = COORDINATED_UNIVERSAL_TIME_OFFSET ( 9, 0, .AHEAD. ) ;
#167 = ORIENTED_EDGE ( 'NONE', *, *, #119, .T. ) ;
#168 = DIRECTION ( 'NONE',  ( 0.0000000000000000000, 0.0000000000000000000, 1.000000000000000000 ) ) ;
#169 = LINE ( 'NONE', #1, #111 ) ;
#170 = PRODUCT ( '03-2075', '03-2075', '', ( #190 ) ) ;
#171 = CC_DESIGN_PERSON_AND_ORGANIZATION_ASSIGNMENT ( #161, #39, ( #128 ) ) ;
#172 = DIRECTION ( 'NONE',  ( -1.000000000000000000, -0.0000000000000000000, -0.0000000000000000000 ) ) ;
#173 = LOCAL_TIME ( 10, 47, 6.000000000000000000, #229 ) ;
#174 = DIRECTION ( 'NONE',  ( 1.000000000000000000, 1.219861410049643600E-016, -0.0000000000000000000 ) ) ;
#175 = ORIENTED_EDGE ( 'NONE', *, *, #110, .F. ) ;
#176 = DIRECTION ( 'NONE',  ( -0.0000000000000000000, 0.0000000000000000000, 1.000000000000000000 ) ) ;
#177 = ADVANCED_FACE ( 'NONE', ( #199 ), #266, .F. ) ;
#178 = DIRECTION ( 'NONE',  ( -1.219861410049643600E-016, 1.000000000000000000, 0.0000000000000000000 ) ) ;
#179 = VECTOR ( 'NONE', #81, 999.9999999999998900 ) ;
#180 = AXIS2_PLACEMENT_3D ( 'NONE', #200, #63, #33 ) ;
#181 = CARTESIAN_POINT ( 'NONE',  ( 0.9999999999999981100, -2.342405889047626900E-031, 0.0000000000000000000 ) ) ;
#182 = APPROVAL_ROLE ( '' ) ;
#183 = CALENDAR_DATE ( 2023, 19, 5 ) ;
#184 = ORIENTED_EDGE ( 'NONE', *, *, #84, .T. ) ;
#185 = CARTESIAN_POINT ( 'NONE',  ( 0.0000000000000000000, 0.0000000000000000000, 0.0000000000000000000 ) ) ;
#186 = LINE ( 'NONE', #127, #125 ) ;
#187 = CC_DESIGN_PERSON_AND_ORGANIZATION_ASSIGNMENT ( #100, #208, ( #128 ) ) ;
#188 = PERSON_AND_ORGANIZATION ( #274, #248 ) ;
#189 = ORIENTED_EDGE ( 'NONE', *, *, #43, .F. ) ;
#190 = MECHANICAL_CONTEXT ( 'NONE', #304, 'mechanical' ) ;
#191 = ADVANCED_BREP_SHAPE_REPRESENTATION ( '03-2075', ( #241, #50, #2 ), #219 ) ;
#192 = FACE_OUTER_BOUND ( 'NONE', #265, .T. ) ;
#193 = AXIS2_PLACEMENT_3D ( 'NONE', #66, #217, #289 ) ;
#194 = VERTEX_POINT ( 'NONE', #7 ) ;
#195 = CARTESIAN_POINT ( 'NONE',  ( -87.90000000000000600, -1.084456793534133200E-014, 0.0000000000000000000 ) ) ;
#196 = DIRECTION ( 'NONE',  ( -1.000000000000000000, -1.219861410049643600E-016, 0.0000000000000000000 ) ) ;
#197 = CARTESIAN_POINT ( 'NONE',  ( -87.90000000000000600, -12.40000000000001100, 1.536931732929928400E-015 ) ) ;
#198 = DIRECTION ( 'NONE',  ( 1.000000000000000000, 1.219861410049643600E-016, -0.0000000000000000000 ) ) ;
#199 = FACE_OUTER_BOUND ( 'NONE', #15, .T. ) ;
#200 = CARTESIAN_POINT ( 'NONE',  ( 1.000000000000000000, 0.0000000000000000000, 0.0000000000000000000 ) ) ;
#201 = PLANE ( 'NONE',  #144 ) ;
#202 = CONICAL_SURFACE ( 'NONE', #207, 12.69999999999999900, 0.7853981633974540500 ) ;
#203 = SECURITY_CLASSIFICATION ( '', '', #77 ) ;
#204 = APPROVAL_ROLE ( '' ) ;
#205 = COORDINATED_UNIVERSAL_TIME_OFFSET ( 9, 0, .AHEAD. ) ;
#206 = ORIENTED_EDGE ( 'NONE', *, *, #94, .T. ) ;
#207 = AXIS2_PLACEMENT_3D ( 'NONE', #71, #226, #251 ) ;
#208 = PERSON_AND_ORGANIZATION_ROLE ( 'design_supplier' ) ;
#209 = LOCAL_TIME ( 10, 47, 6.000000000000000000, #272 ) ;
#210 = EDGE_LOOP ( 'NONE', ( #150, #96 ) ) ;
#211 = FACE_OUTER_BOUND ( 'NONE', #162, .T. ) ;
#212 = CC_DESIGN_PERSON_AND_ORGANIZATION_ASSIGNMENT ( #29, #232, ( #203 ) ) ;
#213 = DIRECTION ( 'NONE',  ( 0.0000000000000000000, 0.0000000000000000000, 1.000000000000000000 ) ) ;
#214 = APPROVAL_DATE_TIME ( #280, #141 ) ;
#215 = ORIENTED_EDGE ( 'NONE', *, *, #110, .T. ) ;
#216 = DIRECTION ( 'NONE',  ( 0.0000000000000000000, 1.000000000000000000, 0.0000000000000000000 ) ) ;
#217 = DIRECTION ( 'NONE',  ( 1.000000000000000000, 0.0000000000000000000, 0.0000000000000000000 ) ) ;
#218 = ADVANCED_FACE ( 'NONE', ( #211 ), #269, .T. ) ;
#219 =( GEOMETRIC_REPRESENTATION_CONTEXT ( 3 ) GLOBAL_UNCERTAINTY_ASSIGNED_CONTEXT ( ( #299 ) ) GLOBAL_UNIT_ASSIGNED_CONTEXT ( ( #165, #278, #254 ) ) REPRESENTATION_CONTEXT ( 'NONE', 'WORKASPACE' ) );
#220 = CARTESIAN_POINT ( 'NONE',  ( -87.60000000000000900, -1.080797209303984300E-014, 0.0000000000000000000 ) ) ;
#221 = FACE_OUTER_BOUND ( 'NONE', #136, .T. ) ;
#222 = CARTESIAN_POINT ( 'NONE',  ( 0.9999999999999974500, 12.69999999999999900, 0.0000000000000000000 ) ) ;
#223 = DATE_TIME_ROLE ( 'creation_date' ) ;
#224 = APPROVAL_PERSON_ORGANIZATION ( #284, #141, #182 ) ;
#225 = ORIENTED_EDGE ( 'NONE', *, *, #91, .T. ) ;
#226 = DIRECTION ( 'NONE',  ( 1.000000000000000000, 1.219861410049643600E-016, -0.0000000000000000000 ) ) ;
#227 = CIRCLE ( 'NONE', #73, 12.40000000000000200 ) ;
#228 = CC_DESIGN_DATE_AND_TIME_ASSIGNMENT ( #93, #102, ( #203 ) ) ;
#229 = COORDINATED_UNIVERSAL_TIME_OFFSET ( 9, 0, .AHEAD. ) ;
#230 = ORIENTED_EDGE ( 'NONE', *, *, #74, .F. ) ;
#231 = AXIS2_PLACEMENT_3D ( 'NONE', #295, #159, #56 ) ;
#232 = PERSON_AND_ORGANIZATION_ROLE ( 'classification_officer' ) ;
#233 = DIRECTION ( 'NONE',  ( 0.0000000000000000000, 0.0000000000000000000, 1.000000000000000000 ) ) ;
#234 = LINE ( 'NONE', #138, #53 ) ;
#235 = DIRECTION ( 'NONE',  ( -1.000000000000000000, 0.0000000000000000000, -0.0000000000000000000 ) ) ;
#236 = AXIS2_PLACEMENT_3D ( 'NONE', #160, #313, #233 ) ;
#237 = LOCAL_TIME ( 10, 47, 6.000000000000000000, #301 ) ;
#238 = CARTESIAN_POINT ( 'NONE',  ( 0.9999999999999995600, 0.0000000000000000000, 0.0000000000000000000 ) ) ;
#239 = VERTEX_POINT ( 'NONE', #298 ) ;
#240 = CARTESIAN_POINT ( 'NONE',  ( 0.9999999999999995600, 0.0000000000000000000, 12.69999999999999900 ) ) ;
#241 = MANIFOLD_SOLID_BREP ( 'È¸Àü3', #41 ) ;
#242 = CIRCLE ( 'NONE', #287, 12.40000000000000200 ) ;
#243 = ADVANCED_FACE ( 'NONE', ( #164 ), #36, .T. ) ;
#244 = DIRECTION ( 'NONE',  ( -1.195183497228115300E-016, 1.000000000000000000, 0.0000000000000000000 ) ) ;
#245 = PRODUCT_DEFINITION_SHAPE ( 'NONE', 'NONE',  #45 ) ;
#246 = APPROVAL ( #255, 'UNSPECIFIED' ) ;
#247 = DIRECTION ( 'NONE',  ( -1.000000000000000000, -0.0000000000000000000, -0.0000000000000000000 ) ) ;
#248 = ORGANIZATION ( 'UNSPECIFIED', 'UNSPECIFIED', '' ) ;
#249 = EDGE_LOOP ( 'NONE', ( #42, #23, #308, #189 ) ) ;
#250 = APPLICATION_PROTOCOL_DEFINITION ( 'international standard', 'config_control_design', 1994, #92 ) ;
#251 = DIRECTION ( 'NONE',  ( 0.0000000000000000000, 1.000000000000000000, 0.0000000000000000000 ) ) ;
#252 = VECTOR ( 'NONE', #283, 1000.000000000000000 ) ;
#253 = AXIS2_PLACEMENT_3D ( 'NONE', #185, #163, #103 ) ;
#254 =( NAMED_UNIT ( * ) SI_UNIT ( $, .STERADIAN. ) SOLID_ANGLE_UNIT ( ) );
#255 = APPROVAL_STATUS ( 'not_yet_approved' ) ;
#256 = APPROVAL_DATE_TIME ( #9, #246 ) ;
#257 = LINE ( 'NONE', #271, #86 ) ;
#258 = CARTESIAN_POINT ( 'NONE',  ( -87.60000000000000900, -1.080797209303984300E-014, 0.0000000000000000000 ) ) ;
#259 = PLANE ( 'NONE',  #17 ) ;
#260 = CARTESIAN_POINT ( 'NONE',  ( 0.0000000000000000000, 1.555301434917139200E-015, -12.70000000000000600 ) ) ;
#261 = CC_DESIGN_APPROVAL ( #246, ( #203 ) ) ;
#262 = DIRECTION ( 'NONE',  ( 0.0000000000000000000, 0.0000000000000000000, 1.000000000000000000 ) ) ;
#263 = CARTESIAN_POINT ( 'NONE',  ( 77.20000000000000300, 1.555301434917140000E-015, -12.70000000000001200 ) ) ;
#264 = APPROVAL_PERSON_ORGANIZATION ( #19, #246, #123 ) ;
#265 = EDGE_LOOP ( 'NONE', ( #10, #122, #215, #18 ) ) ;
#266 = PLANE ( 'NONE',  #193 ) ;
#267 = ADVANCED_FACE ( 'NONE', ( #97 ), #145, .T. ) ;
#268 = DIRECTION ( 'NONE',  ( 1.000000000000000000, 1.219861410049643600E-016, -0.0000000000000000000 ) ) ;
#269 = CONICAL_SURFACE ( 'NONE', #133, 12.69999999999999900, 0.7853981633974540500 ) ;
#270 = DIRECTION ( 'NONE',  ( 0.0000000000000000000, 1.000000000000000000, 0.0000000000000000000 ) ) ;
#271 = CARTESIAN_POINT ( 'NONE',  ( 0.0000000000000000000, 0.0000000000000000000, 12.70000000000000600 ) ) ;
#272 = COORDINATED_UNIVERSAL_TIME_OFFSET ( 9, 0, .AHEAD. ) ;
#273 = ORIENTED_EDGE ( 'NONE', *, *, #46, .T. ) ;
#274 = PERSON ( 'UNSPECIFIED', 'UNSPECIFIED', 'UNSPECIFIED', ('UNSPECIFIED'), ('UNSPECIFIED'), ('UNSPECIFIED') ) ;
#275 = AXIS2_PLACEMENT_3D ( 'NONE', #31, #198, #147 ) ;
#276 = CYLINDRICAL_SURFACE ( 'NONE', #180, 12.69999999999999900 ) ;
#277 = CC_DESIGN_SECURITY_CLASSIFICATION ( #203, ( #128 ) ) ;
#278 =( NAMED_UNIT ( * ) PLANE_ANGLE_UNIT ( ) SI_UNIT ( $, .RADIAN. ) );
#279 = APPLICATION_PROTOCOL_DEFINITION ( 'international standard', 'config_control_design', 1994, #304 ) ;
#280 = DATE_AND_TIME ( #40, #108 ) ;
#281 = ORIENTED_EDGE ( 'NONE', *, *, #78, .T. ) ;
#282 = FACE_OUTER_BOUND ( 'NONE', #24, .T. ) ;
#283 = DIRECTION ( 'NONE',  ( -1.000000000000000000, -0.0000000000000000000, -0.0000000000000000000 ) ) ;
#284 = PERSON_AND_ORGANIZATION ( #274, #248 ) ;
#285 = ORIENTED_EDGE ( 'NONE', *, *, #54, .F. ) ;
#286 = CARTESIAN_POINT ( 'NONE',  ( 77.20000000000000300, 0.0000000000000000000, 0.0000000000000000000 ) ) ;
#287 = AXIS2_PLACEMENT_3D ( 'NONE', #311, #174, #28 ) ;
#288 = ADVANCED_FACE ( 'NONE', ( #156 ), #202, .T. ) ;
#289 = DIRECTION ( 'NONE',  ( 0.0000000000000000000, 0.0000000000000000000, -1.000000000000000000 ) ) ;
#290 = DIRECTION ( 'NONE',  ( 1.000000000000000000, 1.219861410049643600E-016, -0.0000000000000000000 ) ) ;
#291 = CIRCLE ( 'NONE', #89, 12.69999999999999900 ) ;
#292 = DIRECTION ( 'NONE',  ( 1.000000000000000000, 1.219861410049643600E-016, -0.0000000000000000000 ) ) ;
#293 = DIRECTION ( 'NONE',  ( 1.000000000000000000, 1.219861410049643600E-016, -0.0000000000000000000 ) ) ;
#294 = PRODUCT_RELATED_PRODUCT_CATEGORY ( 'detail', '', ( #170 ) ) ;
#295 = CARTESIAN_POINT ( 'NONE',  ( 77.20000000000000300, 0.0000000000000000000, 0.0000000000000000000 ) ) ;
#296 = PERSON_AND_ORGANIZATION ( #274, #248 ) ;
#297 = ORIENTED_EDGE ( 'NONE', *, *, #106, .T. ) ;
#298 = CARTESIAN_POINT ( 'NONE',  ( 0.9999999999999995600, -12.69999999999999900, 1.555301434917138400E-015 ) ) ;
#299 = UNCERTAINTY_MEASURE_WITH_UNIT (LENGTH_MEASURE( 1.000000000000000100E-005 ), #165, 'distance_accuracy_value', 'NONE');
#300 = CIRCLE ( 'NONE', #13, 12.69999999999999900 ) ;
#301 = COORDINATED_UNIVERSAL_TIME_OFFSET ( 9, 0, .AHEAD. ) ;
#302 = VERTEX_POINT ( 'NONE', #120 ) ;
#303 = CARTESIAN_POINT ( 'NONE',  ( 0.0000000000000000000, 0.0000000000000000000, 0.0000000000000000000 ) ) ;
#304 = APPLICATION_CONTEXT ( 'configuration controlled 3d designs of mechanical parts and assemblies' ) ;
#305 = CYLINDRICAL_SURFACE ( 'NONE', #275, 12.69999999999999900 ) ;
#306 = CARTESIAN_POINT ( 'NONE',  ( 0.9999999999999995600, 1.555301434917138800E-015, -12.69999999999999900 ) ) ;
#307 = SHAPE_DEFINITION_REPRESENTATION ( #245, #191 ) ;
#308 = ORIENTED_EDGE ( 'NONE', *, *, #46, .F. ) ;
#309 = CARTESIAN_POINT ( 'NONE',  ( 0.9999999999999995600, 0.0000000000000000000, 0.0000000000000000000 ) ) ;
#310 = ORIENTED_EDGE ( 'NONE', *, *, #131, .F. ) ;
#311 = CARTESIAN_POINT ( 'NONE',  ( -87.90000000000000600, -1.084456793534133200E-014, 0.0000000000000000000 ) ) ;
#312 = LINE ( 'NONE', #260, #252 ) ;
#313 = DIRECTION ( 'NONE',  ( -1.000000000000000000, -0.0000000000000000000, -0.0000000000000000000 ) ) ;
ENDSEC;
END-ISO-10303-21;
