ISO-10303-21;
HEADER;
FILE_DESCRIPTION (( 'STEP AP203' ),
    '1' );
FILE_NAME ('03-2076.STEP',
    '2023-05-19T01:47:20',
    ( 'USER' ),
    ( 'Hewlett-Packard Company' ),
    'SwSTEP 2.0',
    'SolidWorks 2014',
    '' );
FILE_SCHEMA (( 'CONFIG_CONTROL_DESIGN' ));
ENDSEC;

DATA;
#1 = AXIS2_PLACEMENT_3D ( 'NONE', #223, #90, #244 ) ;
#2 = LOCAL_TIME ( 10, 47, 20.00000000000000000, #80 ) ;
#3 = ORIENTED_EDGE ( 'NONE', *, *, #41, .T. ) ;
#4 = AXIS2_PLACEMENT_3D ( 'NONE', #8, #172, #33 ) ;
#5 = CARTESIAN_POINT ( 'NONE',  ( 0.0000000000000000000, 0.0000000000000000000, 9.525000000000003900 ) ) ;
#6 =( GEOMETRIC_REPRESENTATION_CONTEXT ( 3 ) GLOBAL_UNCERTAINTY_ASSIGNED_CONTEXT ( ( #241 ) ) GLOBAL_UNIT_ASSIGNED_CONTEXT ( ( #233, #101, #256 ) ) REPRESENTATION_CONTEXT ( 'NONE', 'WORKASPACE' ) );
#7 = FACE_OUTER_BOUND ( 'NONE', #104, .T. ) ;
#8 = CARTESIAN_POINT ( 'NONE',  ( 42.27499999999999100, 0.0000000000000000000, 0.0000000000000000000 ) ) ;
#9 = AXIS2_PLACEMENT_3D ( 'NONE', #63, #222, #89 ) ;
#10 = EDGE_CURVE ( 'NONE', #185, #214, #123, .T. ) ;
#11 = APPROVAL_DATE_TIME ( #85, #197 ) ;
#12 = CARTESIAN_POINT ( 'NONE',  ( 0.9999999999999983300, -2.018688556216471100E-031, 0.0000000000000000000 ) ) ;
#13 = ORIENTED_EDGE ( 'NONE', *, *, #53, .F. ) ;
#14 = CARTESIAN_POINT ( 'NONE',  ( 0.9999999999999983300, -2.018688556216471100E-031, 0.0000000000000000000 ) ) ;
#15 = CARTESIAN_POINT ( 'NONE',  ( -56.15000000000000600, -9.225000000000006800, 1.148106374200643800E-015 ) ) ;
#16 = EDGE_CURVE ( 'NONE', #214, #238, #240, .T. ) ;
#17 = CYLINDRICAL_SURFACE ( 'NONE', #251, 9.524999999999998600 ) ;
#18 = CARTESIAN_POINT ( 'NONE',  ( 0.9999999999999993300, -9.525000000000000400, 1.166476076187853800E-015 ) ) ;
#19 = CC_DESIGN_APPROVAL ( #313, ( #261 ) ) ;
#20 = DIRECTION ( 'NONE',  ( 1.000000000000000000, 0.0000000000000000000, 0.0000000000000000000 ) ) ;
#21 = SECURITY_CLASSIFICATION_LEVEL ( 'unclassified' ) ;
#22 = APPROVAL_PERSON_ORGANIZATION ( #92, #197, #142 ) ;
#23 = ORIENTED_EDGE ( 'NONE', *, *, #73, .F. ) ;
#24 = EDGE_CURVE ( 'NONE', #308, #238, #297, .T. ) ;
#25 = EDGE_CURVE ( 'NONE', #185, #308, #236, .T. ) ;
#26 = FACE_OUTER_BOUND ( 'NONE', #194, .T. ) ;
#27 = EDGE_CURVE ( 'NONE', #308, #185, #114, .T. ) ;
#28 = COORDINATED_UNIVERSAL_TIME_OFFSET ( 9, 0, .AHEAD. ) ;
#29 = ORIENTED_EDGE ( 'NONE', *, *, #32, .T. ) ;
#30 = AXIS2_PLACEMENT_3D ( 'NONE', #37, #199, #66 ) ;
#31 = VECTOR ( 'NONE', #93, 1000.000000000000000 ) ;
#32 = EDGE_CURVE ( 'NONE', #238, #214, #178, .T. ) ;
#33 = DIRECTION ( 'NONE',  ( 0.0000000000000000000, 0.0000000000000000000, 1.000000000000000000 ) ) ;
#34 = CC_DESIGN_SECURITY_CLASSIFICATION ( #261, ( #184 ) ) ;
#35 = LOCAL_TIME ( 10, 47, 20.00000000000000000, #107 ) ;
#36 = ORIENTED_EDGE ( 'NONE', *, *, #48, .F. ) ;
#37 = CARTESIAN_POINT ( 'NONE',  ( -55.84999999999999400, -6.905002108543679500E-015, 0.0000000000000000000 ) ) ;
#38 = EDGE_CURVE ( 'NONE', #111, #269, #54, .T. ) ;
#39 = DIRECTION ( 'NONE',  ( -1.138269997360109700E-016, 1.000000000000000000, 0.0000000000000000000 ) ) ;
#40 = DIRECTION ( 'NONE',  ( -1.138269997360109700E-016, 1.000000000000000000, 0.0000000000000000000 ) ) ;
#41 = EDGE_CURVE ( 'NONE', #201, #111, #291, .T. ) ;
#42 = CARTESIAN_POINT ( 'NONE',  ( -55.84999999999999400, 9.524999999999991500, 0.0000000000000000000 ) ) ;
#43 = LINE ( 'NONE', #155, #147 ) ;
#44 = CARTESIAN_POINT ( 'NONE',  ( 1.000000000000000000, 0.0000000000000000000, 0.0000000000000000000 ) ) ;
#45 = DIRECTION ( 'NONE',  ( 1.214600194994490700E-016, -1.000000000000000000, 0.0000000000000000000 ) ) ;
#46 = ADVANCED_FACE ( 'NONE', ( #229 ), #198, .F. ) ;
#47 = CARTESIAN_POINT ( 'NONE',  ( 42.27499999999999100, 1.166476076187855000E-015, -9.525000000000007500 ) ) ;
#48 = EDGE_CURVE ( 'NONE', #144, #269, #287, .T. ) ;
#49 = ORGANIZATION ( 'UNSPECIFIED', 'UNSPECIFIED', '' ) ;
#50 = PERSON_AND_ORGANIZATION_ROLE ( 'design_owner' ) ;
#51 = EDGE_LOOP ( 'NONE', ( #69, #120 ) ) ;
#52 = DATE_TIME_ROLE ( 'classification_date' ) ;
#53 = EDGE_CURVE ( 'NONE', #201, #144, #109, .T. ) ;
#54 = LINE ( 'NONE', #270, #166 ) ;
#55 = AXIS2_PLACEMENT_3D ( 'NONE', #130, #112, #271 ) ;
#56 = EDGE_CURVE ( 'NONE', #269, #265, #220, .T. ) ;
#57 = EDGE_LOOP ( 'NONE', ( #127, #173 ) ) ;
#58 = PRODUCT_RELATED_PRODUCT_CATEGORY ( 'detail', '', ( #281 ) ) ;
#59 = EDGE_CURVE ( 'NONE', #192, #265, #106, .T. ) ;
#60 = APPROVAL_DATE_TIME ( #122, #313 ) ;
#61 = VECTOR ( 'NONE', #149, 1000.000000000000000 ) ;
#62 = EDGE_CURVE ( 'NONE', #144, #192, #43, .T. ) ;
#63 = CARTESIAN_POINT ( 'NONE',  ( 0.9999999999999995600, 0.0000000000000000000, 0.0000000000000000000 ) ) ;
#64 = ORIENTED_EDGE ( 'NONE', *, *, #38, .T. ) ;
#65 = EDGE_CURVE ( 'NONE', #111, #201, #277, .T. ) ;
#66 = DIRECTION ( 'NONE',  ( 0.0000000000000000000, 1.000000000000000000, 0.0000000000000000000 ) ) ;
#67 = EDGE_CURVE ( 'NONE', #265, #192, #215, .T. ) ;
#68 = APPROVAL_PERSON_ORGANIZATION ( #126, #313, #79 ) ;
#69 = ORIENTED_EDGE ( 'NONE', *, *, #59, .T. ) ;
#70 = AXIS2_PLACEMENT_3D ( 'NONE', #12, #175, #39 ) ;
#71 = CARTESIAN_POINT ( 'NONE',  ( 0.0000000000000000000, 0.0000000000000000000, 0.0000000000000000000 ) ) ;
#72 = CARTESIAN_POINT ( 'NONE',  ( -56.15000000000000600, 9.224999999999994300, 0.0000000000000000000 ) ) ;
#73 = EDGE_CURVE ( 'NONE', #269, #144, #97, .T. ) ;
#74 = DIRECTION ( 'NONE',  ( 0.0000000000000000000, 1.000000000000000000, 0.0000000000000000000 ) ) ;
#75 = SHAPE_DEFINITION_REPRESENTATION ( #133, #191 ) ;
#76 = ADVANCED_FACE ( 'NONE', ( #26 ), #195, .T. ) ;
#77 = ORIENTED_EDGE ( 'NONE', *, *, #24, .F. ) ;
#78 = APPLICATION_PROTOCOL_DEFINITION ( 'international standard', 'config_control_design', 1994, #211 ) ;
#79 = APPROVAL_ROLE ( '' ) ;
#80 = COORDINATED_UNIVERSAL_TIME_OFFSET ( 9, 0, .AHEAD. ) ;
#81 = ORIENTED_EDGE ( 'NONE', *, *, #24, .T. ) ;
#82 = ORIENTED_EDGE ( 'NONE', *, *, #16, .F. ) ;
#83 = CYLINDRICAL_SURFACE ( 'NONE', #190, 9.524999999999998600 ) ;
#84 = AXIS2_PLACEMENT_3D ( 'NONE', #210, #162, #20 ) ;
#85 = DATE_AND_TIME ( #143, #200 ) ;
#86 = ORIENTED_EDGE ( 'NONE', *, *, #10, .F. ) ;
#87 = AXIS2_PLACEMENT_3D ( 'NONE', #113, #274, #136 ) ;
#88 = FACE_OUTER_BOUND ( 'NONE', #135, .T. ) ;
#89 = DIRECTION ( 'NONE',  ( 0.0000000000000000000, 0.0000000000000000000, 1.000000000000000000 ) ) ;
#90 = DIRECTION ( 'NONE',  ( -1.000000000000000000, -0.0000000000000000000, -0.0000000000000000000 ) ) ;
#91 = DIRECTION ( 'NONE',  ( 1.000000000000000000, 1.214600194994490700E-016, -0.0000000000000000000 ) ) ;
#92 = PERSON_AND_ORGANIZATION ( #209, #49 ) ;
#93 = DIRECTION ( 'NONE',  ( 1.000000000000000000, 1.214600194994490700E-016, -0.0000000000000000000 ) ) ;
#94 = ORIENTED_EDGE ( 'NONE', *, *, #59, .F. ) ;
#95 = DIRECTION ( 'NONE',  ( 1.000000000000000000, 1.214600194994490700E-016, -0.0000000000000000000 ) ) ;
#96 = DIRECTION ( 'NONE',  ( -1.000000000000000000, -0.0000000000000000000, -0.0000000000000000000 ) ) ;
#97 = CIRCLE ( 'NONE', #115, 9.524999999999998600 ) ;
#98 = CARTESIAN_POINT ( 'NONE',  ( -56.15000000000000600, -6.941440114393514500E-015, 0.0000000000000000000 ) ) ;
#99 = ADVANCED_FACE ( 'NONE', ( #266 ), #207, .T. ) ;
#100 = CC_DESIGN_PERSON_AND_ORGANIZATION_ASSIGNMENT ( #289, #50, ( #281 ) ) ;
#101 =( NAMED_UNIT ( * ) PLANE_ANGLE_UNIT ( ) SI_UNIT ( $, .RADIAN. ) );
#102 = APPROVAL_ROLE ( '' ) ;
#103 = PERSON_AND_ORGANIZATION ( #209, #49 ) ;
#104 = EDGE_LOOP ( 'NONE', ( #312, #226, #94, #148 ) ) ;
#105 = AXIS2_PLACEMENT_3D ( 'NONE', #14, #177, #40 ) ;
#106 = CIRCLE ( 'NONE', #70, 9.525000000000000400 ) ;
#107 = COORDINATED_UNIVERSAL_TIME_OFFSET ( 9, 0, .AHEAD. ) ;
#108 = EDGE_LOOP ( 'NONE', ( #234, #273 ) ) ;
#109 = LINE ( 'NONE', #174, #157 ) ;
#110 = PRODUCT_DEFINITION ( 'UNKNOWN', '', #184, #262 ) ;
#111 = VERTEX_POINT ( 'NONE', #15 ) ;
#112 = DIRECTION ( 'NONE',  ( 1.000000000000000000, 0.0000000000000000000, 0.0000000000000000000 ) ) ;
#113 = CARTESIAN_POINT ( 'NONE',  ( -56.15000000000000600, -6.941440114393514500E-015, 0.0000000000000000000 ) ) ;
#114 = CIRCLE ( 'NONE', #1, 9.525000000000007500 ) ;
#115 = AXIS2_PLACEMENT_3D ( 'NONE', #228, #95, #249 ) ;
#116 = DIRECTION ( 'NONE',  ( 0.0000000000000000000, 0.0000000000000000000, 1.000000000000000000 ) ) ;
#117 = CARTESIAN_POINT ( 'NONE',  ( 0.9999999999999995600, 1.166476076187854200E-015, -9.525000000000000400 ) ) ;
#118 = ADVANCED_FACE ( 'NONE', ( #139 ), #83, .T. ) ;
#119 = DIRECTION ( 'NONE',  ( -1.000000000000000000, 0.0000000000000000000, -0.0000000000000000000 ) ) ;
#120 = ORIENTED_EDGE ( 'NONE', *, *, #67, .T. ) ;
#121 = DATE_TIME_ROLE ( 'creation_date' ) ;
#122 = DATE_AND_TIME ( #176, #239 ) ;
#123 = LINE ( 'NONE', #5, #61 ) ;
#124 = APPROVAL ( #235, 'UNSPECIFIED' ) ;
#125 = ORIENTED_EDGE ( 'NONE', *, *, #25, .T. ) ;
#126 = PERSON_AND_ORGANIZATION ( #209, #49 ) ;
#127 = ORIENTED_EDGE ( 'NONE', *, *, #25, .F. ) ;
#128 = AXIS2_PLACEMENT_3D ( 'NONE', #202, #203, #296 ) ;
#129 = FACE_OUTER_BOUND ( 'NONE', #108, .T. ) ;
#130 = CARTESIAN_POINT ( 'NONE',  ( 1.000000000000000200, 1.365923996832132800E-016, 0.0000000000000000000 ) ) ;
#131 = CLOSED_SHELL ( 'NONE', ( #302, #208, #255, #183, #118, #76 ) ) ;
#132 = CARTESIAN_POINT ( 'NONE',  ( 0.9999999999999995600, 0.0000000000000000000, 0.0000000000000000000 ) ) ;
#133 = PRODUCT_DEFINITION_SHAPE ( 'NONE', 'NONE',  #110 ) ;
#134 = PERSON_AND_ORGANIZATION ( #209, #49 ) ;
#135 = EDGE_LOOP ( 'NONE', ( #125, #81, #82, #86 ) ) ;
#136 = DIRECTION ( 'NONE',  ( 0.0000000000000000000, 1.000000000000000000, 0.0000000000000000000 ) ) ;
#137 = CARTESIAN_POINT ( 'NONE',  ( 1.000000000000000000, 0.0000000000000000000, 0.0000000000000000000 ) ) ;
#138 = CARTESIAN_POINT ( 'NONE',  ( 42.27499999999999100, 0.0000000000000000000, 9.525000000000007500 ) ) ;
#139 = FACE_OUTER_BOUND ( 'NONE', #309, .T. ) ;
#140 = CC_DESIGN_APPROVAL ( #124, ( #110 ) ) ;
#141 = DIRECTION ( 'NONE',  ( 1.000000000000000000, 1.214600194994490700E-016, -0.0000000000000000000 ) ) ;
#142 = APPROVAL_ROLE ( '' ) ;
#143 = CALENDAR_DATE ( 2023, 19, 5 ) ;
#144 = VERTEX_POINT ( 'NONE', #42 ) ;
#145 = DATE_AND_TIME ( #212, #272 ) ;
#146 = ORIENTED_EDGE ( 'NONE', *, *, #10, .T. ) ;
#147 = VECTOR ( 'NONE', #227, 1000.000000000000000 ) ;
#148 = ORIENTED_EDGE ( 'NONE', *, *, #62, .F. ) ;
#149 = DIRECTION ( 'NONE',  ( -1.000000000000000000, -0.0000000000000000000, -0.0000000000000000000 ) ) ;
#150 = CC_DESIGN_PERSON_AND_ORGANIZATION_ASSIGNMENT ( #103, #257, ( #110 ) ) ;
#151 = DIRECTION ( 'NONE',  ( 0.0000000000000000000, 0.0000000000000000000, 1.000000000000000000 ) ) ;
#152 = APPROVAL_DATE_TIME ( #218, #124 ) ;
#153 = CARTESIAN_POINT ( 'NONE',  ( 1.000000000000001100, -9.524999999999998600, 1.166476076187853600E-015 ) ) ;
#154 = ORIENTED_EDGE ( 'NONE', *, *, #56, .F. ) ;
#155 = CARTESIAN_POINT ( 'NONE',  ( 0.9999999999999988900, 9.524999999999998600, 0.0000000000000000000 ) ) ;
#156 = CARTESIAN_POINT ( 'NONE',  ( 0.0000000000000000000, 0.0000000000000000000, 0.0000000000000000000 ) ) ;
#157 = VECTOR ( 'NONE', #295, 1000.000000000000000 ) ;
#158 = PLANE ( 'NONE',  #221 ) ;
#159 = CARTESIAN_POINT ( 'NONE',  ( 42.27499999999999100, 3.079703304857512300E-014, 0.0000000000000000000 ) ) ;
#160 = ADVANCED_FACE ( 'NONE', ( #88 ), #253, .T. ) ;
#161 = CARTESIAN_POINT ( 'NONE',  ( -55.84999999999999400, -6.905002108543679500E-015, 0.0000000000000000000 ) ) ;
#162 = DIRECTION ( 'NONE',  ( 0.0000000000000000000, 0.0000000000000000000, 1.000000000000000000 ) ) ;
#163 = APPROVAL_PERSON_ORGANIZATION ( #224, #124, #102 ) ;
#164 = ORIENTED_EDGE ( 'NONE', *, *, #53, .T. ) ;
#165 = PERSON_AND_ORGANIZATION_ROLE ( 'design_supplier' ) ;
#166 = VECTOR ( 'NONE', #267, 1000.000000000000100 ) ;
#167 = CC_DESIGN_DATE_AND_TIME_ASSIGNMENT ( #145, #121, ( #110 ) ) ;
#168 = EDGE_LOOP ( 'NONE', ( #77, #290, #146, #216 ) ) ;
#169 = VECTOR ( 'NONE', #196, 1000.000000000000000 ) ;
#170 = AXIS2_PLACEMENT_3D ( 'NONE', #156, #275, #298 ) ;
#171 = CARTESIAN_POINT ( 'NONE',  ( 0.0000000000000000000, 1.166476076187854400E-015, -9.525000000000003900 ) ) ;
#172 = DIRECTION ( 'NONE',  ( -1.000000000000000000, -0.0000000000000000000, -0.0000000000000000000 ) ) ;
#173 = ORIENTED_EDGE ( 'NONE', *, *, #27, .F. ) ;
#174 = CARTESIAN_POINT ( 'NONE',  ( -55.84999999999999400, 9.524999999999991500, 0.0000000000000000000 ) ) ;
#175 = DIRECTION ( 'NONE',  ( 1.000000000000000000, 1.214600194994490700E-016, -0.0000000000000000000 ) ) ;
#176 = CALENDAR_DATE ( 2023, 19, 5 ) ;
#177 = DIRECTION ( 'NONE',  ( 1.000000000000000000, 1.214600194994490700E-016, -0.0000000000000000000 ) ) ;
#178 = CIRCLE ( 'NONE', #263, 9.525000000000000400 ) ;
#179 = EDGE_LOOP ( 'NONE', ( #3, #64, #36, #13 ) ) ;
#180 = DIRECTION ( 'NONE',  ( 1.000000000000000000, 1.214600194994490700E-016, -0.0000000000000000000 ) ) ;
#181 = DIRECTION ( 'NONE',  ( -1.214600194994490700E-016, 1.000000000000000000, 0.0000000000000000000 ) ) ;
#182 = DIRECTION ( 'NONE',  ( -1.000000000000000000, -1.214600194994490700E-016, 0.0000000000000000000 ) ) ;
#183 = ADVANCED_FACE ( 'NONE', ( #260 ), #158, .T. ) ;
#184 = PRODUCT_DEFINITION_FORMATION_WITH_SPECIFIED_SOURCE ( 'ANY', '', #281, .NOT_KNOWN. ) ;
#185 = VERTEX_POINT ( 'NONE', #138 ) ;
#186 = MECHANICAL_CONTEXT ( 'NONE', #305, 'mechanical' ) ;
#187 = PERSON_AND_ORGANIZATION_ROLE ( 'classification_officer' ) ;
#188 = DATE_AND_TIME ( #247, #2 ) ;
#189 = EDGE_LOOP ( 'NONE', ( #294, #29 ) ) ;
#190 = AXIS2_PLACEMENT_3D ( 'NONE', #137, #180, #204 ) ;
#191 = ADVANCED_BREP_SHAPE_REPRESENTATION ( '03-2076', ( #237, #299, #84 ), #6 ) ;
#192 = VERTEX_POINT ( 'NONE', #206 ) ;
#193 = PERSON_AND_ORGANIZATION ( #209, #49 ) ;
#194 = EDGE_LOOP ( 'NONE', ( #259, #243, #164, #23 ) ) ;
#195 = CONICAL_SURFACE ( 'NONE', #128, 9.524999999999998600, 0.7853981633974309600 ) ;
#196 = DIRECTION ( 'NONE',  ( -1.000000000000000000, -0.0000000000000000000, -0.0000000000000000000 ) ) ;
#197 = APPROVAL ( #285, 'UNSPECIFIED' ) ;
#198 = PLANE ( 'NONE',  #55 ) ;
#199 = DIRECTION ( 'NONE',  ( 1.000000000000000000, 1.214600194994490700E-016, -0.0000000000000000000 ) ) ;
#200 = LOCAL_TIME ( 10, 47, 20.00000000000000000, #264 ) ;
#201 = VERTEX_POINT ( 'NONE', #72 ) ;
#202 = CARTESIAN_POINT ( 'NONE',  ( -55.84999999999999400, -6.905002108543679500E-015, 0.0000000000000000000 ) ) ;
#203 = DIRECTION ( 'NONE',  ( 1.000000000000000000, 1.214600194994490700E-016, -0.0000000000000000000 ) ) ;
#204 = DIRECTION ( 'NONE',  ( -1.138269997360109900E-016, 1.000000000000000000, 0.0000000000000000000 ) ) ;
#205 = AXIS2_PLACEMENT_3D ( 'NONE', #71, #96, #116 ) ;
#206 = CARTESIAN_POINT ( 'NONE',  ( 0.9999999999999972200, 9.525000000000000400, 0.0000000000000000000 ) ) ;
#207 = CYLINDRICAL_SURFACE ( 'NONE', #170, 9.525000000000003900 ) ;
#208 = ADVANCED_FACE ( 'NONE', ( #7 ), #17, .T. ) ;
#209 = PERSON ( 'UNSPECIFIED', 'UNSPECIFIED', 'UNSPECIFIED', ('UNSPECIFIED'), ('UNSPECIFIED'), ('UNSPECIFIED') ) ;
#210 = CARTESIAN_POINT ( 'NONE',  ( 0.0000000000000000000, 0.0000000000000000000, 0.0000000000000000000 ) ) ;
#211 = APPLICATION_CONTEXT ( 'configuration controlled 3d designs of mechanical parts and assemblies' ) ;
#212 = CALENDAR_DATE ( 2023, 19, 5 ) ;
#213 = APPROVAL_STATUS ( 'not_yet_approved' ) ;
#214 = VERTEX_POINT ( 'NONE', #278 ) ;
#215 = CIRCLE ( 'NONE', #105, 9.525000000000000400 ) ;
#216 = ORIENTED_EDGE ( 'NONE', *, *, #32, .F. ) ;
#217 = CC_DESIGN_APPROVAL ( #197, ( #184 ) ) ;
#218 = DATE_AND_TIME ( #284, #35 ) ;
#219 = CLOSED_SHELL ( 'NONE', ( #160, #99, #46, #279 ) ) ;
#220 = LINE ( 'NONE', #153, #31 ) ;
#221 = AXIS2_PLACEMENT_3D ( 'NONE', #276, #250, #181 ) ;
#222 = DIRECTION ( 'NONE',  ( -1.000000000000000000, -0.0000000000000000000, -0.0000000000000000000 ) ) ;
#223 = CARTESIAN_POINT ( 'NONE',  ( 42.27499999999999100, 0.0000000000000000000, 0.0000000000000000000 ) ) ;
#224 = PERSON_AND_ORGANIZATION ( #209, #49 ) ;
#225 = CARTESIAN_POINT ( 'NONE',  ( -56.15000000000000600, -6.941440114393514500E-015, 0.0000000000000000000 ) ) ;
#226 = ORIENTED_EDGE ( 'NONE', *, *, #56, .T. ) ;
#227 = DIRECTION ( 'NONE',  ( 1.000000000000000000, 1.214600194994490700E-016, -0.0000000000000000000 ) ) ;
#228 = CARTESIAN_POINT ( 'NONE',  ( -55.84999999999999400, -6.905002108543679500E-015, 0.0000000000000000000 ) ) ;
#229 = FACE_OUTER_BOUND ( 'NONE', #189, .T. ) ;
#230 = DIRECTION ( 'NONE',  ( 1.000000000000000000, 1.214600194994490700E-016, -0.0000000000000000000 ) ) ;
#231 = CARTESIAN_POINT ( 'NONE',  ( -55.84999999999999400, -9.525000000000005700, 1.166476076187854200E-015 ) ) ;
#232 = CC_DESIGN_PERSON_AND_ORGANIZATION_ASSIGNMENT ( #258, #306, ( #184 ) ) ;
#233 =( LENGTH_UNIT ( ) NAMED_UNIT ( * ) SI_UNIT ( .MILLI., .METRE. ) );
#234 = ORIENTED_EDGE ( 'NONE', *, *, #41, .F. ) ;
#235 = APPROVAL_STATUS ( 'not_yet_approved' ) ;
#236 = CIRCLE ( 'NONE', #4, 9.525000000000007500 ) ;
#237 = MANIFOLD_SOLID_BREP ( 'È¸Àü3', #219 ) ;
#238 = VERTEX_POINT ( 'NONE', #117 ) ;
#239 = LOCAL_TIME ( 10, 47, 20.00000000000000000, #307 ) ;
#240 = CIRCLE ( 'NONE', #9, 9.525000000000000400 ) ;
#241 = UNCERTAINTY_MEASURE_WITH_UNIT (LENGTH_MEASURE( 1.000000000000000100E-005 ), #233, 'distance_accuracy_value', 'NONE');
#242 = FACE_OUTER_BOUND ( 'NONE', #179, .T. ) ;
#243 = ORIENTED_EDGE ( 'NONE', *, *, #65, .T. ) ;
#244 = DIRECTION ( 'NONE',  ( 0.0000000000000000000, 0.0000000000000000000, 1.000000000000000000 ) ) ;
#245 = CC_DESIGN_PERSON_AND_ORGANIZATION_ASSIGNMENT ( #193, #165, ( #184 ) ) ;
#246 = DIRECTION ( 'NONE',  ( 0.0000000000000000000, 1.000000000000000000, 0.0000000000000000000 ) ) ;
#247 = CALENDAR_DATE ( 2023, 19, 5 ) ;
#248 = ORIENTED_EDGE ( 'NONE', *, *, #73, .T. ) ;
#249 = DIRECTION ( 'NONE',  ( 0.0000000000000000000, 1.000000000000000000, 0.0000000000000000000 ) ) ;
#250 = DIRECTION ( 'NONE',  ( 1.000000000000000000, 1.214600194994490700E-016, -0.0000000000000000000 ) ) ;
#251 = AXIS2_PLACEMENT_3D ( 'NONE', #44, #230, #252 ) ;
#252 = DIRECTION ( 'NONE',  ( -1.138269997360109900E-016, 1.000000000000000000, 0.0000000000000000000 ) ) ;
#253 = CYLINDRICAL_SURFACE ( 'NONE', #205, 9.525000000000003900 ) ;
#254 = PLANE ( 'NONE',  #300 ) ;
#255 = ADVANCED_FACE ( 'NONE', ( #129 ), #301, .T. ) ;
#256 =( NAMED_UNIT ( * ) SI_UNIT ( $, .STERADIAN. ) SOLID_ANGLE_UNIT ( ) );
#257 = PERSON_AND_ORGANIZATION_ROLE ( 'creator' ) ;
#258 = PERSON_AND_ORGANIZATION ( #209, #49 ) ;
#259 = ORIENTED_EDGE ( 'NONE', *, *, #38, .F. ) ;
#260 = FACE_OUTER_BOUND ( 'NONE', #51, .T. ) ;
#261 = SECURITY_CLASSIFICATION ( '', '', #21 ) ;
#262 = DESIGN_CONTEXT ( 'detailed design', #211, 'design' ) ;
#263 = AXIS2_PLACEMENT_3D ( 'NONE', #132, #292, #151 ) ;
#264 = COORDINATED_UNIVERSAL_TIME_OFFSET ( 9, 0, .AHEAD. ) ;
#265 = VERTEX_POINT ( 'NONE', #18 ) ;
#266 = FACE_OUTER_BOUND ( 'NONE', #168, .T. ) ;
#267 = DIRECTION ( 'NONE',  ( 0.7071067811865599000, -0.7071067811865350300, 8.659560562354781200E-017 ) ) ;
#268 = AXIS2_PLACEMENT_3D ( 'NONE', #98, #182, #45 ) ;
#269 = VERTEX_POINT ( 'NONE', #231 ) ;
#270 = CARTESIAN_POINT ( 'NONE',  ( -55.84999999999999400, -9.525000000000005700, 1.166476076187853600E-015 ) ) ;
#271 = DIRECTION ( 'NONE',  ( 0.0000000000000000000, 0.0000000000000000000, -1.000000000000000000 ) ) ;
#272 = LOCAL_TIME ( 10, 47, 20.00000000000000000, #28 ) ;
#273 = ORIENTED_EDGE ( 'NONE', *, *, #65, .F. ) ;
#274 = DIRECTION ( 'NONE',  ( 1.000000000000000000, 1.214600194994490700E-016, -0.0000000000000000000 ) ) ;
#275 = DIRECTION ( 'NONE',  ( -1.000000000000000000, -0.0000000000000000000, -0.0000000000000000000 ) ) ;
#276 = CARTESIAN_POINT ( 'NONE',  ( 0.9999999999999981100, 9.525000000000000400, 0.0000000000000000000 ) ) ;
#277 = CIRCLE ( 'NONE', #87, 9.225000000000001400 ) ;
#278 = CARTESIAN_POINT ( 'NONE',  ( 0.9999999999999995600, 0.0000000000000000000, 9.525000000000000400 ) ) ;
#279 = ADVANCED_FACE ( 'NONE', ( #311 ), #254, .F. ) ;
#280 = DIRECTION ( 'NONE',  ( -0.0000000000000000000, 0.0000000000000000000, 1.000000000000000000 ) ) ;
#281 = PRODUCT ( '03-2076', '03-2076', '', ( #186 ) ) ;
#282 = CC_DESIGN_PERSON_AND_ORGANIZATION_ASSIGNMENT ( #134, #187, ( #261 ) ) ;
#283 = APPLICATION_PROTOCOL_DEFINITION ( 'international standard', 'config_control_design', 1994, #305 ) ;
#284 = CALENDAR_DATE ( 2023, 19, 5 ) ;
#285 = APPROVAL_STATUS ( 'not_yet_approved' ) ;
#286 = ORIENTED_EDGE ( 'NONE', *, *, #67, .F. ) ;
#287 = CIRCLE ( 'NONE', #30, 9.524999999999998600 ) ;
#288 = AXIS2_PLACEMENT_3D ( 'NONE', #161, #141, #74 ) ;
#289 = PERSON_AND_ORGANIZATION ( #209, #49 ) ;
#290 = ORIENTED_EDGE ( 'NONE', *, *, #27, .T. ) ;
#291 = CIRCLE ( 'NONE', #310, 9.225000000000001400 ) ;
#292 = DIRECTION ( 'NONE',  ( -1.000000000000000000, -0.0000000000000000000, -0.0000000000000000000 ) ) ;
#293 = CC_DESIGN_DATE_AND_TIME_ASSIGNMENT ( #188, #52, ( #261 ) ) ;
#294 = ORIENTED_EDGE ( 'NONE', *, *, #16, .T. ) ;
#295 = DIRECTION ( 'NONE',  ( 0.7071067811865596700, 0.7071067811865353600, 0.0000000000000000000 ) ) ;
#296 = DIRECTION ( 'NONE',  ( 0.0000000000000000000, 1.000000000000000000, 0.0000000000000000000 ) ) ;
#297 = LINE ( 'NONE', #171, #169 ) ;
#298 = DIRECTION ( 'NONE',  ( 0.0000000000000000000, 0.0000000000000000000, 1.000000000000000000 ) ) ;
#299 = MANIFOLD_SOLID_BREP ( 'È¸Àü4', #131 ) ;
#300 = AXIS2_PLACEMENT_3D ( 'NONE', #159, #119, #280 ) ;
#301 = PLANE ( 'NONE',  #268 ) ;
#302 = ADVANCED_FACE ( 'NONE', ( #242 ), #303, .T. ) ;
#303 = CONICAL_SURFACE ( 'NONE', #288, 9.524999999999998600, 0.7853981633974309600 ) ;
#304 = ORIENTED_EDGE ( 'NONE', *, *, #62, .T. ) ;
#305 = APPLICATION_CONTEXT ( 'configuration controlled 3d designs of mechanical parts and assemblies' ) ;
#306 = PERSON_AND_ORGANIZATION_ROLE ( 'creator' ) ;
#307 = COORDINATED_UNIVERSAL_TIME_OFFSET ( 9, 0, .AHEAD. ) ;
#308 = VERTEX_POINT ( 'NONE', #47 ) ;
#309 = EDGE_LOOP ( 'NONE', ( #154, #248, #304, #286 ) ) ;
#310 = AXIS2_PLACEMENT_3D ( 'NONE', #225, #91, #246 ) ;
#311 = FACE_OUTER_BOUND ( 'NONE', #57, .T. ) ;
#312 = ORIENTED_EDGE ( 'NONE', *, *, #48, .T. ) ;
#313 = APPROVAL ( #213, 'UNSPECIFIED' ) ;
ENDSEC;
END-ISO-10303-21;
