ISO-10303-21;
HEADER;
FILE_DESCRIPTION (( 'STEP AP203' ),
    '1' );
FILE_NAME ('03-2078.STEP',
    '2023-06-13T04:53:58',
    ( 'USER' ),
    ( 'Hewlett-Packard Company' ),
    'SwSTEP 2.0',
    'SolidWorks 2014',
    '' );
FILE_SCHEMA (( 'CONFIG_CONTROL_DESIGN' ));
ENDSEC;

DATA;
#1 = PLANE ( 'NONE',  #253 ) ;
#2 = APPLICATION_PROTOCOL_DEFINITION ( 'international standard', 'config_control_design', 1994, #35 ) ;
#3 = DIRECTION ( 'NONE',  ( 0.0000000000000000000, 0.0000000000000000000, 1.000000000000000000 ) ) ;
#4 = APPROVAL_STATUS ( 'not_yet_approved' ) ;
#5 = FACE_OUTER_BOUND ( 'NONE', #311, .T. ) ;
#6 = EDGE_LOOP ( 'NONE', ( #46, #118, #280, #241 ) ) ;
#7 = AXIS2_PLACEMENT_3D ( 'NONE', #299, #318, #127 ) ;
#8 = PERSON_AND_ORGANIZATION ( #401, #383 ) ;
#9 = LINE ( 'NONE', #163, #20 ) ;
#10 = CC_DESIGN_PERSON_AND_ORGANIZATION_ASSIGNMENT ( #304, #101, ( #124 ) ) ;
#11 = CARTESIAN_POINT ( 'NONE',  ( 0.0000000000000000000, 0.0000000000000000000, 0.0000000000000000000 ) ) ;
#12 = EDGE_CURVE ( 'NONE', #263, #38, #290, .T. ) ;
#13 = CARTESIAN_POINT ( 'NONE',  ( 20.05000000000000400, 0.0000000000000000000, 0.0000000000000000000 ) ) ;
#14 = ORIENTED_EDGE ( 'NONE', *, *, #227, .F. ) ;
#15 = ADVANCED_FACE ( 'NONE', ( #371 ), #209, .T. ) ;
#16 = VECTOR ( 'NONE', #122, 1000.000000000000000 ) ;
#17 = VERTEX_POINT ( 'NONE', #162 ) ;
#18 = ORIENTED_EDGE ( 'NONE', *, *, #227, .T. ) ;
#19 = PERSON_AND_ORGANIZATION ( #401, #383 ) ;
#20 = VECTOR ( 'NONE', #408, 999.9999999999998900 ) ;
#21 = PERSON_AND_ORGANIZATION ( #401, #383 ) ;
#22 = VERTEX_POINT ( 'NONE', #202 ) ;
#23 = DIRECTION ( 'NONE',  ( -1.000000000000000000, 0.0000000000000000000, -0.0000000000000000000 ) ) ;
#24 = LINE ( 'NONE', #53, #16 ) ;
#25 = CARTESIAN_POINT ( 'NONE',  ( -0.7937499999999965100, -4.762500000000000200, 0.0000000000000000000 ) ) ;
#26 = DIRECTION ( 'NONE',  ( 1.000000000000000000, 1.255964264747573600E-016, -0.0000000000000000000 ) ) ;
#27 = ORIENTED_EDGE ( 'NONE', *, *, #340, .F. ) ;
#28 = DIRECTION ( 'NONE',  ( 1.000000000000000000, 1.255964264747573600E-016, -0.0000000000000000000 ) ) ;
#29 = PERSON_AND_ORGANIZATION ( #401, #383 ) ;
#30 = PRODUCT_DEFINITION ( 'UNKNOWN', '', #147, #149 ) ;
#31 = CARTESIAN_POINT ( 'NONE',  ( 0.9999999999999983300, -3.968750000000000000, 4.860316984116058100E-016 ) ) ;
#32 = ORIENTED_EDGE ( 'NONE', *, *, #33, .F. ) ;
#33 = EDGE_CURVE ( 'NONE', #327, #263, #214, .T. ) ;
#34 = FACE_OUTER_BOUND ( 'NONE', #233, .T. ) ;
#35 = APPLICATION_CONTEXT ( 'configuration controlled 3d designs of mechanical parts and assemblies' ) ;
#36 = DIRECTION ( 'NONE',  ( 1.255964264747573600E-016, -1.000000000000000000, 0.0000000000000000000 ) ) ;
#37 = PERSON_AND_ORGANIZATION_ROLE ( 'creator' ) ;
#38 = VERTEX_POINT ( 'NONE', #25 ) ;
#39 = AXIS2_PLACEMENT_3D ( 'NONE', #186, #112, #223 ) ;
#40 = COORDINATED_UNIVERSAL_TIME_OFFSET ( 9, 0, .AHEAD. ) ;
#41 = FACE_OUTER_BOUND ( 'NONE', #222, .T. ) ;
#42 = CARTESIAN_POINT ( 'NONE',  ( 0.0000000000000000000, 4.860316984116060100E-016, -3.968750000000001800 ) ) ;
#43 = ORIENTED_EDGE ( 'NONE', *, *, #260, .F. ) ;
#44 = DIRECTION ( 'NONE',  ( 0.0000000000000000000, 0.0000000000000000000, 1.000000000000000000 ) ) ;
#45 = ADVANCED_FACE ( 'NONE', ( #109 ), #93, .T. ) ;
#46 = ORIENTED_EDGE ( 'NONE', *, *, #321, .F. ) ;
#47 = VERTEX_POINT ( 'NONE', #352 ) ;
#48 = AXIS2_PLACEMENT_3D ( 'NONE', #293, #92, #172 ) ;
#49 = SHAPE_DEFINITION_REPRESENTATION ( #377, #346 ) ;
#50 = CIRCLE ( 'NONE', #274, 4.762500000000000200 ) ;
#51 = APPROVAL ( #361, 'UNSPECIFIED' ) ;
#52 = EDGE_CURVE ( 'NONE', #226, #77, #116, .T. ) ;
#53 = CARTESIAN_POINT ( 'NONE',  ( -43.14999999999999100, -4.762500000000006400, 5.832380380939271100E-016 ) ) ;
#54 = ORIENTED_EDGE ( 'NONE', *, *, #148, .T. ) ;
#55 = CARTESIAN_POINT ( 'NONE',  ( -43.45000000000000300, -5.423557072913809100E-015, 0.0000000000000000000 ) ) ;
#56 = CARTESIAN_POINT ( 'NONE',  ( -0.7937499999999971800, -6.608450609993969400E-017, 0.0000000000000000000 ) ) ;
#57 = EDGE_LOOP ( 'NONE', ( #121, #63, #342, #307 ) ) ;
#58 = DIRECTION ( 'NONE',  ( -1.365923996832131400E-016, 1.000000000000000000, 0.0000000000000000000 ) ) ;
#59 = PLANE ( 'NONE',  #68 ) ;
#60 = CYLINDRICAL_SURFACE ( 'NONE', #193, 3.968750000000000000 ) ;
#61 = AXIS2_PLACEMENT_3D ( 'NONE', #13, #250, #44 ) ;
#62 = DIRECTION ( 'NONE',  ( 1.000000000000000000, 1.255964264747573600E-016, -0.0000000000000000000 ) ) ;
#63 = ORIENTED_EDGE ( 'NONE', *, *, #154, .F. ) ;
#64 = DIRECTION ( 'NONE',  ( 1.000000000000000000, 1.255964264747573600E-016, -0.0000000000000000000 ) ) ;
#65 = DIRECTION ( 'NONE',  ( 1.000000000000000000, 0.0000000000000000000, 0.0000000000000000000 ) ) ;
#66 = DIRECTION ( 'NONE',  ( -1.000000000000000000, -0.0000000000000000000, -0.0000000000000000000 ) ) ;
#67 = SECURITY_CLASSIFICATION_LEVEL ( 'unclassified' ) ;
#68 = AXIS2_PLACEMENT_3D ( 'NONE', #292, #323, #132 ) ;
#69 = DIRECTION ( 'NONE',  ( 0.0000000000000000000, 1.000000000000000000, 0.0000000000000000000 ) ) ;
#70 = CC_DESIGN_APPROVAL ( #51, ( #30 ) ) ;
#71 = UNCERTAINTY_MEASURE_WITH_UNIT (LENGTH_MEASURE( 1.000000000000000100E-005 ), #98, 'distance_accuracy_value', 'NONE');
#72 = DIRECTION ( 'NONE',  ( 1.000000000000000000, 1.255964264747573600E-016, -0.0000000000000000000 ) ) ;
#73 = EDGE_CURVE ( 'NONE', #226, #263, #194, .T. ) ;
#74 = ORIENTED_EDGE ( 'NONE', *, *, #302, .F. ) ;
#75 = ADVANCED_FACE ( 'NONE', ( #34 ), #59, .F. ) ;
#76 = VECTOR ( 'NONE', #316, 999.9999999999998900 ) ;
#77 = VERTEX_POINT ( 'NONE', #130 ) ;
#78 = AXIS2_PLACEMENT_3D ( 'NONE', #11, #308, #367 ) ;
#79 = ORIENTED_EDGE ( 'NONE', *, *, #167, .T. ) ;
#80 = CALENDAR_DATE ( 2023, 13, 6 ) ;
#81 = LINE ( 'NONE', #31, #266 ) ;
#82 = CARTESIAN_POINT ( 'NONE',  ( 1.000000000000000000, 4.860316984116059100E-016, -3.968750000000000000 ) ) ;
#83 = ORIENTED_EDGE ( 'NONE', *, *, #321, .T. ) ;
#84 = DIRECTION ( 'NONE',  ( 0.0000000000000000000, 1.000000000000000000, 0.0000000000000000000 ) ) ;
#85 = DIRECTION ( 'NONE',  ( -1.365923996832131600E-016, 1.000000000000000000, 0.0000000000000000000 ) ) ;
#86 = DIRECTION ( 'NONE',  ( 1.000000000000000000, 1.255964264747573600E-016, -0.0000000000000000000 ) ) ;
#87 = DIRECTION ( 'NONE',  ( 1.000000000000000000, 1.255964264747573600E-016, -0.0000000000000000000 ) ) ;
#88 = FACE_OUTER_BOUND ( 'NONE', #409, .T. ) ;
#89 = EDGE_LOOP ( 'NONE', ( #198, #152, #331, #32 ) ) ;
#90 = AXIS2_PLACEMENT_3D ( 'NONE', #389, #215, #3 ) ;
#91 = DATE_AND_TIME ( #192, #273 ) ;
#92 = DIRECTION ( 'NONE',  ( 1.000000000000000000, 1.255964264747573600E-016, -0.0000000000000000000 ) ) ;
#93 = CONICAL_SURFACE ( 'NONE', #398, 4.762500000000001100, 0.7853981633974337400 ) ;
#94 = CALENDAR_DATE ( 2023, 13, 6 ) ;
#95 = CC_DESIGN_PERSON_AND_ORGANIZATION_ASSIGNMENT ( #29, #391, ( #30 ) ) ;
#96 = EDGE_CURVE ( 'NONE', #77, #38, #9, .T. ) ;
#97 = ORIENTED_EDGE ( 'NONE', *, *, #199, .F. ) ;
#98 =( LENGTH_UNIT ( ) NAMED_UNIT ( * ) SI_UNIT ( .MILLI., .METRE. ) );
#99 = CARTESIAN_POINT ( 'NONE',  ( 1.000000000000000000, 0.0000000000000000000, 0.0000000000000000000 ) ) ;
#100 = EDGE_CURVE ( 'NONE', #47, #287, #345, .T. ) ;
#101 = PERSON_AND_ORGANIZATION_ROLE ( 'design_owner' ) ;
#102 = CIRCLE ( 'NONE', #180, 4.762500000000001100 ) ;
#103 = EDGE_LOOP ( 'NONE', ( #27, #97 ) ) ;
#104 = CARTESIAN_POINT ( 'NONE',  ( 20.05000000000000400, 0.0000000000000000000, 3.968750000000003600 ) ) ;
#105 = ORIENTED_EDGE ( 'NONE', *, *, #245, .T. ) ;
#106 = DATE_TIME_ROLE ( 'classification_date' ) ;
#107 = PERSON_AND_ORGANIZATION ( #401, #383 ) ;
#108 = AXIS2_PLACEMENT_3D ( 'NONE', #99, #66, #314 ) ;
#109 = FACE_OUTER_BOUND ( 'NONE', #6, .T. ) ;
#110 = DATE_AND_TIME ( #210, #286 ) ;
#111 = CARTESIAN_POINT ( 'NONE',  ( -6.477994857749144000E-017, 3.968750000000000000, 0.0000000000000000000 ) ) ;
#112 = DIRECTION ( 'NONE',  ( -1.000000000000000000, -1.255964264747573600E-016, 0.0000000000000000000 ) ) ;
#113 = ORIENTED_EDGE ( 'NONE', *, *, #283, .F. ) ;
#114 = ADVANCED_FACE ( 'NONE', ( #183 ), #335, .T. ) ;
#115 = CONICAL_SURFACE ( 'NONE', #313, 4.762500000000001100, 0.7853981633974337400 ) ;
#116 = CIRCLE ( 'NONE', #380, 3.968750000000000000 ) ;
#117 = AXIS2_PLACEMENT_3D ( 'NONE', #326, #138, #358 ) ;
#118 = ORIENTED_EDGE ( 'NONE', *, *, #199, .T. ) ;
#119 = APPROVAL_DATE_TIME ( #218, #51 ) ;
#120 = CC_DESIGN_DATE_AND_TIME_ASSIGNMENT ( #110, #216, ( #30 ) ) ;
#121 = ORIENTED_EDGE ( 'NONE', *, *, #73, .F. ) ;
#122 = DIRECTION ( 'NONE',  ( 0.7071067811865579000, -0.7071067811865371400, 8.659560562354807100E-017 ) ) ;
#123 = EDGE_CURVE ( 'NONE', #77, #47, #81, .T. ) ;
#124 = PRODUCT ( '03-2078', '03-2078', '', ( #301 ) ) ;
#125 = CARTESIAN_POINT ( 'NONE',  ( -43.14999999999999100, 4.762499999999995700, 0.0000000000000000000 ) ) ;
#126 = CARTESIAN_POINT ( 'NONE',  ( 0.9999999999999981100, 3.968750000000000000, 0.0000000000000000000 ) ) ;
#127 = DIRECTION ( 'NONE',  ( -1.092739197465705300E-016, 1.000000000000000000, 0.0000000000000000000 ) ) ;
#128 = ORIENTED_EDGE ( 'NONE', *, *, #174, .F. ) ;
#129 = EDGE_CURVE ( 'NONE', #211, #131, #355, .T. ) ;
#130 = CARTESIAN_POINT ( 'NONE',  ( 9.321416865658949000E-016, -3.968750000000000000, 4.860316984116058100E-016 ) ) ;
#131 = VERTEX_POINT ( 'NONE', #240 ) ;
#132 = DIRECTION ( 'NONE',  ( 0.0000000000000000000, 0.0000000000000000000, -1.000000000000000000 ) ) ;
#133 = AXIS2_PLACEMENT_3D ( 'NONE', #197, #402, #232 ) ;
#134 = APPROVAL_PERSON_ORGANIZATION ( #228, #51, #176 ) ;
#135 = CIRCLE ( 'NONE', #334, 4.762500000000001100 ) ;
#136 = CC_DESIGN_DATE_AND_TIME_ASSIGNMENT ( #91, #106, ( #255 ) ) ;
#137 = CARTESIAN_POINT ( 'NONE',  ( 0.0000000000000000000, 0.0000000000000000000, 3.968750000000001800 ) ) ;
#138 = DIRECTION ( 'NONE',  ( 1.000000000000000000, 1.255964264747573600E-016, -0.0000000000000000000 ) ) ;
#139 = EDGE_LOOP ( 'NONE', ( #169, #105, #205, #188 ) ) ;
#140 = CARTESIAN_POINT ( 'NONE',  ( 0.0000000000000000000, 0.0000000000000000000, 0.0000000000000000000 ) ) ;
#141 = APPLICATION_PROTOCOL_DEFINITION ( 'international standard', 'config_control_design', 1994, #328 ) ;
#142 = CARTESIAN_POINT ( 'NONE',  ( -43.45000000000000300, -5.423557072913809100E-015, 0.0000000000000000000 ) ) ;
#143 = APPROVAL_ROLE ( '' ) ;
#144 = VECTOR ( 'NONE', #184, 1000.000000000000000 ) ;
#145 = AXIS2_PLACEMENT_3D ( 'NONE', #382, #28, #264 ) ;
#146 = CARTESIAN_POINT ( 'NONE',  ( -0.7937499999999971800, -6.608450609993969400E-017, 0.0000000000000000000 ) ) ;
#147 = PRODUCT_DEFINITION_FORMATION_WITH_SPECIFIED_SOURCE ( 'ANY', '', #124, .NOT_KNOWN. ) ;
#148 = EDGE_CURVE ( 'NONE', #287, #47, #411, .T. ) ;
#149 = DESIGN_CONTEXT ( 'detailed design', #328, 'design' ) ;
#150 = CARTESIAN_POINT ( 'NONE',  ( 0.9999999999999988900, 3.968750000000000000, 0.0000000000000000000 ) ) ;
#151 = ADVANCED_FACE ( 'NONE', ( #254 ), #60, .T. ) ;
#152 = ORIENTED_EDGE ( 'NONE', *, *, #400, .T. ) ;
#153 = ORIENTED_EDGE ( 'NONE', *, *, #174, .T. ) ;
#154 = EDGE_CURVE ( 'NONE', #77, #226, #247, .T. ) ;
#155 = ORIENTED_EDGE ( 'NONE', *, *, #129, .T. ) ;
#156 = CIRCLE ( 'NONE', #238, 4.462500000000001200 ) ;
#157 = MANIFOLD_SOLID_BREP ( 'È¸Àü3', #191 ) ;
#158 = APPROVAL ( #330, 'UNSPECIFIED' ) ;
#159 = DIRECTION ( 'NONE',  ( 0.0000000000000000000, 0.0000000000000000000, 1.000000000000000000 ) ) ;
#160 = EDGE_LOOP ( 'NONE', ( #369, #317, #79, #297 ) ) ;
#161 = DIRECTION ( 'NONE',  ( 1.000000000000000000, 1.255964264747573600E-016, -0.0000000000000000000 ) ) ;
#162 = CARTESIAN_POINT ( 'NONE',  ( 20.05000000000000400, 4.860316984116062000E-016, -3.968750000000003600 ) ) ;
#163 = CARTESIAN_POINT ( 'NONE',  ( 9.321416865658949000E-016, -3.968750000000000000, 0.0000000000000000000 ) ) ;
#164 = AXIS2_PLACEMENT_3D ( 'NONE', #268, #64, #300 ) ;
#165 = VECTOR ( 'NONE', #213, 1000.000000000000000 ) ;
#166 = APPROVAL ( #4, 'UNSPECIFIED' ) ;
#167 = EDGE_CURVE ( 'NONE', #226, #287, #397, .T. ) ;
#168 = DIRECTION ( 'NONE',  ( -1.092739197465705300E-016, 1.000000000000000000, 0.0000000000000000000 ) ) ;
#169 = ORIENTED_EDGE ( 'NONE', *, *, #400, .F. ) ;
#170 = CARTESIAN_POINT ( 'NONE',  ( 0.9999999999999974500, 3.968750000000000000, 0.0000000000000000000 ) ) ;
#171 =( NAMED_UNIT ( * ) PLANE_ANGLE_UNIT ( ) SI_UNIT ( $, .RADIAN. ) );
#172 = DIRECTION ( 'NONE',  ( -1.092739197465705300E-016, 1.000000000000000000, 0.0000000000000000000 ) ) ;
#173 = CARTESIAN_POINT ( 'NONE',  ( -43.45000000000000300, -5.423557072913809100E-015, 0.0000000000000000000 ) ) ;
#174 = EDGE_CURVE ( 'NONE', #131, #324, #322, .T. ) ;
#175 = VECTOR ( 'NONE', #291, 1000.000000000000000 ) ;
#176 = APPROVAL_ROLE ( '' ) ;
#177 = DIRECTION ( 'NONE',  ( 0.0000000000000000000, 1.000000000000000000, 0.0000000000000000000 ) ) ;
#178 = CYLINDRICAL_SURFACE ( 'NONE', #248, 3.968750000000001800 ) ;
#179 = ORIENTED_EDGE ( 'NONE', *, *, #73, .T. ) ;
#180 = AXIS2_PLACEMENT_3D ( 'NONE', #349, #161, #379 ) ;
#181 = LOCAL_TIME ( 13, 53, 58.00000000000000000, #265 ) ;
#182 = DIRECTION ( 'NONE',  ( -1.365923996832131600E-016, 1.000000000000000000, 0.0000000000000000000 ) ) ;
#183 = FACE_OUTER_BOUND ( 'NONE', #139, .T. ) ;
#184 = DIRECTION ( 'NONE',  ( -1.000000000000000000, -0.0000000000000000000, -0.0000000000000000000 ) ) ;
#185 = CC_DESIGN_APPROVAL ( #158, ( #255 ) ) ;
#186 = CARTESIAN_POINT ( 'NONE',  ( 4.336808689942017700E-016, 3.360765741439865900E-017, 0.0000000000000000000 ) ) ;
#187 = ADVANCED_FACE ( 'NONE', ( #312 ), #1, .T. ) ;
#188 = ORIENTED_EDGE ( 'NONE', *, *, #203, .F. ) ;
#189 = CONICAL_SURFACE ( 'NONE', #39, 3.968750000000000000, 0.7853981633974499400 ) ;
#190 = ORIENTED_EDGE ( 'NONE', *, *, #340, .T. ) ;
#191 = CLOSED_SHELL ( 'NONE', ( #337, #251, #75, #310 ) ) ;
#192 = CALENDAR_DATE ( 2023, 13, 6 ) ;
#193 = AXIS2_PLACEMENT_3D ( 'NONE', #267, #62, #168 ) ;
#194 = LINE ( 'NONE', #320, #275 ) ;
#195 = LOCAL_TIME ( 13, 53, 58.00000000000000000, #276 ) ;
#196 = CC_DESIGN_APPROVAL ( #166, ( #147 ) ) ;
#197 = CARTESIAN_POINT ( 'NONE',  ( 20.05000000000000400, 0.0000000000000000000, 0.0000000000000000000 ) ) ;
#198 = ORIENTED_EDGE ( 'NONE', *, *, #368, .T. ) ;
#199 = EDGE_CURVE ( 'NONE', #257, #22, #156, .T. ) ;
#200 = PLANE ( 'NONE',  #306 ) ;
#201 = DIRECTION ( 'NONE',  ( 1.000000000000000000, 1.255964264747573600E-016, -0.0000000000000000000 ) ) ;
#202 = CARTESIAN_POINT ( 'NONE',  ( -43.45000000000000300, 4.462499999999995900, 0.0000000000000000000 ) ) ;
#203 = EDGE_CURVE ( 'NONE', #38, #263, #50, .T. ) ;
#204 = CIRCLE ( 'NONE', #133, 3.968750000000003600 ) ;
#205 = ORIENTED_EDGE ( 'NONE', *, *, #33, .T. ) ;
#206 = DIRECTION ( 'NONE',  ( -0.7071067811865464600, 0.7071067811865486800, 8.659560562354948900E-017 ) ) ;
#207 = PERSON_AND_ORGANIZATION ( #401, #383 ) ;
#208 = AXIS2_PLACEMENT_3D ( 'NONE', #376, #23, #256 ) ;
#209 = CYLINDRICAL_SURFACE ( 'NONE', #7, 3.968750000000000000 ) ;
#210 = CALENDAR_DATE ( 2023, 13, 6 ) ;
#211 = VERTEX_POINT ( 'NONE', #104 ) ;
#212 = CC_DESIGN_SECURITY_CLASSIFICATION ( #255, ( #147 ) ) ;
#213 = DIRECTION ( 'NONE',  ( -1.000000000000000000, -0.0000000000000000000, -0.0000000000000000000 ) ) ;
#214 = LINE ( 'NONE', #405, #285 ) ;
#215 = DIRECTION ( 'NONE',  ( -1.000000000000000000, -0.0000000000000000000, -0.0000000000000000000 ) ) ;
#216 = DATE_TIME_ROLE ( 'creation_date' ) ;
#217 = EDGE_LOOP ( 'NONE', ( #190, #83, #378, #390 ) ) ;
#218 = DATE_AND_TIME ( #294, #373 ) ;
#219 = DIRECTION ( 'NONE',  ( 1.255964264747573300E-016, -1.000000000000000000, 0.0000000000000000000 ) ) ;
#220 = CARTESIAN_POINT ( 'NONE',  ( -43.14999999999999100, -4.762500000000005500, 5.832380380939274100E-016 ) ) ;
#221 = CC_DESIGN_PERSON_AND_ORGANIZATION_ASSIGNMENT ( #207, #37, ( #147 ) ) ;
#222 = EDGE_LOOP ( 'NONE', ( #14, #387, #155, #113 ) ) ;
#223 = DIRECTION ( 'NONE',  ( 1.255964264747573300E-016, -1.000000000000000000, 0.0000000000000000000 ) ) ;
#224 = ADVANCED_FACE ( 'NONE', ( #237 ), #374, .T. ) ;
#225 = ADVANCED_FACE ( 'NONE', ( #305 ), #115, .T. ) ;
#226 = VERTEX_POINT ( 'NONE', #111 ) ;
#227 = EDGE_CURVE ( 'NONE', #17, #324, #295, .T. ) ;
#228 = PERSON_AND_ORGANIZATION ( #401, #383 ) ;
#229 = DATE_AND_TIME ( #94, #195 ) ;
#230 = AXIS2_PLACEMENT_3D ( 'NONE', #55, #288, #84 ) ;
#231 = PRODUCT_RELATED_PRODUCT_CATEGORY ( 'detail', '', ( #124 ) ) ;
#232 = DIRECTION ( 'NONE',  ( 0.0000000000000000000, 0.0000000000000000000, 1.000000000000000000 ) ) ;
#233 = EDGE_LOOP ( 'NONE', ( #153, #272 ) ) ;
#234 = CARTESIAN_POINT ( 'NONE',  ( 0.9999999999999978900, 1.592040838891556900E-016, 0.0000000000000000000 ) ) ;
#235 = DIRECTION ( 'NONE',  ( 0.0000000000000000000, 1.000000000000000000, 0.0000000000000000000 ) ) ;
#236 = CARTESIAN_POINT ( 'NONE',  ( 4.336808689942017700E-016, 3.360765741439865900E-017, 0.0000000000000000000 ) ) ;
#237 = FACE_OUTER_BOUND ( 'NONE', #57, .T. ) ;
#238 = AXIS2_PLACEMENT_3D ( 'NONE', #142, #363, #177 ) ;
#239 = CC_DESIGN_PERSON_AND_ORGANIZATION_ASSIGNMENT ( #107, #271, ( #147 ) ) ;
#240 = CARTESIAN_POINT ( 'NONE',  ( 1.000000000000000000, 0.0000000000000000000, 3.968750000000000000 ) ) ;
#241 = ORIENTED_EDGE ( 'NONE', *, *, #245, .F. ) ;
#242 = DIRECTION ( 'NONE',  ( 1.000000000000000000, 1.255964264747573600E-016, -0.0000000000000000000 ) ) ;
#243 = VERTEX_POINT ( 'NONE', #220 ) ;
#244 = DIRECTION ( 'NONE',  ( -1.000000000000000000, -1.255964264747573600E-016, 0.0000000000000000000 ) ) ;
#245 = EDGE_CURVE ( 'NONE', #243, #327, #135, .T. ) ;
#246 = APPROVAL_ROLE ( '' ) ;
#247 = CIRCLE ( 'NONE', #164, 3.968750000000000000 ) ;
#248 = AXIS2_PLACEMENT_3D ( 'NONE', #338, #315, #159 ) ;
#249 = DIRECTION ( 'NONE',  ( 1.000000000000000000, 1.255964264747573600E-016, -0.0000000000000000000 ) ) ;
#250 = DIRECTION ( 'NONE',  ( -1.000000000000000000, -0.0000000000000000000, -0.0000000000000000000 ) ) ;
#251 = ADVANCED_FACE ( 'NONE', ( #41 ), #282, .T. ) ;
#252 = EDGE_LOOP ( 'NONE', ( #353, #360, #413, #298 ) ) ;
#253 = AXIS2_PLACEMENT_3D ( 'NONE', #173, #244, #36 ) ;
#254 = FACE_OUTER_BOUND ( 'NONE', #252, .T. ) ;
#255 = SECURITY_CLASSIFICATION ( '', '', #67 ) ;
#256 = DIRECTION ( 'NONE',  ( -0.0000000000000000000, 0.0000000000000000000, 1.000000000000000000 ) ) ;
#257 = VERTEX_POINT ( 'NONE', #336 ) ;
#258 = CARTESIAN_POINT ( 'NONE',  ( -43.14999999999999100, 4.762499999999995700, 0.0000000000000000000 ) ) ;
#259 = DIRECTION ( 'NONE',  ( 1.000000000000000000, 1.255964264747573600E-016, -0.0000000000000000000 ) ) ;
#260 = EDGE_CURVE ( 'NONE', #211, #17, #384, .T. ) ;
#261 = CIRCLE ( 'NONE', #230, 4.462500000000001200 ) ;
#262 = DIRECTION ( 'NONE',  ( -1.255964264747573600E-016, 1.000000000000000000, 0.0000000000000000000 ) ) ;
#263 = VERTEX_POINT ( 'NONE', #394 ) ;
#264 = DIRECTION ( 'NONE',  ( -1.365923996832131400E-016, 1.000000000000000000, 0.0000000000000000000 ) ) ;
#265 = COORDINATED_UNIVERSAL_TIME_OFFSET ( 9, 0, .AHEAD. ) ;
#266 = VECTOR ( 'NONE', #386, 1000.000000000000000 ) ;
#267 = CARTESIAN_POINT ( 'NONE',  ( 0.9999999999999978900, 1.592040838891556900E-016, 0.0000000000000000000 ) ) ;
#268 = CARTESIAN_POINT ( 'NONE',  ( 4.336808689942017700E-016, 3.360765741439865900E-017, 0.0000000000000000000 ) ) ;
#269 = DIRECTION ( 'NONE',  ( 0.0000000000000000000, 0.0000000000000000000, 1.000000000000000000 ) ) ;
#270 = CIRCLE ( 'NONE', #108, 3.968750000000000000 ) ;
#271 = PERSON_AND_ORGANIZATION_ROLE ( 'design_supplier' ) ;
#272 = ORIENTED_EDGE ( 'NONE', *, *, #283, .T. ) ;
#273 = LOCAL_TIME ( 13, 53, 58.00000000000000000, #354 ) ;
#274 = AXIS2_PLACEMENT_3D ( 'NONE', #146, #366, #182 ) ;
#275 = VECTOR ( 'NONE', #206, 999.9999999999998900 ) ;
#276 = COORDINATED_UNIVERSAL_TIME_OFFSET ( 9, 0, .AHEAD. ) ;
#277 = CARTESIAN_POINT ( 'NONE',  ( -43.14999999999999100, -5.385878144971380300E-015, 0.0000000000000000000 ) ) ;
#278 = CARTESIAN_POINT ( 'NONE',  ( -43.14999999999999100, -5.385878144971380300E-015, 0.0000000000000000000 ) ) ;
#279 = CC_DESIGN_PERSON_AND_ORGANIZATION_ASSIGNMENT ( #19, #303, ( #255 ) ) ;
#280 = ORIENTED_EDGE ( 'NONE', *, *, #385, .T. ) ;
#281 = ADVANCED_FACE ( 'NONE', ( #359 ), #189, .T. ) ;
#282 = CYLINDRICAL_SURFACE ( 'NONE', #78, 3.968750000000001800 ) ;
#283 = EDGE_CURVE ( 'NONE', #324, #131, #270, .T. ) ;
#284 = APPROVAL_DATE_TIME ( #229, #166 ) ;
#285 = VECTOR ( 'NONE', #259, 1000.000000000000000 ) ;
#286 = LOCAL_TIME ( 13, 53, 58.00000000000000000, #365 ) ;
#287 = VERTEX_POINT ( 'NONE', #150 ) ;
#288 = DIRECTION ( 'NONE',  ( 1.000000000000000000, 1.255964264747573600E-016, -0.0000000000000000000 ) ) ;
#289 = DIRECTION ( 'NONE',  ( 1.000000000000000000, 1.255964264747573600E-016, -0.0000000000000000000 ) ) ;
#290 = CIRCLE ( 'NONE', #364, 4.762500000000000200 ) ;
#291 = DIRECTION ( 'NONE',  ( 1.000000000000000000, 1.255964264747573600E-016, -0.0000000000000000000 ) ) ;
#292 = CARTESIAN_POINT ( 'NONE',  ( 1.000000000000000900, 3.824587191129974400E-016, 0.0000000000000000000 ) ) ;
#293 = CARTESIAN_POINT ( 'NONE',  ( 0.9999999999999993300, 1.592040838891558800E-016, 0.0000000000000000000 ) ) ;
#294 = CALENDAR_DATE ( 2023, 13, 6 ) ;
#295 = LINE ( 'NONE', #42, #144 ) ;
#296 = AXIS2_PLACEMENT_3D ( 'NONE', #333, #393, #219 ) ;
#297 = ORIENTED_EDGE ( 'NONE', *, *, #100, .F. ) ;
#298 = ORIENTED_EDGE ( 'NONE', *, *, #167, .F. ) ;
#299 = CARTESIAN_POINT ( 'NONE',  ( 0.9999999999999978900, 1.592040838891556900E-016, 0.0000000000000000000 ) ) ;
#300 = DIRECTION ( 'NONE',  ( -1.255964264747573600E-016, 1.000000000000000000, 0.0000000000000000000 ) ) ;
#301 = MECHANICAL_CONTEXT ( 'NONE', #35, 'mechanical' ) ;
#302 = EDGE_CURVE ( 'NONE', #17, #211, #204, .T. ) ;
#303 = PERSON_AND_ORGANIZATION_ROLE ( 'classification_officer' ) ;
#304 = PERSON_AND_ORGANIZATION ( #401, #383 ) ;
#305 = FACE_OUTER_BOUND ( 'NONE', #217, .T. ) ;
#306 = AXIS2_PLACEMENT_3D ( 'NONE', #126, #201, #404 ) ;
#307 = ORIENTED_EDGE ( 'NONE', *, *, #203, .T. ) ;
#308 = DIRECTION ( 'NONE',  ( -1.000000000000000000, -0.0000000000000000000, -0.0000000000000000000 ) ) ;
#309 = DIRECTION ( 'NONE',  ( 0.0000000000000000000, 1.000000000000000000, 0.0000000000000000000 ) ) ;
#310 = ADVANCED_FACE ( 'NONE', ( #351 ), #347, .F. ) ;
#311 = EDGE_LOOP ( 'NONE', ( #339, #18, #128, #381 ) ) ;
#312 = FACE_OUTER_BOUND ( 'NONE', #103, .T. ) ;
#313 = AXIS2_PLACEMENT_3D ( 'NONE', #277, #249, #69 ) ;
#314 = DIRECTION ( 'NONE',  ( 0.0000000000000000000, 0.0000000000000000000, 1.000000000000000000 ) ) ;
#315 = DIRECTION ( 'NONE',  ( -1.000000000000000000, -0.0000000000000000000, -0.0000000000000000000 ) ) ;
#316 = DIRECTION ( 'NONE',  ( 0.7071067811865577900, 0.7071067811865373600, 0.0000000000000000000 ) ) ;
#317 = ORIENTED_EDGE ( 'NONE', *, *, #154, .T. ) ;
#318 = DIRECTION ( 'NONE',  ( 1.000000000000000000, 1.255964264747573600E-016, -0.0000000000000000000 ) ) ;
#319 = CARTESIAN_POINT ( 'NONE',  ( 0.9999999999999985600, -4.762500000000001100, 5.832380380939271100E-016 ) ) ;
#320 = CARTESIAN_POINT ( 'NONE',  ( -6.477994857749144000E-017, 3.968750000000000000, 4.860316984116058100E-016 ) ) ;
#321 = EDGE_CURVE ( 'NONE', #257, #243, #24, .T. ) ;
#322 = CIRCLE ( 'NONE', #90, 3.968750000000000000 ) ;
#323 = DIRECTION ( 'NONE',  ( 1.000000000000000000, 0.0000000000000000000, 0.0000000000000000000 ) ) ;
#324 = VERTEX_POINT ( 'NONE', #82 ) ;
#325 =( GEOMETRIC_REPRESENTATION_CONTEXT ( 3 ) GLOBAL_UNCERTAINTY_ASSIGNED_CONTEXT ( ( #71 ) ) GLOBAL_UNIT_ASSIGNED_CONTEXT ( ( #98, #171, #388 ) ) REPRESENTATION_CONTEXT ( 'NONE', 'WORKASPACE' ) );
#326 = CARTESIAN_POINT ( 'NONE',  ( 0.9999999999999993300, 1.592040838891558800E-016, 0.0000000000000000000 ) ) ;
#327 = VERTEX_POINT ( 'NONE', #125 ) ;
#328 = APPLICATION_CONTEXT ( 'configuration controlled 3d designs of mechanical parts and assemblies' ) ;
#329 = CYLINDRICAL_SURFACE ( 'NONE', #344, 4.762500000000001100 ) ;
#330 = APPROVAL_STATUS ( 'not_yet_approved' ) ;
#331 = ORIENTED_EDGE ( 'NONE', *, *, #12, .F. ) ;
#332 = APPROVAL_DATE_TIME ( #410, #158 ) ;
#333 = CARTESIAN_POINT ( 'NONE',  ( 4.336808689942017700E-016, 3.360765741439865900E-017, 0.0000000000000000000 ) ) ;
#334 = AXIS2_PLACEMENT_3D ( 'NONE', #278, #72, #309 ) ;
#335 = CYLINDRICAL_SURFACE ( 'NONE', #145, 4.762500000000001100 ) ;
#336 = CARTESIAN_POINT ( 'NONE',  ( -43.45000000000000300, -4.462500000000006600, 5.648683361067169800E-016 ) ) ;
#337 = ADVANCED_FACE ( 'NONE', ( #5 ), #178, .T. ) ;
#338 = CARTESIAN_POINT ( 'NONE',  ( 0.0000000000000000000, 0.0000000000000000000, 0.0000000000000000000 ) ) ;
#339 = ORIENTED_EDGE ( 'NONE', *, *, #260, .T. ) ;
#340 = EDGE_CURVE ( 'NONE', #22, #257, #261, .T. ) ;
#341 = LINE ( 'NONE', #258, #76 ) ;
#342 = ORIENTED_EDGE ( 'NONE', *, *, #96, .T. ) ;
#343 = APPROVAL_PERSON_ORGANIZATION ( #8, #158, #143 ) ;
#344 = AXIS2_PLACEMENT_3D ( 'NONE', #234, #86, #58 ) ;
#345 = CIRCLE ( 'NONE', #48, 3.968750000000000000 ) ;
#346 = ADVANCED_BREP_SHAPE_REPRESENTATION ( '03-2078', ( #157, #412, #399 ), #325 ) ;
#347 = PLANE ( 'NONE',  #208 ) ;
#348 = EDGE_LOOP ( 'NONE', ( #396, #179, #375, #403 ) ) ;
#349 = CARTESIAN_POINT ( 'NONE',  ( -43.14999999999999100, -5.385878144971380300E-015, 0.0000000000000000000 ) ) ;
#350 = CARTESIAN_POINT ( 'NONE',  ( -43.14999999999999100, -5.385878144971380300E-015, 0.0000000000000000000 ) ) ;
#351 = FACE_OUTER_BOUND ( 'NONE', #357, .T. ) ;
#352 = CARTESIAN_POINT ( 'NONE',  ( 0.9999999999999997800, -3.968750000000000000, 4.860316984116058100E-016 ) ) ;
#353 = ORIENTED_EDGE ( 'NONE', *, *, #52, .T. ) ;
#354 = COORDINATED_UNIVERSAL_TIME_OFFSET ( 9, 0, .AHEAD. ) ;
#355 = LINE ( 'NONE', #137, #165 ) ;
#356 = APPROVAL_PERSON_ORGANIZATION ( #21, #166, #246 ) ;
#357 = EDGE_LOOP ( 'NONE', ( #43, #74 ) ) ;
#358 = DIRECTION ( 'NONE',  ( -1.092739197465705300E-016, 1.000000000000000000, 0.0000000000000000000 ) ) ;
#359 = FACE_OUTER_BOUND ( 'NONE', #348, .T. ) ;
#360 = ORIENTED_EDGE ( 'NONE', *, *, #123, .T. ) ;
#361 = APPROVAL_STATUS ( 'not_yet_approved' ) ;
#362 = CLOSED_SHELL ( 'NONE', ( #225, #395, #281, #151, #187, #370, #15, #224, #114, #45 ) ) ;
#363 = DIRECTION ( 'NONE',  ( 1.000000000000000000, 1.255964264747573600E-016, -0.0000000000000000000 ) ) ;
#364 = AXIS2_PLACEMENT_3D ( 'NONE', #56, #289, #85 ) ;
#365 = COORDINATED_UNIVERSAL_TIME_OFFSET ( 9, 0, .AHEAD. ) ;
#366 = DIRECTION ( 'NONE',  ( 1.000000000000000000, 1.255964264747573600E-016, -0.0000000000000000000 ) ) ;
#367 = DIRECTION ( 'NONE',  ( 0.0000000000000000000, 0.0000000000000000000, 1.000000000000000000 ) ) ;
#368 = EDGE_CURVE ( 'NONE', #327, #243, #102, .T. ) ;
#369 = ORIENTED_EDGE ( 'NONE', *, *, #123, .F. ) ;
#370 = ADVANCED_FACE ( 'NONE', ( #88 ), #200, .T. ) ;
#371 = FACE_OUTER_BOUND ( 'NONE', #160, .T. ) ;
#372 = ORIENTED_EDGE ( 'NONE', *, *, #100, .T. ) ;
#373 = LOCAL_TIME ( 13, 53, 58.00000000000000000, #40 ) ;
#374 = CONICAL_SURFACE ( 'NONE', #296, 3.968750000000000000, 0.7853981633974499400 ) ;
#375 = ORIENTED_EDGE ( 'NONE', *, *, #12, .T. ) ;
#376 = CARTESIAN_POINT ( 'NONE',  ( 20.05000000000000400, -1.752753672734991200E-014, 0.0000000000000000000 ) ) ;
#377 = PRODUCT_DEFINITION_SHAPE ( 'NONE', 'NONE',  #30 ) ;
#378 = ORIENTED_EDGE ( 'NONE', *, *, #368, .F. ) ;
#379 = DIRECTION ( 'NONE',  ( 0.0000000000000000000, 1.000000000000000000, 0.0000000000000000000 ) ) ;
#380 = AXIS2_PLACEMENT_3D ( 'NONE', #236, #26, #262 ) ;
#381 = ORIENTED_EDGE ( 'NONE', *, *, #129, .F. ) ;
#382 = CARTESIAN_POINT ( 'NONE',  ( 0.9999999999999978900, 1.592040838891556900E-016, 0.0000000000000000000 ) ) ;
#383 = ORGANIZATION ( 'UNSPECIFIED', 'UNSPECIFIED', '' ) ;
#384 = CIRCLE ( 'NONE', #61, 3.968750000000003600 ) ;
#385 = EDGE_CURVE ( 'NONE', #22, #327, #341, .T. ) ;
#386 = DIRECTION ( 'NONE',  ( 1.000000000000000000, 1.255964264747573600E-016, -0.0000000000000000000 ) ) ;
#387 = ORIENTED_EDGE ( 'NONE', *, *, #302, .T. ) ;
#388 =( NAMED_UNIT ( * ) SI_UNIT ( $, .STERADIAN. ) SOLID_ANGLE_UNIT ( ) );
#389 = CARTESIAN_POINT ( 'NONE',  ( 1.000000000000000000, 0.0000000000000000000, 0.0000000000000000000 ) ) ;
#390 = ORIENTED_EDGE ( 'NONE', *, *, #385, .F. ) ;
#391 = PERSON_AND_ORGANIZATION_ROLE ( 'creator' ) ;
#392 = VECTOR ( 'NONE', #242, 1000.000000000000000 ) ;
#393 = DIRECTION ( 'NONE',  ( -1.000000000000000000, -1.255964264747573600E-016, 0.0000000000000000000 ) ) ;
#394 = CARTESIAN_POINT ( 'NONE',  ( -0.7937499999999978500, 4.762500000000000200, 5.832380380939269100E-016 ) ) ;
#395 = ADVANCED_FACE ( 'NONE', ( #407 ), #329, .T. ) ;
#396 = ORIENTED_EDGE ( 'NONE', *, *, #52, .F. ) ;
#397 = LINE ( 'NONE', #170, #392 ) ;
#398 = AXIS2_PLACEMENT_3D ( 'NONE', #350, #87, #235 ) ;
#399 = AXIS2_PLACEMENT_3D ( 'NONE', #140, #269, #65 ) ;
#400 = EDGE_CURVE ( 'NONE', #243, #38, #406, .T. ) ;
#401 = PERSON ( 'UNSPECIFIED', 'UNSPECIFIED', 'UNSPECIFIED', ('UNSPECIFIED'), ('UNSPECIFIED'), ('UNSPECIFIED') ) ;
#402 = DIRECTION ( 'NONE',  ( -1.000000000000000000, -0.0000000000000000000, -0.0000000000000000000 ) ) ;
#403 = ORIENTED_EDGE ( 'NONE', *, *, #96, .F. ) ;
#404 = DIRECTION ( 'NONE',  ( -1.255964264747573600E-016, 1.000000000000000000, 0.0000000000000000000 ) ) ;
#405 = CARTESIAN_POINT ( 'NONE',  ( 0.9999999999999972200, 4.762500000000001100, 0.0000000000000000000 ) ) ;
#406 = LINE ( 'NONE', #319, #175 ) ;
#407 = FACE_OUTER_BOUND ( 'NONE', #89, .T. ) ;
#408 = DIRECTION ( 'NONE',  ( -0.7071067811865462400, -0.7071067811865489100, 0.0000000000000000000 ) ) ;
#409 = EDGE_LOOP ( 'NONE', ( #54, #372 ) ) ;
#410 = DATE_AND_TIME ( #80, #181 ) ;
#411 = CIRCLE ( 'NONE', #117, 3.968750000000000000 ) ;
#412 = MANIFOLD_SOLID_BREP ( 'È¸Àü4', #362 ) ;
#413 = ORIENTED_EDGE ( 'NONE', *, *, #148, .F. ) ;
ENDSEC;
END-ISO-10303-21;
