ISO-10303-21;
HEADER;
FILE_DESCRIPTION (( 'STEP AP203' ),
    '1' );
FILE_NAME ('03-2079.STEP',
    '2023-06-13T04:54:11',
    ( 'USER' ),
    ( 'Hewlett-Packard Company' ),
    'SwSTEP 2.0',
    'SolidWorks 2014',
    '' );
FILE_SCHEMA (( 'CONFIG_CONTROL_DESIGN' ));
ENDSEC;

DATA;
#1 = APPROVAL_ROLE ( '' ) ;
#2 = CC_DESIGN_PERSON_AND_ORGANIZATION_ASSIGNMENT ( #113, #123, ( #295 ) ) ;
#3 = DIRECTION ( 'NONE',  ( 0.7071067811865577900, 0.7071067811865373600, 0.0000000000000000000 ) ) ;
#4 = LINE ( 'NONE', #211, #181 ) ;
#5 = ORIENTED_EDGE ( 'NONE', *, *, #134, .F. ) ;
#6 = CARTESIAN_POINT ( 'NONE',  ( -43.14999999999999100, -5.385878144971380300E-015, 0.0000000000000000000 ) ) ;
#7 = EDGE_CURVE ( 'NONE', #203, #171, #192, .T. ) ;
#8 = CIRCLE ( 'NONE', #58, 4.762500000000001100 ) ;
#9 = EDGE_CURVE ( 'NONE', #108, #27, #8, .T. ) ;
#10 = VERTEX_POINT ( 'NONE', #57 ) ;
#11 = ADVANCED_FACE ( 'NONE', ( #133 ), #156, .F. ) ;
#12 = CC_DESIGN_DATE_AND_TIME_ASSIGNMENT ( #170, #287, ( #295 ) ) ;
#13 = ORIENTED_EDGE ( 'NONE', *, *, #300, .F. ) ;
#14 = CYLINDRICAL_SURFACE ( 'NONE', #52, 4.762500000000002000 ) ;
#15 = AXIS2_PLACEMENT_3D ( 'NONE', #140, #309, #162 ) ;
#16 = EDGE_CURVE ( 'NONE', #171, #203, #254, .T. ) ;
#17 = EDGE_LOOP ( 'NONE', ( #64, #51, #208, #184 ) ) ;
#18 =( NAMED_UNIT ( * ) PLANE_ANGLE_UNIT ( ) SI_UNIT ( $, .RADIAN. ) );
#19 = APPROVAL_ROLE ( '' ) ;
#20 = CARTESIAN_POINT ( 'NONE',  ( 1.000000000000000000, 0.0000000000000000000, 0.0000000000000000000 ) ) ;
#21 = CARTESIAN_POINT ( 'NONE',  ( -43.45000000000000300, -5.423557072913809100E-015, 0.0000000000000000000 ) ) ;
#22 = EDGE_CURVE ( 'NONE', #203, #252, #4, .T. ) ;
#23 = CARTESIAN_POINT ( 'NONE',  ( -43.14999999999999100, -4.762500000000006400, 5.832380380939274100E-016 ) ) ;
#24 = CYLINDRICAL_SURFACE ( 'NONE', #117, 4.762500000000000200 ) ;
#25 = EDGE_LOOP ( 'NONE', ( #201, #222, #292, #271 ) ) ;
#26 = APPROVAL ( #145, 'UNSPECIFIED' ) ;
#27 = VERTEX_POINT ( 'NONE', #221 ) ;
#28 = VECTOR ( 'NONE', #98, 1000.000000000000000 ) ;
#29 = AXIS2_PLACEMENT_3D ( 'NONE', #247, #270, #293 ) ;
#30 = APPROVAL_DATE_TIME ( #99, #26 ) ;
#31 = EDGE_LOOP ( 'NONE', ( #148, #258 ) ) ;
#32 = EDGE_CURVE ( 'NONE', #10, #252, #56, .T. ) ;
#33 = COORDINATED_UNIVERSAL_TIME_OFFSET ( 9, 0, .AHEAD. ) ;
#34 = AXIS2_PLACEMENT_3D ( 'NONE', #273, #80, #78 ) ;
#35 = FACE_OUTER_BOUND ( 'NONE', #233, .T. ) ;
#36 = APPROVAL_PERSON_ORGANIZATION ( #107, #26, #1 ) ;
#37 = PLANE ( 'NONE',  #67 ) ;
#38 = ORIENTED_EDGE ( 'NONE', *, *, #7, .T. ) ;
#39 = DIRECTION ( 'NONE',  ( -1.365923996832131600E-016, 1.000000000000000000, 0.0000000000000000000 ) ) ;
#40 = LOCAL_TIME ( 13, 54, 11.00000000000000000, #110 ) ;
#41 = DATE_TIME_ROLE ( 'creation_date' ) ;
#42 = CARTESIAN_POINT ( 'NONE',  ( 0.9999999999999981100, 4.762500000000000200, 0.0000000000000000000 ) ) ;
#43 = PRODUCT_DEFINITION_SHAPE ( 'NONE', 'NONE',  #136 ) ;
#44 = DIRECTION ( 'NONE',  ( 0.0000000000000000000, 0.0000000000000000000, 1.000000000000000000 ) ) ;
#45 = CC_DESIGN_APPROVAL ( #26, ( #295 ) ) ;
#46 = DIRECTION ( 'NONE',  ( 0.0000000000000000000, 1.000000000000000000, 0.0000000000000000000 ) ) ;
#47 = CIRCLE ( 'NONE', #202, 4.762500000000000200 ) ;
#48 = PLANE ( 'NONE',  #253 ) ;
#49 = COORDINATED_UNIVERSAL_TIME_OFFSET ( 9, 0, .AHEAD. ) ;
#50 = CARTESIAN_POINT ( 'NONE',  ( 0.9999999999999995600, 1.592040838891559100E-016, 0.0000000000000000000 ) ) ;
#51 = ORIENTED_EDGE ( 'NONE', *, *, #54, .T. ) ;
#52 = AXIS2_PLACEMENT_3D ( 'NONE', #278, #114, #139 ) ;
#53 = DIRECTION ( 'NONE',  ( 1.000000000000000000, 1.255964264747573600E-016, -0.0000000000000000000 ) ) ;
#54 = EDGE_CURVE ( 'NONE', #219, #108, #250, .T. ) ;
#55 = CALENDAR_DATE ( 2023, 13, 6 ) ;
#56 = CIRCLE ( 'NONE', #128, 4.762500000000000200 ) ;
#57 = CARTESIAN_POINT ( 'NONE',  ( 1.000000000000000000, 5.832380380939271100E-016, -4.762500000000000200 ) ) ;
#58 = AXIS2_PLACEMENT_3D ( 'NONE', #237, #91, #260 ) ;
#59 = ORIENTED_EDGE ( 'NONE', *, *, #300, .T. ) ;
#60 = PERSON_AND_ORGANIZATION ( #234, #132 ) ;
#61 = ADVANCED_FACE ( 'NONE', ( #126 ), #240, .T. ) ;
#62 = CIRCLE ( 'NONE', #183, 4.762500000000001100 ) ;
#63 = CC_DESIGN_SECURITY_CLASSIFICATION ( #295, ( #212 ) ) ;
#64 = ORIENTED_EDGE ( 'NONE', *, *, #69, .T. ) ;
#65 = EDGE_LOOP ( 'NONE', ( #245, #89, #5, #129 ) ) ;
#66 = DIRECTION ( 'NONE',  ( -0.0000000000000000000, 0.0000000000000000000, 1.000000000000000000 ) ) ;
#67 = AXIS2_PLACEMENT_3D ( 'NONE', #308, #206, #66 ) ;
#68 =( LENGTH_UNIT ( ) NAMED_UNIT ( * ) SI_UNIT ( .MILLI., .METRE. ) );
#69 = EDGE_CURVE ( 'NONE', #115, #219, #174, .T. ) ;
#70 = APPROVAL_ROLE ( '' ) ;
#71 = CARTESIAN_POINT ( 'NONE',  ( 20.05000000000000100, 0.0000000000000000000, 0.0000000000000000000 ) ) ;
#72 = CARTESIAN_POINT ( 'NONE',  ( 1.000000000000000200, -4.762500000000000200, 5.832380380939270100E-016 ) ) ;
#73 = DIRECTION ( 'NONE',  ( -1.000000000000000000, -1.255964264747573600E-016, 0.0000000000000000000 ) ) ;
#74 = DIRECTION ( 'NONE',  ( -1.365923996832131600E-016, 1.000000000000000000, 0.0000000000000000000 ) ) ;
#75 = CARTESIAN_POINT ( 'NONE',  ( 0.9999999999999988900, 4.762500000000000200, 0.0000000000000000000 ) ) ;
#76 = ORIENTED_EDGE ( 'NONE', *, *, #119, .F. ) ;
#77 = PRODUCT_RELATED_PRODUCT_CATEGORY ( 'detail', '', ( #257 ) ) ;
#78 = DIRECTION ( 'NONE',  ( 0.0000000000000000000, 0.0000000000000000000, 1.000000000000000000 ) ) ;
#79 = LINE ( 'NONE', #116, #207 ) ;
#80 = DIRECTION ( 'NONE',  ( -1.000000000000000000, -0.0000000000000000000, -0.0000000000000000000 ) ) ;
#81 = FACE_OUTER_BOUND ( 'NONE', #176, .T. ) ;
#82 =( GEOMETRIC_REPRESENTATION_CONTEXT ( 3 ) GLOBAL_UNCERTAINTY_ASSIGNED_CONTEXT ( ( #217 ) ) GLOBAL_UNIT_ASSIGNED_CONTEXT ( ( #68, #18, #188 ) ) REPRESENTATION_CONTEXT ( 'NONE', 'WORKASPACE' ) );
#83 = VERTEX_POINT ( 'NONE', #72 ) ;
#84 = EDGE_CURVE ( 'NONE', #27, #108, #62, .T. ) ;
#85 = ADVANCED_FACE ( 'NONE', ( #242 ), #168, .T. ) ;
#86 = AXIS2_PLACEMENT_3D ( 'NONE', #71, #239, #93 ) ;
#87 = FACE_OUTER_BOUND ( 'NONE', #17, .T. ) ;
#88 = DIRECTION ( 'NONE',  ( 1.000000000000000000, 1.255964264747573600E-016, -0.0000000000000000000 ) ) ;
#89 = ORIENTED_EDGE ( 'NONE', *, *, #119, .T. ) ;
#90 = DIRECTION ( 'NONE',  ( 0.0000000000000000000, 0.0000000000000000000, 1.000000000000000000 ) ) ;
#91 = DIRECTION ( 'NONE',  ( 1.000000000000000000, 1.255964264747573600E-016, -0.0000000000000000000 ) ) ;
#92 = PERSON_AND_ORGANIZATION_ROLE ( 'design_supplier' ) ;
#93 = DIRECTION ( 'NONE',  ( 0.0000000000000000000, 0.0000000000000000000, 1.000000000000000000 ) ) ;
#94 = DIRECTION ( 'NONE',  ( 1.000000000000000000, 1.255964264747573600E-016, -0.0000000000000000000 ) ) ;
#95 = CARTESIAN_POINT ( 'NONE',  ( -43.14999999999999100, -5.385878144971380300E-015, 0.0000000000000000000 ) ) ;
#96 = DIRECTION ( 'NONE',  ( 1.000000000000000000, 1.255964264747573600E-016, -0.0000000000000000000 ) ) ;
#97 = CIRCLE ( 'NONE', #15, 4.762500000000000200 ) ;
#98 = DIRECTION ( 'NONE',  ( 1.000000000000000000, 1.255964264747573600E-016, -0.0000000000000000000 ) ) ;
#99 = DATE_AND_TIME ( #160, #224 ) ;
#100 = EDGE_LOOP ( 'NONE', ( #190, #225 ) ) ;
#101 = AXIS2_PLACEMENT_3D ( 'NONE', #283, #141, #310 ) ;
#102 = EDGE_CURVE ( 'NONE', #115, #27, #230, .T. ) ;
#103 = APPROVAL_PERSON_ORGANIZATION ( #165, #229, #70 ) ;
#104 = AXIS2_PLACEMENT_3D ( 'NONE', #118, #90, #259 ) ;
#105 = CIRCLE ( 'NONE', #279, 4.462500000000001200 ) ;
#106 = AXIS2_PLACEMENT_3D ( 'NONE', #285, #144, #313 ) ;
#107 = PERSON_AND_ORGANIZATION ( #234, #132 ) ;
#108 = VERTEX_POINT ( 'NONE', #23 ) ;
#109 = ADVANCED_BREP_SHAPE_REPRESENTATION ( '03-2079', ( #226, #137, #104 ), #82 ) ;
#110 = COORDINATED_UNIVERSAL_TIME_OFFSET ( 9, 0, .AHEAD. ) ;
#111 = ADVANCED_FACE ( 'NONE', ( #35 ), #48, .T. ) ;
#112 = VECTOR ( 'NONE', #3, 999.9999999999998900 ) ;
#113 = PERSON_AND_ORGANIZATION ( #234, #132 ) ;
#114 = DIRECTION ( 'NONE',  ( -1.000000000000000000, -0.0000000000000000000, -0.0000000000000000000 ) ) ;
#115 = VERTEX_POINT ( 'NONE', #147 ) ;
#116 = CARTESIAN_POINT ( 'NONE',  ( 0.0000000000000000000, 5.832380380939272100E-016, -4.762500000000002000 ) ) ;
#117 = AXIS2_PLACEMENT_3D ( 'NONE', #186, #88, #39 ) ;
#118 = CARTESIAN_POINT ( 'NONE',  ( 0.0000000000000000000, 0.0000000000000000000, 0.0000000000000000000 ) ) ;
#119 = EDGE_CURVE ( 'NONE', #108, #83, #296, .T. ) ;
#120 = LOCAL_TIME ( 13, 54, 11.00000000000000000, #177 ) ;
#121 = MECHANICAL_CONTEXT ( 'NONE', #235, 'mechanical' ) ;
#122 = DIRECTION ( 'NONE',  ( -1.000000000000000000, -0.0000000000000000000, -0.0000000000000000000 ) ) ;
#123 = PERSON_AND_ORGANIZATION_ROLE ( 'classification_officer' ) ;
#124 = CC_DESIGN_PERSON_AND_ORGANIZATION_ASSIGNMENT ( #60, #284, ( #257 ) ) ;
#125 = CARTESIAN_POINT ( 'NONE',  ( -43.14999999999999100, -4.762500000000006400, 5.832380380939271100E-016 ) ) ;
#126 = FACE_OUTER_BOUND ( 'NONE', #307, .T. ) ;
#127 = DIRECTION ( 'NONE',  ( 0.0000000000000000000, 1.000000000000000000, 0.0000000000000000000 ) ) ;
#128 = AXIS2_PLACEMENT_3D ( 'NONE', #20, #191, #44 ) ;
#129 = ORIENTED_EDGE ( 'NONE', *, *, #152, .F. ) ;
#130 = CARTESIAN_POINT ( 'NONE',  ( 20.05000000000000100, 5.832380380939275000E-016, -4.762500000000003700 ) ) ;
#131 = CARTESIAN_POINT ( 'NONE',  ( 20.05000000000000100, 0.0000000000000000000, 4.762500000000003700 ) ) ;
#132 = ORGANIZATION ( 'UNSPECIFIED', 'UNSPECIFIED', '' ) ;
#133 = FACE_OUTER_BOUND ( 'NONE', #31, .T. ) ;
#134 = EDGE_CURVE ( 'NONE', #195, #83, #47, .T. ) ;
#135 = ADVANCED_FACE ( 'NONE', ( #289 ), #155, .T. ) ;
#136 = PRODUCT_DEFINITION ( 'UNKNOWN', '', #212, #178 ) ;
#137 = MANIFOLD_SOLID_BREP ( 'È¸Àü4', #138 ) ;
#138 = CLOSED_SHELL ( 'NONE', ( #179, #85, #111, #61, #302, #135 ) ) ;
#139 = DIRECTION ( 'NONE',  ( 0.0000000000000000000, 0.0000000000000000000, 1.000000000000000000 ) ) ;
#140 = CARTESIAN_POINT ( 'NONE',  ( 1.000000000000000000, 0.0000000000000000000, 0.0000000000000000000 ) ) ;
#141 = DIRECTION ( 'NONE',  ( 1.000000000000000000, 1.255964264747573600E-016, -0.0000000000000000000 ) ) ;
#142 = CLOSED_SHELL ( 'NONE', ( #204, #228, #11, #275 ) ) ;
#143 = APPLICATION_CONTEXT ( 'configuration controlled 3d designs of mechanical parts and assemblies' ) ;
#144 = DIRECTION ( 'NONE',  ( 1.000000000000000000, 0.0000000000000000000, 0.0000000000000000000 ) ) ;
#145 = APPROVAL_STATUS ( 'not_yet_approved' ) ;
#146 = DIRECTION ( 'NONE',  ( 0.7071067811865579000, -0.7071067811865371400, 8.659560562354807100E-017 ) ) ;
#147 = CARTESIAN_POINT ( 'NONE',  ( -43.45000000000000300, 4.462499999999995900, 0.0000000000000000000 ) ) ;
#148 = ORIENTED_EDGE ( 'NONE', *, *, #282, .T. ) ;
#149 = DIRECTION ( 'NONE',  ( 1.000000000000000000, 1.255964264747573600E-016, -0.0000000000000000000 ) ) ;
#150 = CONICAL_SURFACE ( 'NONE', #299, 4.762500000000001100, 0.7853981633974337400 ) ;
#151 = ORIENTED_EDGE ( 'NONE', *, *, #304, .F. ) ;
#152 = EDGE_CURVE ( 'NONE', #27, #195, #277, .T. ) ;
#153 = APPROVAL ( #164, 'UNSPECIFIED' ) ;
#154 = AXIS2_PLACEMENT_3D ( 'NONE', #21, #193, #46 ) ;
#155 = CONICAL_SURFACE ( 'NONE', #267, 4.762500000000001100, 0.7853981633974337400 ) ;
#156 = PLANE ( 'NONE',  #106 ) ;
#157 = ORIENTED_EDGE ( 'NONE', *, *, #16, .T. ) ;
#158 = DATE_AND_TIME ( #220, #286 ) ;
#159 = FACE_OUTER_BOUND ( 'NONE', #306, .T. ) ;
#160 = CALENDAR_DATE ( 2023, 13, 6 ) ;
#161 = ORIENTED_EDGE ( 'NONE', *, *, #304, .T. ) ;
#162 = DIRECTION ( 'NONE',  ( 0.0000000000000000000, 0.0000000000000000000, 1.000000000000000000 ) ) ;
#163 = EDGE_CURVE ( 'NONE', #219, #115, #105, .T. ) ;
#164 = APPROVAL_STATUS ( 'not_yet_approved' ) ;
#165 = PERSON_AND_ORGANIZATION ( #234, #132 ) ;
#166 = CC_DESIGN_APPROVAL ( #153, ( #136 ) ) ;
#167 = DIRECTION ( 'NONE',  ( 1.000000000000000000, 1.255964264747573600E-016, -0.0000000000000000000 ) ) ;
#168 = CYLINDRICAL_SURFACE ( 'NONE', #231, 4.762500000000000200 ) ;
#169 = AXIS2_PLACEMENT_3D ( 'NONE', #42, #94, #263 ) ;
#170 = DATE_AND_TIME ( #232, #297 ) ;
#171 = VERTEX_POINT ( 'NONE', #130 ) ;
#172 = DIRECTION ( 'NONE',  ( 1.000000000000000000, 1.255964264747573600E-016, -0.0000000000000000000 ) ) ;
#173 = PERSON_AND_ORGANIZATION ( #234, #132 ) ;
#174 = CIRCLE ( 'NONE', #154, 4.462500000000001200 ) ;
#175 = PERSON_AND_ORGANIZATION ( #234, #132 ) ;
#176 = EDGE_LOOP ( 'NONE', ( #76, #200, #298, #151 ) ) ;
#177 = COORDINATED_UNIVERSAL_TIME_OFFSET ( 9, 0, .AHEAD. ) ;
#178 = DESIGN_CONTEXT ( 'detailed design', #143, 'design' ) ;
#179 = ADVANCED_FACE ( 'NONE', ( #87 ), #150, .T. ) ;
#180 = CC_DESIGN_PERSON_AND_ORGANIZATION_ASSIGNMENT ( #173, #189, ( #136 ) ) ;
#181 = VECTOR ( 'NONE', #122, 1000.000000000000000 ) ;
#182 = ORIENTED_EDGE ( 'NONE', *, *, #32, .F. ) ;
#183 = AXIS2_PLACEMENT_3D ( 'NONE', #95, #264, #127 ) ;
#184 = ORIENTED_EDGE ( 'NONE', *, *, #102, .F. ) ;
#185 = CARTESIAN_POINT ( 'NONE',  ( 1.000000000000000000, 0.0000000000000000000, 4.762500000000000200 ) ) ;
#186 = CARTESIAN_POINT ( 'NONE',  ( 0.9999999999999978900, 1.592040838891556900E-016, 0.0000000000000000000 ) ) ;
#187 = SHAPE_DEFINITION_REPRESENTATION ( #43, #109 ) ;
#188 =( NAMED_UNIT ( * ) SI_UNIT ( $, .STERADIAN. ) SOLID_ANGLE_UNIT ( ) );
#189 = PERSON_AND_ORGANIZATION_ROLE ( 'creator' ) ;
#190 = ORIENTED_EDGE ( 'NONE', *, *, #7, .F. ) ;
#191 = DIRECTION ( 'NONE',  ( -1.000000000000000000, -0.0000000000000000000, -0.0000000000000000000 ) ) ;
#192 = CIRCLE ( 'NONE', #34, 4.762500000000003700 ) ;
#193 = DIRECTION ( 'NONE',  ( 1.000000000000000000, 1.255964264747573600E-016, -0.0000000000000000000 ) ) ;
#194 = CARTESIAN_POINT ( 'NONE',  ( -43.45000000000000300, -5.423557072913809100E-015, 0.0000000000000000000 ) ) ;
#195 = VERTEX_POINT ( 'NONE', #75 ) ;
#196 = CARTESIAN_POINT ( 'NONE',  ( -43.14999999999999100, -5.385878144971380300E-015, 0.0000000000000000000 ) ) ;
#197 = CARTESIAN_POINT ( 'NONE',  ( -43.45000000000000300, -5.423557072913809100E-015, 0.0000000000000000000 ) ) ;
#198 = ORIENTED_EDGE ( 'NONE', *, *, #163, .F. ) ;
#199 = CC_DESIGN_DATE_AND_TIME_ASSIGNMENT ( #227, #41, ( #136 ) ) ;
#200 = ORIENTED_EDGE ( 'NONE', *, *, #9, .T. ) ;
#201 = ORIENTED_EDGE ( 'NONE', *, *, #54, .F. ) ;
#202 = AXIS2_PLACEMENT_3D ( 'NONE', #50, #216, #74 ) ;
#203 = VERTEX_POINT ( 'NONE', #131 ) ;
#204 = ADVANCED_FACE ( 'NONE', ( #272 ), #215, .T. ) ;
#205 = FACE_OUTER_BOUND ( 'NONE', #100, .T. ) ;
#206 = DIRECTION ( 'NONE',  ( -1.000000000000000000, 0.0000000000000000000, -0.0000000000000000000 ) ) ;
#207 = VECTOR ( 'NONE', #280, 1000.000000000000000 ) ;
#208 = ORIENTED_EDGE ( 'NONE', *, *, #84, .F. ) ;
#209 = APPLICATION_PROTOCOL_DEFINITION ( 'international standard', 'config_control_design', 1994, #235 ) ;
#210 = APPROVAL_STATUS ( 'not_yet_approved' ) ;
#211 = CARTESIAN_POINT ( 'NONE',  ( 0.0000000000000000000, 0.0000000000000000000, 4.762500000000002000 ) ) ;
#212 = PRODUCT_DEFINITION_FORMATION_WITH_SPECIFIED_SOURCE ( 'ANY', '', #257, .NOT_KNOWN. ) ;
#213 = DIRECTION ( 'NONE',  ( -1.365923996832131600E-016, 1.000000000000000000, 0.0000000000000000000 ) ) ;
#214 = CARTESIAN_POINT ( 'NONE',  ( 0.9999999999999985600, -4.762500000000000200, 5.832380380939270100E-016 ) ) ;
#215 = CYLINDRICAL_SURFACE ( 'NONE', #29, 4.762500000000002000 ) ;
#216 = DIRECTION ( 'NONE',  ( 1.000000000000000000, 1.255964264747573600E-016, -0.0000000000000000000 ) ) ;
#217 = UNCERTAINTY_MEASURE_WITH_UNIT (LENGTH_MEASURE( 1.000000000000000100E-005 ), #68, 'distance_accuracy_value', 'NONE');
#218 = DIRECTION ( 'NONE',  ( 0.0000000000000000000, 1.000000000000000000, 0.0000000000000000000 ) ) ;
#219 = VERTEX_POINT ( 'NONE', #256 ) ;
#220 = CALENDAR_DATE ( 2023, 13, 6 ) ;
#221 = CARTESIAN_POINT ( 'NONE',  ( -43.14999999999999100, 4.762499999999995700, 0.0000000000000000000 ) ) ;
#222 = ORIENTED_EDGE ( 'NONE', *, *, #163, .T. ) ;
#223 = VECTOR ( 'NONE', #149, 1000.000000000000000 ) ;
#224 = LOCAL_TIME ( 13, 54, 11.00000000000000000, #291 ) ;
#225 = ORIENTED_EDGE ( 'NONE', *, *, #16, .F. ) ;
#226 = MANIFOLD_SOLID_BREP ( 'È¸Àü3', #142 ) ;
#227 = DATE_AND_TIME ( #294, #40 ) ;
#228 = ADVANCED_FACE ( 'NONE', ( #159 ), #14, .T. ) ;
#229 = APPROVAL ( #210, 'UNSPECIFIED' ) ;
#230 = LINE ( 'NONE', #288, #112 ) ;
#231 = AXIS2_PLACEMENT_3D ( 'NONE', #241, #167, #213 ) ;
#232 = CALENDAR_DATE ( 2023, 13, 6 ) ;
#233 = EDGE_LOOP ( 'NONE', ( #281, #198 ) ) ;
#234 = PERSON ( 'UNSPECIFIED', 'UNSPECIFIED', 'UNSPECIFIED', ('UNSPECIFIED'), ('UNSPECIFIED'), ('UNSPECIFIED') ) ;
#235 = APPLICATION_CONTEXT ( 'configuration controlled 3d designs of mechanical parts and assemblies' ) ;
#236 = APPROVAL_DATE_TIME ( #301, #153 ) ;
#237 = CARTESIAN_POINT ( 'NONE',  ( -43.14999999999999100, -5.385878144971380300E-015, 0.0000000000000000000 ) ) ;
#238 = PERSON_AND_ORGANIZATION_ROLE ( 'creator' ) ;
#239 = DIRECTION ( 'NONE',  ( -1.000000000000000000, -0.0000000000000000000, -0.0000000000000000000 ) ) ;
#240 = PLANE ( 'NONE',  #169 ) ;
#241 = CARTESIAN_POINT ( 'NONE',  ( 0.9999999999999978900, 1.592040838891556900E-016, 0.0000000000000000000 ) ) ;
#242 = FACE_OUTER_BOUND ( 'NONE', #65, .T. ) ;
#243 = DIRECTION ( 'NONE',  ( 1.255964264747573600E-016, -1.000000000000000000, 0.0000000000000000000 ) ) ;
#244 = PERSON_AND_ORGANIZATION ( #234, #132 ) ;
#245 = ORIENTED_EDGE ( 'NONE', *, *, #84, .T. ) ;
#246 = EDGE_LOOP ( 'NONE', ( #38, #59, #274, #255 ) ) ;
#247 = CARTESIAN_POINT ( 'NONE',  ( 0.0000000000000000000, 0.0000000000000000000, 0.0000000000000000000 ) ) ;
#248 = APPROVAL_PERSON_ORGANIZATION ( #311, #153, #19 ) ;
#249 = CC_DESIGN_APPROVAL ( #229, ( #212 ) ) ;
#250 = LINE ( 'NONE', #125, #303 ) ;
#251 = ORIENTED_EDGE ( 'NONE', *, *, #134, .T. ) ;
#252 = VERTEX_POINT ( 'NONE', #185 ) ;
#253 = AXIS2_PLACEMENT_3D ( 'NONE', #194, #73, #243 ) ;
#254 = CIRCLE ( 'NONE', #86, 4.762500000000003700 ) ;
#255 = ORIENTED_EDGE ( 'NONE', *, *, #22, .F. ) ;
#256 = CARTESIAN_POINT ( 'NONE',  ( -43.45000000000000300, -4.462500000000006600, 5.648683361067169800E-016 ) ) ;
#257 = PRODUCT ( '03-2079', '03-2079', '', ( #121 ) ) ;
#258 = ORIENTED_EDGE ( 'NONE', *, *, #32, .T. ) ;
#259 = DIRECTION ( 'NONE',  ( 1.000000000000000000, 0.0000000000000000000, 0.0000000000000000000 ) ) ;
#260 = DIRECTION ( 'NONE',  ( 0.0000000000000000000, 1.000000000000000000, 0.0000000000000000000 ) ) ;
#261 = SECURITY_CLASSIFICATION_LEVEL ( 'unclassified' ) ;
#262 = CC_DESIGN_PERSON_AND_ORGANIZATION_ASSIGNMENT ( #244, #238, ( #212 ) ) ;
#263 = DIRECTION ( 'NONE',  ( -1.255964264747573600E-016, 1.000000000000000000, 0.0000000000000000000 ) ) ;
#264 = DIRECTION ( 'NONE',  ( 1.000000000000000000, 1.255964264747573600E-016, -0.0000000000000000000 ) ) ;
#265 = ORIENTED_EDGE ( 'NONE', *, *, #22, .T. ) ;
#266 = DIRECTION ( 'NONE',  ( 0.0000000000000000000, 1.000000000000000000, 0.0000000000000000000 ) ) ;
#267 = AXIS2_PLACEMENT_3D ( 'NONE', #196, #96, #290 ) ;
#268 = CARTESIAN_POINT ( 'NONE',  ( 0.9999999999999972200, 4.762500000000000200, 0.0000000000000000000 ) ) ;
#269 = CIRCLE ( 'NONE', #101, 4.762500000000000200 ) ;
#270 = DIRECTION ( 'NONE',  ( -1.000000000000000000, -0.0000000000000000000, -0.0000000000000000000 ) ) ;
#271 = ORIENTED_EDGE ( 'NONE', *, *, #9, .F. ) ;
#272 = FACE_OUTER_BOUND ( 'NONE', #246, .T. ) ;
#273 = CARTESIAN_POINT ( 'NONE',  ( 20.05000000000000100, 0.0000000000000000000, 0.0000000000000000000 ) ) ;
#274 = ORIENTED_EDGE ( 'NONE', *, *, #282, .F. ) ;
#275 = ADVANCED_FACE ( 'NONE', ( #205 ), #37, .F. ) ;
#276 = CC_DESIGN_PERSON_AND_ORGANIZATION_ASSIGNMENT ( #175, #92, ( #212 ) ) ;
#277 = LINE ( 'NONE', #268, #28 ) ;
#278 = CARTESIAN_POINT ( 'NONE',  ( 0.0000000000000000000, 0.0000000000000000000, 0.0000000000000000000 ) ) ;
#279 = AXIS2_PLACEMENT_3D ( 'NONE', #197, #53, #218 ) ;
#280 = DIRECTION ( 'NONE',  ( -1.000000000000000000, -0.0000000000000000000, -0.0000000000000000000 ) ) ;
#281 = ORIENTED_EDGE ( 'NONE', *, *, #69, .F. ) ;
#282 = EDGE_CURVE ( 'NONE', #252, #10, #97, .T. ) ;
#283 = CARTESIAN_POINT ( 'NONE',  ( 0.9999999999999995600, 1.592040838891559100E-016, 0.0000000000000000000 ) ) ;
#284 = PERSON_AND_ORGANIZATION_ROLE ( 'design_owner' ) ;
#285 = CARTESIAN_POINT ( 'NONE',  ( 1.000000000000000900, 3.187155992608311500E-016, 0.0000000000000000000 ) ) ;
#286 = LOCAL_TIME ( 13, 54, 11.00000000000000000, #33 ) ;
#287 = DATE_TIME_ROLE ( 'classification_date' ) ;
#288 = CARTESIAN_POINT ( 'NONE',  ( -43.14999999999999100, 4.762499999999995700, 0.0000000000000000000 ) ) ;
#289 = FACE_OUTER_BOUND ( 'NONE', #25, .T. ) ;
#290 = DIRECTION ( 'NONE',  ( 0.0000000000000000000, 1.000000000000000000, 0.0000000000000000000 ) ) ;
#291 = COORDINATED_UNIVERSAL_TIME_OFFSET ( 9, 0, .AHEAD. ) ;
#292 = ORIENTED_EDGE ( 'NONE', *, *, #102, .T. ) ;
#293 = DIRECTION ( 'NONE',  ( 0.0000000000000000000, 0.0000000000000000000, 1.000000000000000000 ) ) ;
#294 = CALENDAR_DATE ( 2023, 13, 6 ) ;
#295 = SECURITY_CLASSIFICATION ( '', '', #261 ) ;
#296 = LINE ( 'NONE', #214, #223 ) ;
#297 = LOCAL_TIME ( 13, 54, 11.00000000000000000, #49 ) ;
#298 = ORIENTED_EDGE ( 'NONE', *, *, #152, .T. ) ;
#299 = AXIS2_PLACEMENT_3D ( 'NONE', #6, #172, #266 ) ;
#300 = EDGE_CURVE ( 'NONE', #171, #10, #79, .T. ) ;
#301 = DATE_AND_TIME ( #55, #120 ) ;
#302 = ADVANCED_FACE ( 'NONE', ( #81 ), #24, .T. ) ;
#303 = VECTOR ( 'NONE', #146, 1000.000000000000000 ) ;
#304 = EDGE_CURVE ( 'NONE', #83, #195, #269, .T. ) ;
#305 = APPROVAL_DATE_TIME ( #158, #229 ) ;
#306 = EDGE_LOOP ( 'NONE', ( #13, #157, #265, #182 ) ) ;
#307 = EDGE_LOOP ( 'NONE', ( #251, #161 ) ) ;
#308 = CARTESIAN_POINT ( 'NONE',  ( 20.05000000000000100, 0.0000000000000000000, 0.0000000000000000000 ) ) ;
#309 = DIRECTION ( 'NONE',  ( -1.000000000000000000, -0.0000000000000000000, -0.0000000000000000000 ) ) ;
#310 = DIRECTION ( 'NONE',  ( -1.365923996832131600E-016, 1.000000000000000000, 0.0000000000000000000 ) ) ;
#311 = PERSON_AND_ORGANIZATION ( #234, #132 ) ;
#312 = APPLICATION_PROTOCOL_DEFINITION ( 'international standard', 'config_control_design', 1994, #143 ) ;
#313 = DIRECTION ( 'NONE',  ( 0.0000000000000000000, 0.0000000000000000000, -1.000000000000000000 ) ) ;
ENDSEC;
END-ISO-10303-21;
