ISO-10303-21;
HEADER;
FILE_DESCRIPTION (( 'STEP AP203' ),
    '1' );
FILE_NAME ('03-2081.STEP',
    '2023-06-13T05:00:06',
    ( 'USER' ),
    ( 'Hewlett-Packard Company' ),
    'SwSTEP 2.0',
    'SolidWorks 2014',
    '' );
FILE_SCHEMA (( 'CONFIG_CONTROL_DESIGN' ));
ENDSEC;

DATA;
#1 = ORIENTED_EDGE ( 'NONE', *, *, #123, .T. ) ;
#2 = COORDINATED_UNIVERSAL_TIME_OFFSET ( 9, 0, .AHEAD. ) ;
#3 = CC_DESIGN_APPROVAL ( #297, ( #243 ) ) ;
#4 = VECTOR ( 'NONE', #222, 1000.000000000000000 ) ;
#5 = DIRECTION ( 'NONE',  ( 1.000000000000000000, 0.0000000000000000000, 0.0000000000000000000 ) ) ;
#6 = DATE_AND_TIME ( #71, #132 ) ;
#7 = AXIS2_PLACEMENT_3D ( 'NONE', #114, #282, #163 ) ;
#8 = CARTESIAN_POINT ( 'NONE',  ( -49.49999999999999300, -6.350000000000006800, 7.776507174585693100E-016 ) ) ;
#9 = LINE ( 'NONE', #11, #17 ) ;
#10 = CLOSED_SHELL ( 'NONE', ( #180, #251, #89, #156, #302, #133 ) ) ;
#11 = CARTESIAN_POINT ( 'NONE',  ( 1.000000000000000700, -6.349999999999999600, 7.776507174585692200E-016 ) ) ;
#12 = CARTESIAN_POINT ( 'NONE',  ( -49.79999999999999700, -6.019868267780840500E-015, 0.0000000000000000000 ) ) ;
#13 = EDGE_CURVE ( 'NONE', #29, #308, #39, .T. ) ;
#14 = PERSON_AND_ORGANIZATION ( #310, #275 ) ;
#15 = CARTESIAN_POINT ( 'NONE',  ( -49.49999999999999300, -6.350000000000005900, 7.776507174585696100E-016 ) ) ;
#16 = DIRECTION ( 'NONE',  ( 1.000000000000000000, 1.185013438539535600E-016, -0.0000000000000000000 ) ) ;
#17 = VECTOR ( 'NONE', #60, 1000.000000000000000 ) ;
#18 = CC_DESIGN_SECURITY_CLASSIFICATION ( #243, ( #166 ) ) ;
#19 = CARTESIAN_POINT ( 'NONE',  ( -49.49999999999999300, -5.984317864624654200E-015, 0.0000000000000000000 ) ) ;
#20 = PRODUCT ( '03-2081', '03-2081', '', ( #141 ) ) ;
#21 = COORDINATED_UNIVERSAL_TIME_OFFSET ( 9, 0, .AHEAD. ) ;
#22 = CARTESIAN_POINT ( 'NONE',  ( 0.0000000000000000000, 0.0000000000000000000, 6.350000000000003200 ) ) ;
#23 = APPLICATION_PROTOCOL_DEFINITION ( 'international standard', 'config_control_design', 1994, #164 ) ;
#24 = PERSON_AND_ORGANIZATION ( #310, #275 ) ;
#25 = FACE_OUTER_BOUND ( 'NONE', #212, .T. ) ;
#26 = SHAPE_DEFINITION_REPRESENTATION ( #139, #51 ) ;
#27 = AXIS2_PLACEMENT_3D ( 'NONE', #126, #5, #170 ) ;
#28 = EDGE_CURVE ( 'NONE', #277, #289, #165, .T. ) ;
#29 = VERTEX_POINT ( 'NONE', #294 ) ;
#30 = CYLINDRICAL_SURFACE ( 'NONE', #290, 6.350000000000003200 ) ;
#31 = MANIFOLD_SOLID_BREP ( 'È¸Àü3', #219 ) ;
#32 = CARTESIAN_POINT ( 'NONE',  ( 0.0000000000000000000, 7.776507174585696100E-016, -6.350000000000003200 ) ) ;
#33 = PRODUCT_RELATED_PRODUCT_CATEGORY ( 'detail', '', ( #20 ) ) ;
#34 = DIRECTION ( 'NONE',  ( -1.024442997624098700E-016, 1.000000000000000000, 0.0000000000000000000 ) ) ;
#35 = PLANE ( 'NONE',  #143 ) ;
#36 = DIRECTION ( 'NONE',  ( 0.0000000000000000000, 1.000000000000000000, 0.0000000000000000000 ) ) ;
#37 = ORIENTED_EDGE ( 'NONE', *, *, #194, .F. ) ;
#38 = ADVANCED_FACE ( 'NONE', ( #221 ), #30, .T. ) ;
#39 = CIRCLE ( 'NONE', #224, 6.349999999999999600 ) ;
#40 =( NAMED_UNIT ( * ) PLANE_ANGLE_UNIT ( ) SI_UNIT ( $, .RADIAN. ) );
#41 = DIRECTION ( 'NONE',  ( 0.0000000000000000000, 1.000000000000000000, 0.0000000000000000000 ) ) ;
#42 = APPROVAL_ROLE ( '' ) ;
#43 = APPROVAL_ROLE ( '' ) ;
#44 = CARTESIAN_POINT ( 'NONE',  ( -49.79999999999999700, -6.050000000000006900, 7.592810154713591800E-016 ) ) ;
#45 = AXIS2_PLACEMENT_3D ( 'NONE', #12, #179, #36 ) ;
#46 = EDGE_CURVE ( 'NONE', #289, #277, #100, .T. ) ;
#47 = VERTEX_POINT ( 'NONE', #15 ) ;
#48 = APPROVAL_ROLE ( '' ) ;
#49 = EDGE_LOOP ( 'NONE', ( #168, #117, #121, #264 ) ) ;
#50 = DATE_AND_TIME ( #111, #175 ) ;
#51 = ADVANCED_BREP_SHAPE_REPRESENTATION ( '03-2081', ( #31, #106, #56 ), #305 ) ;
#52 = CYLINDRICAL_SURFACE ( 'NONE', #267, 6.349999999999999600 ) ;
#53 = ORIENTED_EDGE ( 'NONE', *, *, #172, .T. ) ;
#54 = ORIENTED_EDGE ( 'NONE', *, *, #191, .T. ) ;
#55 = PERSON_AND_ORGANIZATION ( #310, #275 ) ;
#56 = AXIS2_PLACEMENT_3D ( 'NONE', #229, #115, #284 ) ;
#57 = DIRECTION ( 'NONE',  ( -1.000000000000000000, -0.0000000000000000000, -0.0000000000000000000 ) ) ;
#58 = FACE_OUTER_BOUND ( 'NONE', #235, .T. ) ;
#59 = DIRECTION ( 'NONE',  ( -1.000000000000000000, -0.0000000000000000000, -0.0000000000000000000 ) ) ;
#60 = DIRECTION ( 'NONE',  ( 1.000000000000000000, 1.185013438539535600E-016, -0.0000000000000000000 ) ) ;
#61 = AXIS2_PLACEMENT_3D ( 'NONE', #76, #239, #102 ) ;
#62 = DIRECTION ( 'NONE',  ( -1.185013438539535600E-016, 1.000000000000000000, 0.0000000000000000000 ) ) ;
#63 = EDGE_CURVE ( 'NONE', #308, #29, #287, .T. ) ;
#64 = ADVANCED_FACE ( 'NONE', ( #159 ), #218, .F. ) ;
#65 = ORIENTED_EDGE ( 'NONE', *, *, #79, .F. ) ;
#66 = PERSON_AND_ORGANIZATION ( #310, #275 ) ;
#67 =( LENGTH_UNIT ( ) NAMED_UNIT ( * ) SI_UNIT ( .MILLI., .METRE. ) );
#68 = CIRCLE ( 'NONE', #205, 6.350000000000000500 ) ;
#69 = SECURITY_CLASSIFICATION_LEVEL ( 'unclassified' ) ;
#70 = PERSON_AND_ORGANIZATION_ROLE ( 'design_supplier' ) ;
#71 = CALENDAR_DATE ( 2023, 13, 6 ) ;
#72 = CC_DESIGN_PERSON_AND_ORGANIZATION_ASSIGNMENT ( #209, #313, ( #20 ) ) ;
#73 = CONICAL_SURFACE ( 'NONE', #96, 6.350000000000000500, 0.7853981633974453900 ) ;
#74 = VERTEX_POINT ( 'NONE', #296 ) ;
#75 = ORIENTED_EDGE ( 'NONE', *, *, #210, .T. ) ;
#76 = CARTESIAN_POINT ( 'NONE',  ( -49.79999999999999700, -6.019868267780840500E-015, 0.0000000000000000000 ) ) ;
#77 = AXIS2_PLACEMENT_3D ( 'NONE', #201, #107, #274 ) ;
#78 = ORIENTED_EDGE ( 'NONE', *, *, #97, .F. ) ;
#79 = EDGE_CURVE ( 'NONE', #289, #308, #214, .T. ) ;
#80 = DATE_AND_TIME ( #142, #204 ) ;
#81 = CARTESIAN_POINT ( 'NONE',  ( 32.75000000000000000, 0.0000000000000000000, 0.0000000000000000000 ) ) ;
#82 = DIRECTION ( 'NONE',  ( -1.000000000000000000, -0.0000000000000000000, -0.0000000000000000000 ) ) ;
#83 = CARTESIAN_POINT ( 'NONE',  ( 32.75000000000000000, 0.0000000000000000000, 0.0000000000000000000 ) ) ;
#84 = FACE_OUTER_BOUND ( 'NONE', #129, .T. ) ;
#85 = CARTESIAN_POINT ( 'NONE',  ( 0.9999999999999991100, -9.070087028399636700E-032, 0.0000000000000000000 ) ) ;
#86 = DIRECTION ( 'NONE',  ( 1.000000000000000000, 1.185013438539535600E-016, -0.0000000000000000000 ) ) ;
#87 = APPROVAL_PERSON_ORGANIZATION ( #146, #104, #48 ) ;
#88 = APPROVAL_DATE_TIME ( #148, #104 ) ;
#89 = ADVANCED_FACE ( 'NONE', ( #25 ), #196, .T. ) ;
#90 = PRODUCT_DEFINITION ( 'UNKNOWN', '', #166, #238 ) ;
#91 = CIRCLE ( 'NONE', #45, 6.050000000000000700 ) ;
#92 = DIRECTION ( 'NONE',  ( 1.000000000000000000, 1.185013438539535600E-016, -0.0000000000000000000 ) ) ;
#93 = DATE_TIME_ROLE ( 'classification_date' ) ;
#94 = DATE_TIME_ROLE ( 'creation_date' ) ;
#95 = VERTEX_POINT ( 'NONE', #216 ) ;
#96 = AXIS2_PLACEMENT_3D ( 'NONE', #250, #303, #178 ) ;
#97 = EDGE_CURVE ( 'NONE', #306, #47, #152, .T. ) ;
#98 = CARTESIAN_POINT ( 'NONE',  ( 0.9999999999999991100, -9.070087028399636700E-032, 0.0000000000000000000 ) ) ;
#99 = EDGE_LOOP ( 'NONE', ( #147, #173 ) ) ;
#100 = CIRCLE ( 'NONE', #276, 6.350000000000005900 ) ;
#101 = ORIENTED_EDGE ( 'NONE', *, *, #172, .F. ) ;
#102 = DIRECTION ( 'NONE',  ( 1.185013438539535600E-016, -1.000000000000000000, 0.0000000000000000000 ) ) ;
#103 = FACE_OUTER_BOUND ( 'NONE', #255, .T. ) ;
#104 = APPROVAL ( #189, 'UNSPECIFIED' ) ;
#105 = DIRECTION ( 'NONE',  ( 0.0000000000000000000, 0.0000000000000000000, 1.000000000000000000 ) ) ;
#106 = MANIFOLD_SOLID_BREP ( 'È¸Àü4', #10 ) ;
#107 = DIRECTION ( 'NONE',  ( 1.000000000000000000, 1.185013438539535600E-016, -0.0000000000000000000 ) ) ;
#108 = ORIENTED_EDGE ( 'NONE', *, *, #157, .T. ) ;
#109 = EDGE_CURVE ( 'NONE', #285, #306, #91, .T. ) ;
#110 = ORIENTED_EDGE ( 'NONE', *, *, #194, .T. ) ;
#111 = CALENDAR_DATE ( 2023, 13, 6 ) ;
#112 = DIRECTION ( 'NONE',  ( -1.024442997624098700E-016, 1.000000000000000000, 0.0000000000000000000 ) ) ;
#113 = FACE_OUTER_BOUND ( 'NONE', #99, .T. ) ;
#114 = CARTESIAN_POINT ( 'NONE',  ( 1.000000000000000000, 0.0000000000000000000, 0.0000000000000000000 ) ) ;
#115 = DIRECTION ( 'NONE',  ( 0.0000000000000000000, 0.0000000000000000000, 1.000000000000000000 ) ) ;
#116 = DIRECTION ( 'NONE',  ( 0.0000000000000000000, 0.0000000000000000000, 1.000000000000000000 ) ) ;
#117 = ORIENTED_EDGE ( 'NONE', *, *, #97, .T. ) ;
#118 = DATE_AND_TIME ( #182, #241 ) ;
#119 = CC_DESIGN_APPROVAL ( #104, ( #90 ) ) ;
#120 = CONICAL_SURFACE ( 'NONE', #171, 6.350000000000000500, 0.7853981633974453900 ) ;
#121 = ORIENTED_EDGE ( 'NONE', *, *, #123, .F. ) ;
#122 = AXIS2_PLACEMENT_3D ( 'NONE', #85, #246, #34 ) ;
#123 = EDGE_CURVE ( 'NONE', #304, #47, #145, .T. ) ;
#124 = PERSON_AND_ORGANIZATION ( #310, #275 ) ;
#125 = ORIENTED_EDGE ( 'NONE', *, *, #312, .T. ) ;
#126 = CARTESIAN_POINT ( 'NONE',  ( 1.000000000000000400, 1.365923996832132800E-016, 0.0000000000000000000 ) ) ;
#127 = LINE ( 'NONE', #22, #288 ) ;
#128 = CARTESIAN_POINT ( 'NONE',  ( -49.49999999999999300, 6.349999999999994300, 0.0000000000000000000 ) ) ;
#129 = EDGE_LOOP ( 'NONE', ( #78, #240, #291, #271 ) ) ;
#130 = ORIENTED_EDGE ( 'NONE', *, *, #63, .F. ) ;
#131 = DIRECTION ( 'NONE',  ( 0.7071067811865496800, -0.7071067811865453500, 8.659560562354908200E-017 ) ) ;
#132 = LOCAL_TIME ( 14, 0, 6.000000000000000000, #195 ) ;
#133 = ADVANCED_FACE ( 'NONE', ( #84 ), #73, .T. ) ;
#134 = DIRECTION ( 'NONE',  ( 0.0000000000000000000, 0.0000000000000000000, 1.000000000000000000 ) ) ;
#135 = CC_DESIGN_PERSON_AND_ORGANIZATION_ASSIGNMENT ( #24, #233, ( #90 ) ) ;
#136 = CIRCLE ( 'NONE', #122, 6.349999999999999600 ) ;
#137 = CARTESIAN_POINT ( 'NONE',  ( 32.75000000000000000, 0.0000000000000000000, 0.0000000000000000000 ) ) ;
#138 = DIRECTION ( 'NONE',  ( -0.0000000000000000000, 0.0000000000000000000, 1.000000000000000000 ) ) ;
#139 = PRODUCT_DEFINITION_SHAPE ( 'NONE', 'NONE',  #90 ) ;
#140 = CARTESIAN_POINT ( 'NONE',  ( -49.79999999999999700, 6.049999999999994500, 0.0000000000000000000 ) ) ;
#141 = MECHANICAL_CONTEXT ( 'NONE', #259, 'mechanical' ) ;
#142 = CALENDAR_DATE ( 2023, 13, 6 ) ;
#143 = AXIS2_PLACEMENT_3D ( 'NONE', #248, #203, #62 ) ;
#144 = EDGE_CURVE ( 'NONE', #285, #304, #269, .T. ) ;
#145 = CIRCLE ( 'NONE', #77, 6.350000000000000500 ) ;
#146 = PERSON_AND_ORGANIZATION ( #310, #275 ) ;
#147 = ORIENTED_EDGE ( 'NONE', *, *, #28, .F. ) ;
#148 = DATE_AND_TIME ( #202, #265 ) ;
#149 = DIRECTION ( 'NONE',  ( 0.0000000000000000000, 0.0000000000000000000, 1.000000000000000000 ) ) ;
#150 = ORIENTED_EDGE ( 'NONE', *, *, #157, .F. ) ;
#151 = CC_DESIGN_DATE_AND_TIME_ASSIGNMENT ( #80, #94, ( #90 ) ) ;
#152 = LINE ( 'NONE', #8, #207 ) ;
#153 = DIRECTION ( 'NONE',  ( 0.0000000000000000000, 0.0000000000000000000, 1.000000000000000000 ) ) ;
#154 = CARTESIAN_POINT ( 'NONE',  ( -49.49999999999999300, -5.984317864624654200E-015, 0.0000000000000000000 ) ) ;
#155 = AXIS2_PLACEMENT_3D ( 'NONE', #223, #86, #247 ) ;
#156 = ADVANCED_FACE ( 'NONE', ( #263 ), #35, .T. ) ;
#157 = EDGE_CURVE ( 'NONE', #47, #95, #9, .T. ) ;
#158 = EDGE_LOOP ( 'NONE', ( #150, #75, #54, #37 ) ) ;
#159 = FACE_OUTER_BOUND ( 'NONE', #228, .T. ) ;
#160 = DIRECTION ( 'NONE',  ( -1.024442997624098700E-016, 1.000000000000000000, 0.0000000000000000000 ) ) ;
#161 = CARTESIAN_POINT ( 'NONE',  ( 0.0000000000000000000, 0.0000000000000000000, 0.0000000000000000000 ) ) ;
#162 = PLANE ( 'NONE',  #286 ) ;
#163 = DIRECTION ( 'NONE',  ( -1.024442997624098700E-016, 1.000000000000000000, 0.0000000000000000000 ) ) ;
#164 = APPLICATION_CONTEXT ( 'configuration controlled 3d designs of mechanical parts and assemblies' ) ;
#165 = CIRCLE ( 'NONE', #237, 6.350000000000005900 ) ;
#166 = PRODUCT_DEFINITION_FORMATION_WITH_SPECIFIED_SOURCE ( 'ANY', '', #20, .NOT_KNOWN. ) ;
#167 = CYLINDRICAL_SURFACE ( 'NONE', #7, 6.349999999999999600 ) ;
#168 = ORIENTED_EDGE ( 'NONE', *, *, #109, .T. ) ;
#169 = ORIENTED_EDGE ( 'NONE', *, *, #46, .T. ) ;
#170 = DIRECTION ( 'NONE',  ( 0.0000000000000000000, 0.0000000000000000000, -1.000000000000000000 ) ) ;
#171 = AXIS2_PLACEMENT_3D ( 'NONE', #154, #200, #225 ) ;
#172 = EDGE_CURVE ( 'NONE', #74, #95, #136, .T. ) ;
#173 = ORIENTED_EDGE ( 'NONE', *, *, #46, .F. ) ;
#174 = DIRECTION ( 'NONE',  ( 0.0000000000000000000, 0.0000000000000000000, 1.000000000000000000 ) ) ;
#175 = LOCAL_TIME ( 14, 0, 6.000000000000000000, #236 ) ;
#176 = CYLINDRICAL_SURFACE ( 'NONE', #253, 6.350000000000003200 ) ;
#177 = EDGE_CURVE ( 'NONE', #306, #285, #254, .T. ) ;
#178 = DIRECTION ( 'NONE',  ( 0.0000000000000000000, 1.000000000000000000, 0.0000000000000000000 ) ) ;
#179 = DIRECTION ( 'NONE',  ( 1.000000000000000000, 1.185013438539535600E-016, -0.0000000000000000000 ) ) ;
#180 = ADVANCED_FACE ( 'NONE', ( #193 ), #120, .T. ) ;
#181 = ORIENTED_EDGE ( 'NONE', *, *, #28, .T. ) ;
#182 = CALENDAR_DATE ( 2023, 13, 6 ) ;
#183 = APPROVAL ( #257, 'UNSPECIFIED' ) ;
#184 = DIRECTION ( 'NONE',  ( 1.000000000000000000, 1.185013438539535600E-016, -0.0000000000000000000 ) ) ;
#185 = LINE ( 'NONE', #273, #4 ) ;
#186 = APPROVAL_STATUS ( 'not_yet_approved' ) ;
#187 = CARTESIAN_POINT ( 'NONE',  ( 32.75000000000000000, 0.0000000000000000000, 6.350000000000005900 ) ) ;
#188 = CARTESIAN_POINT ( 'NONE',  ( -49.49999999999999300, 6.349999999999994300, 0.0000000000000000000 ) ) ;
#189 = APPROVAL_STATUS ( 'not_yet_approved' ) ;
#190 = AXIS2_PLACEMENT_3D ( 'NONE', #98, #16, #160 ) ;
#191 = EDGE_CURVE ( 'NONE', #304, #74, #185, .T. ) ;
#192 = PERSON_AND_ORGANIZATION ( #310, #275 ) ;
#193 = FACE_OUTER_BOUND ( 'NONE', #49, .T. ) ;
#194 = EDGE_CURVE ( 'NONE', #95, #74, #244, .T. ) ;
#195 = COORDINATED_UNIVERSAL_TIME_OFFSET ( 9, 0, .AHEAD. ) ;
#196 = PLANE ( 'NONE',  #61 ) ;
#197 = CC_DESIGN_APPROVAL ( #183, ( #166 ) ) ;
#198 = VECTOR ( 'NONE', #300, 1000.000000000000100 ) ;
#199 = CARTESIAN_POINT ( 'NONE',  ( 1.000000000000000000, 0.0000000000000000000, 0.0000000000000000000 ) ) ;
#200 = DIRECTION ( 'NONE',  ( 1.000000000000000000, 1.185013438539535600E-016, -0.0000000000000000000 ) ) ;
#201 = CARTESIAN_POINT ( 'NONE',  ( -49.49999999999999300, -5.984317864624654200E-015, 0.0000000000000000000 ) ) ;
#202 = CALENDAR_DATE ( 2023, 13, 6 ) ;
#203 = DIRECTION ( 'NONE',  ( 1.000000000000000000, 1.185013438539535600E-016, -0.0000000000000000000 ) ) ;
#204 = LOCAL_TIME ( 14, 0, 6.000000000000000000, #266 ) ;
#205 = AXIS2_PLACEMENT_3D ( 'NONE', #19, #184, #41 ) ;
#206 =( NAMED_UNIT ( * ) SI_UNIT ( $, .STERADIAN. ) SOLID_ANGLE_UNIT ( ) );
#207 = VECTOR ( 'NONE', #131, 1000.000000000000000 ) ;
#208 = PERSON_AND_ORGANIZATION_ROLE ( 'creator' ) ;
#209 = PERSON_AND_ORGANIZATION ( #310, #275 ) ;
#210 = EDGE_CURVE ( 'NONE', #47, #304, #68, .T. ) ;
#211 = CARTESIAN_POINT ( 'NONE',  ( 1.000000000000000000, 7.776507174585694100E-016, -6.349999999999999600 ) ) ;
#212 = EDGE_LOOP ( 'NONE', ( #227, #279 ) ) ;
#213 = ORIENTED_EDGE ( 'NONE', *, *, #63, .T. ) ;
#214 = LINE ( 'NONE', #32, #280 ) ;
#215 = CC_DESIGN_PERSON_AND_ORGANIZATION_ASSIGNMENT ( #192, #208, ( #166 ) ) ;
#216 = CARTESIAN_POINT ( 'NONE',  ( 0.9999999999999997800, -6.349999999999999600, 7.776507174585692200E-016 ) ) ;
#217 = EDGE_LOOP ( 'NONE', ( #181, #283, #301, #245 ) ) ;
#218 = PLANE ( 'NONE',  #27 ) ;
#219 = CLOSED_SHELL ( 'NONE', ( #38, #226, #64, #278 ) ) ;
#220 = CARTESIAN_POINT ( 'NONE',  ( 1.000000000000000000, 0.0000000000000000000, 0.0000000000000000000 ) ) ;
#221 = FACE_OUTER_BOUND ( 'NONE', #217, .T. ) ;
#222 = DIRECTION ( 'NONE',  ( 1.000000000000000000, 1.185013438539535600E-016, -0.0000000000000000000 ) ) ;
#223 = CARTESIAN_POINT ( 'NONE',  ( -49.79999999999999700, -6.019868267780840500E-015, 0.0000000000000000000 ) ) ;
#224 = AXIS2_PLACEMENT_3D ( 'NONE', #199, #268, #134 ) ;
#225 = DIRECTION ( 'NONE',  ( 0.0000000000000000000, 1.000000000000000000, 0.0000000000000000000 ) ) ;
#226 = ADVANCED_FACE ( 'NONE', ( #103 ), #176, .T. ) ;
#227 = ORIENTED_EDGE ( 'NONE', *, *, #109, .F. ) ;
#228 = EDGE_LOOP ( 'NONE', ( #293, #213 ) ) ;
#229 = CARTESIAN_POINT ( 'NONE',  ( 0.0000000000000000000, 0.0000000000000000000, 0.0000000000000000000 ) ) ;
#230 = CC_DESIGN_PERSON_AND_ORGANIZATION_ASSIGNMENT ( #124, #70, ( #166 ) ) ;
#231 = CARTESIAN_POINT ( 'NONE',  ( 1.000000000000000000, 0.0000000000000000000, 0.0000000000000000000 ) ) ;
#232 = PERSON_AND_ORGANIZATION_ROLE ( 'classification_officer' ) ;
#233 = PERSON_AND_ORGANIZATION_ROLE ( 'creator' ) ;
#234 = APPLICATION_PROTOCOL_DEFINITION ( 'international standard', 'config_control_design', 1994, #259 ) ;
#235 = EDGE_LOOP ( 'NONE', ( #1, #108, #101, #256 ) ) ;
#236 = COORDINATED_UNIVERSAL_TIME_OFFSET ( 9, 0, .AHEAD. ) ;
#237 = AXIS2_PLACEMENT_3D ( 'NONE', #83, #242, #105 ) ;
#238 = DESIGN_CONTEXT ( 'detailed design', #164, 'design' ) ;
#239 = DIRECTION ( 'NONE',  ( -1.000000000000000000, -1.185013438539535600E-016, 0.0000000000000000000 ) ) ;
#240 = ORIENTED_EDGE ( 'NONE', *, *, #177, .T. ) ;
#241 = LOCAL_TIME ( 14, 0, 6.000000000000000000, #2 ) ;
#242 = DIRECTION ( 'NONE',  ( -1.000000000000000000, -0.0000000000000000000, -0.0000000000000000000 ) ) ;
#243 = SECURITY_CLASSIFICATION ( '', '', #69 ) ;
#244 = CIRCLE ( 'NONE', #190, 6.349999999999999600 ) ;
#245 = ORIENTED_EDGE ( 'NONE', *, *, #312, .F. ) ;
#246 = DIRECTION ( 'NONE',  ( 1.000000000000000000, 1.185013438539535600E-016, -0.0000000000000000000 ) ) ;
#247 = DIRECTION ( 'NONE',  ( 0.0000000000000000000, 1.000000000000000000, 0.0000000000000000000 ) ) ;
#248 = CARTESIAN_POINT ( 'NONE',  ( 0.9999999999999986700, 6.349999999999999600, 0.0000000000000000000 ) ) ;
#249 = EDGE_LOOP ( 'NONE', ( #53, #110 ) ) ;
#250 = CARTESIAN_POINT ( 'NONE',  ( -49.49999999999999300, -5.984317864624654200E-015, 0.0000000000000000000 ) ) ;
#251 = ADVANCED_FACE ( 'NONE', ( #58 ), #52, .T. ) ;
#252 = APPROVAL_DATE_TIME ( #6, #183 ) ;
#253 = AXIS2_PLACEMENT_3D ( 'NONE', #161, #299, #116 ) ;
#254 = CIRCLE ( 'NONE', #155, 6.050000000000000700 ) ;
#255 = EDGE_LOOP ( 'NONE', ( #65, #169, #125, #130 ) ) ;
#256 = ORIENTED_EDGE ( 'NONE', *, *, #191, .F. ) ;
#257 = APPROVAL_STATUS ( 'not_yet_approved' ) ;
#258 = AXIS2_PLACEMENT_3D ( 'NONE', #220, #82, #149 ) ;
#259 = APPLICATION_CONTEXT ( 'configuration controlled 3d designs of mechanical parts and assemblies' ) ;
#260 = DIRECTION ( 'NONE',  ( -1.000000000000000000, -0.0000000000000000000, -0.0000000000000000000 ) ) ;
#261 = APPROVAL_PERSON_ORGANIZATION ( #14, #183, #43 ) ;
#262 = CC_DESIGN_PERSON_AND_ORGANIZATION_ASSIGNMENT ( #66, #232, ( #243 ) ) ;
#263 = FACE_OUTER_BOUND ( 'NONE', #249, .T. ) ;
#264 = ORIENTED_EDGE ( 'NONE', *, *, #144, .F. ) ;
#265 = LOCAL_TIME ( 14, 0, 6.000000000000000000, #21 ) ;
#266 = COORDINATED_UNIVERSAL_TIME_OFFSET ( 9, 0, .AHEAD. ) ;
#267 = AXIS2_PLACEMENT_3D ( 'NONE', #231, #92, #112 ) ;
#268 = DIRECTION ( 'NONE',  ( -1.000000000000000000, -0.0000000000000000000, -0.0000000000000000000 ) ) ;
#269 = LINE ( 'NONE', #128, #198 ) ;
#270 = CARTESIAN_POINT ( 'NONE',  ( 0.0000000000000000000, 0.0000000000000000000, 0.0000000000000000000 ) ) ;
#271 = ORIENTED_EDGE ( 'NONE', *, *, #210, .F. ) ;
#272 = UNCERTAINTY_MEASURE_WITH_UNIT (LENGTH_MEASURE( 1.000000000000000100E-005 ), #67, 'distance_accuracy_value', 'NONE');
#273 = CARTESIAN_POINT ( 'NONE',  ( 0.9999999999999993300, 6.349999999999999600, 0.0000000000000000000 ) ) ;
#274 = DIRECTION ( 'NONE',  ( 0.0000000000000000000, 1.000000000000000000, 0.0000000000000000000 ) ) ;
#275 = ORGANIZATION ( 'UNSPECIFIED', 'UNSPECIFIED', '' ) ;
#276 = AXIS2_PLACEMENT_3D ( 'NONE', #81, #292, #174 ) ;
#277 = VERTEX_POINT ( 'NONE', #187 ) ;
#278 = ADVANCED_FACE ( 'NONE', ( #113 ), #162, .F. ) ;
#279 = ORIENTED_EDGE ( 'NONE', *, *, #177, .F. ) ;
#280 = VECTOR ( 'NONE', #57, 1000.000000000000000 ) ;
#281 = CC_DESIGN_DATE_AND_TIME_ASSIGNMENT ( #118, #93, ( #243 ) ) ;
#282 = DIRECTION ( 'NONE',  ( 1.000000000000000000, 1.185013438539535600E-016, -0.0000000000000000000 ) ) ;
#283 = ORIENTED_EDGE ( 'NONE', *, *, #79, .T. ) ;
#284 = DIRECTION ( 'NONE',  ( 1.000000000000000000, 0.0000000000000000000, 0.0000000000000000000 ) ) ;
#285 = VERTEX_POINT ( 'NONE', #140 ) ;
#286 = AXIS2_PLACEMENT_3D ( 'NONE', #137, #309, #138 ) ;
#287 = CIRCLE ( 'NONE', #258, 6.349999999999999600 ) ;
#288 = VECTOR ( 'NONE', #260, 1000.000000000000000 ) ;
#289 = VERTEX_POINT ( 'NONE', #311 ) ;
#290 = AXIS2_PLACEMENT_3D ( 'NONE', #270, #59, #153 ) ;
#291 = ORIENTED_EDGE ( 'NONE', *, *, #144, .T. ) ;
#292 = DIRECTION ( 'NONE',  ( -1.000000000000000000, -0.0000000000000000000, -0.0000000000000000000 ) ) ;
#293 = ORIENTED_EDGE ( 'NONE', *, *, #13, .T. ) ;
#294 = CARTESIAN_POINT ( 'NONE',  ( 1.000000000000000000, 0.0000000000000000000, 6.349999999999999600 ) ) ;
#295 = APPROVAL_DATE_TIME ( #50, #297 ) ;
#296 = CARTESIAN_POINT ( 'NONE',  ( 0.9999999999999985600, 6.349999999999999600, 0.0000000000000000000 ) ) ;
#297 = APPROVAL ( #186, 'UNSPECIFIED' ) ;
#298 = FACE_OUTER_BOUND ( 'NONE', #158, .T. ) ;
#299 = DIRECTION ( 'NONE',  ( -1.000000000000000000, -0.0000000000000000000, -0.0000000000000000000 ) ) ;
#300 = DIRECTION ( 'NONE',  ( 0.7071067811865493500, 0.7071067811865455700, 0.0000000000000000000 ) ) ;
#301 = ORIENTED_EDGE ( 'NONE', *, *, #13, .F. ) ;
#302 = ADVANCED_FACE ( 'NONE', ( #298 ), #167, .T. ) ;
#303 = DIRECTION ( 'NONE',  ( 1.000000000000000000, 1.185013438539535600E-016, -0.0000000000000000000 ) ) ;
#304 = VERTEX_POINT ( 'NONE', #188 ) ;
#305 =( GEOMETRIC_REPRESENTATION_CONTEXT ( 3 ) GLOBAL_UNCERTAINTY_ASSIGNED_CONTEXT ( ( #272 ) ) GLOBAL_UNIT_ASSIGNED_CONTEXT ( ( #67, #40, #206 ) ) REPRESENTATION_CONTEXT ( 'NONE', 'WORKASPACE' ) );
#306 = VERTEX_POINT ( 'NONE', #44 ) ;
#307 = APPROVAL_PERSON_ORGANIZATION ( #55, #297, #42 ) ;
#308 = VERTEX_POINT ( 'NONE', #211 ) ;
#309 = DIRECTION ( 'NONE',  ( -1.000000000000000000, 0.0000000000000000000, -0.0000000000000000000 ) ) ;
#310 = PERSON ( 'UNSPECIFIED', 'UNSPECIFIED', 'UNSPECIFIED', ('UNSPECIFIED'), ('UNSPECIFIED'), ('UNSPECIFIED') ) ;
#311 = CARTESIAN_POINT ( 'NONE',  ( 32.75000000000000000, 7.776507174585700100E-016, -6.350000000000005900 ) ) ;
#312 = EDGE_CURVE ( 'NONE', #277, #29, #127, .T. ) ;
#313 = PERSON_AND_ORGANIZATION_ROLE ( 'design_owner' ) ;
ENDSEC;
END-ISO-10303-21;
