ISO-10303-21;
HEADER;
FILE_DESCRIPTION (( 'STEP AP203' ),
    '1' );
FILE_NAME ('03-2082.STEP',
    '2023-06-13T04:54:59',
    ( 'USER' ),
    ( 'Hewlett-Packard Company' ),
    'SwSTEP 2.0',
    'SolidWorks 2014',
    '' );
FILE_SCHEMA (( 'CONFIG_CONTROL_DESIGN' ));
ENDSEC;

DATA;
#1 = ADVANCED_FACE ( 'NONE', ( #134 ), #372, .T. ) ;
#2 = LINE ( 'NONE', #190, #100 ) ;
#3 = CARTESIAN_POINT ( 'NONE',  ( 1.000000000000000900, 2.124770661738875100E-016, 0.0000000000000000000 ) ) ;
#4 = EDGE_CURVE ( 'NONE', #334, #9, #39, .T. ) ;
#5 = DIRECTION ( 'NONE',  ( 1.000000000000000000, 0.0000000000000000000, 0.0000000000000000000 ) ) ;
#6 = DIRECTION ( 'NONE',  ( 1.000000000000000000, 1.248366668807641100E-016, -0.0000000000000000000 ) ) ;
#7 = VERTEX_POINT ( 'NONE', #21 ) ;
#8 = ORIENTED_EDGE ( 'NONE', *, *, #4, .F. ) ;
#9 = VERTEX_POINT ( 'NONE', #344 ) ;
#10 = AXIS2_PLACEMENT_3D ( 'NONE', #399, #245, #370 ) ;
#11 = CARTESIAN_POINT ( 'NONE',  ( 0.7937499999999871900, -6.349999999999999600, 0.0000000000000000000 ) ) ;
#12 = CARTESIAN_POINT ( 'NONE',  ( 0.9999999999999978900, 1.592040838891556900E-016, 0.0000000000000000000 ) ) ;
#13 = PERSON_AND_ORGANIZATION ( #232, #98 ) ;
#14 = APPLICATION_CONTEXT ( 'configuration controlled 3d designs of mechanical parts and assemblies' ) ;
#15 = CONICAL_SURFACE ( 'NONE', #70, 7.143749999999999800, 0.7853981633974574900 ) ;
#16 = PERSON_AND_ORGANIZATION_ROLE ( 'creator' ) ;
#17 = EDGE_CURVE ( 'NONE', #9, #334, #124, .T. ) ;
#18 = ORIENTED_EDGE ( 'NONE', *, *, #34, .F. ) ;
#19 = VERTEX_POINT ( 'NONE', #246 ) ;
#20 = AXIS2_PLACEMENT_3D ( 'NONE', #275, #107, #335 ) ;
#21 = CARTESIAN_POINT ( 'NONE',  ( -2.444020104105509600E-017, 7.143749999999999800, 0.0000000000000000000 ) ) ;
#22 = CARTESIAN_POINT ( 'NONE',  ( -49.80000000000000400, -6.182498593653661400E-015, 0.0000000000000000000 ) ) ;
#23 = FACE_OUTER_BOUND ( 'NONE', #155, .T. ) ;
#24 = ADVANCED_FACE ( 'NONE', ( #304 ), #207, .T. ) ;
#25 = EDGE_CURVE ( 'NONE', #220, #19, #214, .T. ) ;
#26 = EDGE_LOOP ( 'NONE', ( #104, #277 ) ) ;
#27 = AXIS2_PLACEMENT_3D ( 'NONE', #378, #263, #89 ) ;
#28 = CARTESIAN_POINT ( 'NONE',  ( -49.49999999999999300, 6.349999999999992500, 0.0000000000000000000 ) ) ;
#29 = DIRECTION ( 'NONE',  ( -1.000000000000000000, -0.0000000000000000000, -0.0000000000000000000 ) ) ;
#30 = LINE ( 'NONE', #253, #285 ) ;
#31 = CARTESIAN_POINT ( 'NONE',  ( 0.9999999999999991100, 1.592040838891558600E-016, 0.0000000000000000000 ) ) ;
#32 = DIRECTION ( 'NONE',  ( 1.000000000000000000, 1.248366668807641100E-016, -0.0000000000000000000 ) ) ;
#33 = COORDINATED_UNIVERSAL_TIME_OFFSET ( 9, 0, .AHEAD. ) ;
#34 = EDGE_CURVE ( 'NONE', #127, #7, #383, .T. ) ;
#35 = ORIENTED_EDGE ( 'NONE', *, *, #34, .T. ) ;
#36 = CARTESIAN_POINT ( 'NONE',  ( -49.49999999999999300, 6.349999999999992500, 0.0000000000000000000 ) ) ;
#37 = CONICAL_SURFACE ( 'NONE', #310, 6.349999999999998800, 0.7853981633974324000 ) ;
#38 = DIRECTION ( 'NONE',  ( 1.000000000000000000, 1.248366668807641100E-016, -0.0000000000000000000 ) ) ;
#39 = CIRCLE ( 'NONE', #342, 7.143749999999999800 ) ;
#40 = DIRECTION ( 'NONE',  ( 1.000000000000000000, 0.0000000000000000000, 0.0000000000000000000 ) ) ;
#41 = SECURITY_CLASSIFICATION_LEVEL ( 'unclassified' ) ;
#42 = LOCAL_TIME ( 13, 54, 59.00000000000000000, #126 ) ;
#43 = EDGE_CURVE ( 'NONE', #410, #220, #293, .T. ) ;
#44 = CARTESIAN_POINT ( 'NONE',  ( 8.673617379884035500E-016, 3.436741700839194300E-017, 0.0000000000000000000 ) ) ;
#45 = DIRECTION ( 'NONE',  ( 0.0000000000000000000, 1.000000000000000000, 0.0000000000000000000 ) ) ;
#46 = AXIS2_PLACEMENT_3D ( 'NONE', #218, #319, #122 ) ;
#47 = CYLINDRICAL_SURFACE ( 'NONE', #369, 6.349999999999999600 ) ;
#48 = VECTOR ( 'NONE', #309, 1000.000000000000000 ) ;
#49 = APPROVAL_DATE_TIME ( #137, #323 ) ;
#50 = ORIENTED_EDGE ( 'NONE', *, *, #92, .F. ) ;
#51 = EDGE_CURVE ( 'NONE', #320, #127, #30, .T. ) ;
#52 = AXIS2_PLACEMENT_3D ( 'NONE', #391, #394, #363 ) ;
#53 = FACE_OUTER_BOUND ( 'NONE', #26, .T. ) ;
#54 = ORIENTED_EDGE ( 'NONE', *, *, #25, .T. ) ;
#55 = CARTESIAN_POINT ( 'NONE',  ( 0.7937499999999856300, 6.349999999999999600, 8.262538872997298700E-016 ) ) ;
#56 = ORIENTED_EDGE ( 'NONE', *, *, #43, .F. ) ;
#57 = APPROVAL_PERSON_ORGANIZATION ( #145, #323, #208 ) ;
#58 = ORIENTED_EDGE ( 'NONE', *, *, #51, .F. ) ;
#59 = DIRECTION ( 'NONE',  ( -1.214154663850783700E-016, 1.000000000000000000, 0.0000000000000000000 ) ) ;
#60 = MANIFOLD_SOLID_BREP ( 'È¸Àü3', #184 ) ;
#61 = EDGE_LOOP ( 'NONE', ( #236, #226, #171, #178 ) ) ;
#62 = CARTESIAN_POINT ( 'NONE',  ( 35.92499999999999700, 8.748570571408911100E-016, -7.143750000000006000 ) ) ;
#63 = LINE ( 'NONE', #230, #148 ) ;
#64 = EDGE_CURVE ( 'NONE', #332, #19, #116, .T. ) ;
#65 = DIRECTION ( 'NONE',  ( -1.000000000000000000, -0.0000000000000000000, -0.0000000000000000000 ) ) ;
#66 = DIRECTION ( 'NONE',  ( -1.365923996832131600E-016, 1.000000000000000000, 0.0000000000000000000 ) ) ;
#67 = VECTOR ( 'NONE', #65, 1000.000000000000000 ) ;
#68 = DIRECTION ( 'NONE',  ( 0.0000000000000000000, 1.000000000000000000, 0.0000000000000000000 ) ) ;
#69 = ORIENTED_EDGE ( 'NONE', *, *, #212, .F. ) ;
#70 = AXIS2_PLACEMENT_3D ( 'NONE', #44, #352, #154 ) ;
#71 = ORIENTED_EDGE ( 'NONE', *, *, #128, .F. ) ;
#72 = PRODUCT_DEFINITION_SHAPE ( 'NONE', 'NONE',  #189 ) ;
#73 =( LENGTH_UNIT ( ) NAMED_UNIT ( * ) SI_UNIT ( .MILLI., .METRE. ) );
#74 = PERSON_AND_ORGANIZATION_ROLE ( 'design_owner' ) ;
#75 = COORDINATED_UNIVERSAL_TIME_OFFSET ( 9, 0, .AHEAD. ) ;
#76 = ORIENTED_EDGE ( 'NONE', *, *, #164, .F. ) ;
#77 = DATE_TIME_ROLE ( 'classification_date' ) ;
#78 = CIRCLE ( 'NONE', #179, 7.143749999999999800 ) ;
#79 = EDGE_CURVE ( 'NONE', #7, #127, #192, .T. ) ;
#80 = FACE_OUTER_BOUND ( 'NONE', #392, .T. ) ;
#81 = CARTESIAN_POINT ( 'NONE',  ( 1.000000000000000000, 0.0000000000000000000, 0.0000000000000000000 ) ) ;
#82 = ORIENTED_EDGE ( 'NONE', *, *, #43, .T. ) ;
#83 = ORIENTED_EDGE ( 'NONE', *, *, #212, .T. ) ;
#84 = AXIS2_PLACEMENT_3D ( 'NONE', #12, #38, #206 ) ;
#85 = ORIENTED_EDGE ( 'NONE', *, *, #185, .T. ) ;
#86 = DIRECTION ( 'NONE',  ( 0.0000000000000000000, 0.0000000000000000000, 1.000000000000000000 ) ) ;
#87 = DIRECTION ( 'NONE',  ( -1.248366668807641100E-016, 1.000000000000000000, 0.0000000000000000000 ) ) ;
#88 = LOCAL_TIME ( 13, 54, 59.00000000000000000, #172 ) ;
#89 = DIRECTION ( 'NONE',  ( 0.0000000000000000000, 1.000000000000000000, 0.0000000000000000000 ) ) ;
#90 = CIRCLE ( 'NONE', #95, 7.143750000000006000 ) ;
#91 = ADVANCED_FACE ( 'NONE', ( #23 ), #15, .F. ) ;
#92 = EDGE_CURVE ( 'NONE', #410, #332, #365, .T. ) ;
#93 = VERTEX_POINT ( 'NONE', #223 ) ;
#94 = VERTEX_POINT ( 'NONE', #55 ) ;
#95 = AXIS2_PLACEMENT_3D ( 'NONE', #227, #29, #265 ) ;
#96 = CARTESIAN_POINT ( 'NONE',  ( 0.9999999999999978900, 1.592040838891556900E-016, 0.0000000000000000000 ) ) ;
#97 = CARTESIAN_POINT ( 'NONE',  ( -49.79999999999999700, -6.182498593653660600E-015, 0.0000000000000000000 ) ) ;
#98 = ORGANIZATION ( 'UNSPECIFIED', 'UNSPECIFIED', '' ) ;
#99 = DIRECTION ( 'NONE',  ( 1.248366668807641100E-016, -1.000000000000000000, 0.0000000000000000000 ) ) ;
#100 = VECTOR ( 'NONE', #381, 1000.000000000000000 ) ;
#101 = DIRECTION ( 'NONE',  ( 1.248366668807641100E-016, -1.000000000000000000, 0.0000000000000000000 ) ) ;
#102 = CARTESIAN_POINT ( 'NONE',  ( -49.80000000000000400, -6.050000000000006000, 7.592810154713588800E-016 ) ) ;
#103 = CARTESIAN_POINT ( 'NONE',  ( 0.9999999999999978900, 1.592040838891556900E-016, 0.0000000000000000000 ) ) ;
#104 = ORIENTED_EDGE ( 'NONE', *, *, #139, .F. ) ;
#105 = EDGE_CURVE ( 'NONE', #210, #334, #354, .T. ) ;
#106 = ORIENTED_EDGE ( 'NONE', *, *, #112, .F. ) ;
#107 = DIRECTION ( 'NONE',  ( 1.000000000000000000, 1.248366668807641100E-016, -0.0000000000000000000 ) ) ;
#108 = VECTOR ( 'NONE', #193, 1000.000000000000000 ) ;
#109 = APPLICATION_PROTOCOL_DEFINITION ( 'international standard', 'config_control_design', 1994, #306 ) ;
#110 = APPROVAL_ROLE ( '' ) ;
#111 = APPROVAL_DATE_TIME ( #195, #221 ) ;
#112 = EDGE_CURVE ( 'NONE', #19, #320, #279, .T. ) ;
#113 = CARTESIAN_POINT ( 'NONE',  ( -49.49999999999999300, -6.350000000000005000, 7.776507174585691200E-016 ) ) ;
#114 = ORIENTED_EDGE ( 'NONE', *, *, #164, .T. ) ;
#115 = AXIS2_PLACEMENT_3D ( 'NONE', #353, #157, #384 ) ;
#116 = CIRCLE ( 'NONE', #27, 6.349999999999998800 ) ;
#117 = CARTESIAN_POINT ( 'NONE',  ( 8.673617379884035500E-016, 3.436741700839194300E-017, 0.0000000000000000000 ) ) ;
#118 = ADVANCED_FACE ( 'NONE', ( #267 ), #339, .T. ) ;
#119 = APPROVAL_PERSON_ORGANIZATION ( #209, #221, #110 ) ;
#120 = ORIENTED_EDGE ( 'NONE', *, *, #176, .T. ) ;
#121 = EDGE_CURVE ( 'NONE', #127, #341, #2, .T. ) ;
#122 = DIRECTION ( 'NONE',  ( -1.248366668807641100E-016, 1.000000000000000000, 0.0000000000000000000 ) ) ;
#123 = FACE_OUTER_BOUND ( 'NONE', #259, .T. ) ;
#124 = CIRCLE ( 'NONE', #360, 7.143749999999999800 ) ;
#125 = DIRECTION ( 'NONE',  ( 1.000000000000000000, 1.248366668807641100E-016, -0.0000000000000000000 ) ) ;
#126 = COORDINATED_UNIVERSAL_TIME_OFFSET ( 9, 0, .AHEAD. ) ;
#127 = VERTEX_POINT ( 'NONE', #225 ) ;
#128 = EDGE_CURVE ( 'NONE', #94, #320, #161, .T. ) ;
#129 = CARTESIAN_POINT ( 'NONE',  ( 0.9999999999999991100, 1.592040838891558600E-016, 0.0000000000000000000 ) ) ;
#130 = DIRECTION ( 'NONE',  ( 1.000000000000000000, 1.248366668807641100E-016, -0.0000000000000000000 ) ) ;
#131 = CARTESIAN_POINT ( 'NONE',  ( 35.92499999999999700, 0.0000000000000000000, 0.0000000000000000000 ) ) ;
#132 = CIRCLE ( 'NONE', #350, 7.143750000000006000 ) ;
#133 = AXIS2_PLACEMENT_3D ( 'NONE', #96, #156, #291 ) ;
#134 = FACE_OUTER_BOUND ( 'NONE', #144, .T. ) ;
#135 =( NAMED_UNIT ( * ) PLANE_ANGLE_UNIT ( ) SI_UNIT ( $, .RADIAN. ) );
#136 = APPROVAL_ROLE ( '' ) ;
#137 = DATE_AND_TIME ( #229, #314 ) ;
#138 = ORIENTED_EDGE ( 'NONE', *, *, #121, .T. ) ;
#139 = EDGE_CURVE ( 'NONE', #93, #210, #90, .T. ) ;
#140 = CYLINDRICAL_SURFACE ( 'NONE', #290, 6.349999999999999600 ) ;
#141 = AXIS2_PLACEMENT_3D ( 'NONE', #305, #240, #40 ) ;
#142 = VERTEX_POINT ( 'NONE', #292 ) ;
#143 = CARTESIAN_POINT ( 'NONE',  ( -49.49999999999999300, -6.145047593589431900E-015, 0.0000000000000000000 ) ) ;
#144 = EDGE_LOOP ( 'NONE', ( #82, #54, #282, #50 ) ) ;
#145 = PERSON_AND_ORGANIZATION ( #232, #98 ) ;
#146 = EDGE_LOOP ( 'NONE', ( #114, #403 ) ) ;
#147 = ADVANCED_FACE ( 'NONE', ( #406 ), #191, .T. ) ;
#148 = VECTOR ( 'NONE', #32, 1000.000000000000000 ) ;
#149 = SECURITY_CLASSIFICATION ( '', '', #41 ) ;
#150 = EDGE_CURVE ( 'NONE', #332, #94, #326, .T. ) ;
#151 = AXIS2_PLACEMENT_3D ( 'NONE', #162, #387, #196 ) ;
#152 = FACE_OUTER_BOUND ( 'NONE', #272, .T. ) ;
#153 = ORIENTED_EDGE ( 'NONE', *, *, #64, .T. ) ;
#154 = DIRECTION ( 'NONE',  ( 1.248366668807641100E-016, -1.000000000000000000, 0.0000000000000000000 ) ) ;
#155 = EDGE_LOOP ( 'NONE', ( #120, #168, #18, #58 ) ) ;
#156 = DIRECTION ( 'NONE',  ( 1.000000000000000000, 1.248366668807641100E-016, -0.0000000000000000000 ) ) ;
#157 = DIRECTION ( 'NONE',  ( 1.000000000000000000, 1.248366668807641100E-016, -0.0000000000000000000 ) ) ;
#158 = PERSON_AND_ORGANIZATION ( #232, #98 ) ;
#159 = CARTESIAN_POINT ( 'NONE',  ( 0.9999999999999970000, 6.349999999999999600, 0.0000000000000000000 ) ) ;
#160 = CARTESIAN_POINT ( 'NONE',  ( -2.444020104105509600E-017, 7.143749999999999800, 8.748570571408905200E-016 ) ) ;
#161 = CIRCLE ( 'NONE', #115, 6.349999999999999600 ) ;
#162 = CARTESIAN_POINT ( 'NONE',  ( -49.80000000000000400, -6.182498593653661400E-015, 0.0000000000000000000 ) ) ;
#163 = DIRECTION ( 'NONE',  ( -1.214154663850783700E-016, 1.000000000000000000, 0.0000000000000000000 ) ) ;
#164 = EDGE_CURVE ( 'NONE', #142, #341, #78, .T. ) ;
#165 = VECTOR ( 'NONE', #228, 1000.000000000000000 ) ;
#166 = DIRECTION ( 'NONE',  ( -1.000000000000000000, 0.0000000000000000000, -0.0000000000000000000 ) ) ;
#167 = ORIENTED_EDGE ( 'NONE', *, *, #121, .F. ) ;
#168 = ORIENTED_EDGE ( 'NONE', *, *, #198, .T. ) ;
#169 = CC_DESIGN_PERSON_AND_ORGANIZATION_ASSIGNMENT ( #13, #74, ( #357 ) ) ;
#170 = DIRECTION ( 'NONE',  ( 0.0000000000000000000, 0.0000000000000000000, 1.000000000000000000 ) ) ;
#171 = ORIENTED_EDGE ( 'NONE', *, *, #17, .F. ) ;
#172 = COORDINATED_UNIVERSAL_TIME_OFFSET ( 9, 0, .AHEAD. ) ;
#173 = DATE_TIME_ROLE ( 'creation_date' ) ;
#174 = VECTOR ( 'NONE', #385, 1000.000000000000000 ) ;
#175 = CC_DESIGN_PERSON_AND_ORGANIZATION_ASSIGNMENT ( #216, #280, ( #149 ) ) ;
#176 = EDGE_CURVE ( 'NONE', #320, #94, #243, .T. ) ;
#177 = CLOSED_SHELL ( 'NONE', ( #1, #295, #91, #118, #147, #348, #405, #182, #255, #315 ) ) ;
#178 = ORIENTED_EDGE ( 'NONE', *, *, #258, .F. ) ;
#179 = AXIS2_PLACEMENT_3D ( 'NONE', #31, #266, #59 ) ;
#180 = SHAPE_DEFINITION_REPRESENTATION ( #72, #268 ) ;
#181 = VECTOR ( 'NONE', #260, 1000.000000000000000 ) ;
#182 = ADVANCED_FACE ( 'NONE', ( #254 ), #331, .F. ) ;
#183 = DIRECTION ( 'NONE',  ( 0.0000000000000000000, 0.0000000000000000000, 1.000000000000000000 ) ) ;
#184 = CLOSED_SHELL ( 'NONE', ( #376, #24, #219, #286 ) ) ;
#185 = EDGE_CURVE ( 'NONE', #7, #142, #63, .T. ) ;
#186 = ORIENTED_EDGE ( 'NONE', *, *, #185, .F. ) ;
#187 = CARTESIAN_POINT ( 'NONE',  ( 0.9999999999999986700, -6.349999999999999600, 7.776507174585692200E-016 ) ) ;
#188 = CARTESIAN_POINT ( 'NONE',  ( 0.0000000000000000000, 8.748570571408907100E-016, -7.143750000000002500 ) ) ;
#189 = PRODUCT_DEFINITION ( 'UNKNOWN', '', #303, #262 ) ;
#190 = CARTESIAN_POINT ( 'NONE',  ( 0.9999999999999986700, -7.143749999999999800, 8.748570571408905200E-016 ) ) ;
#191 = PLANE ( 'NONE',  #204 ) ;
#192 = CIRCLE ( 'NONE', #46, 7.143749999999999800 ) ;
#193 = DIRECTION ( 'NONE',  ( 1.000000000000000000, 1.248366668807641100E-016, -0.0000000000000000000 ) ) ;
#194 = DIRECTION ( 'NONE',  ( -1.000000000000000000, -1.248366668807641100E-016, 0.0000000000000000000 ) ) ;
#195 = DATE_AND_TIME ( #287, #367 ) ;
#196 = DIRECTION ( 'NONE',  ( 0.0000000000000000000, 1.000000000000000000, 0.0000000000000000000 ) ) ;
#197 = CC_DESIGN_DATE_AND_TIME_ASSIGNMENT ( #297, #77, ( #149 ) ) ;
#198 = EDGE_CURVE ( 'NONE', #94, #7, #256, .T. ) ;
#199 = AXIS2_PLACEMENT_3D ( 'NONE', #129, #356, #163 ) ;
#200 = CARTESIAN_POINT ( 'NONE',  ( 35.92499999999999700, 0.0000000000000000000, 0.0000000000000000000 ) ) ;
#201 = ORIENTED_EDGE ( 'NONE', *, *, #112, .T. ) ;
#202 = CARTESIAN_POINT ( 'NONE',  ( 0.9999999999999978900, 1.592040838891556900E-016, 0.0000000000000000000 ) ) ;
#203 = CARTESIAN_POINT ( 'NONE',  ( 1.000000000000000000, -7.143749999999999800, 8.748570571408905200E-016 ) ) ;
#204 = AXIS2_PLACEMENT_3D ( 'NONE', #97, #294, #99 ) ;
#205 = CYLINDRICAL_SURFACE ( 'NONE', #84, 7.143749999999999800 ) ;
#206 = DIRECTION ( 'NONE',  ( -1.214154663850783700E-016, 1.000000000000000000, 0.0000000000000000000 ) ) ;
#207 = CYLINDRICAL_SURFACE ( 'NONE', #10, 7.143750000000002500 ) ;
#208 = APPROVAL_ROLE ( '' ) ;
#209 = PERSON_AND_ORGANIZATION ( #232, #98 ) ;
#210 = VERTEX_POINT ( 'NONE', #62 ) ;
#211 = CARTESIAN_POINT ( 'NONE',  ( 1.000000000000000000, 0.0000000000000000000, 0.0000000000000000000 ) ) ;
#212 = EDGE_CURVE ( 'NONE', #220, #410, #408, .T. ) ;
#213 = APPROVAL ( #338, 'UNSPECIFIED' ) ;
#214 = LINE ( 'NONE', #113, #48 ) ;
#215 = DIRECTION ( 'NONE',  ( 1.000000000000000000, 1.248366668807641100E-016, -0.0000000000000000000 ) ) ;
#216 = PERSON_AND_ORGANIZATION ( #232, #98 ) ;
#217 = EDGE_LOOP ( 'NONE', ( #412, #273, #281, #316 ) ) ;
#218 = CARTESIAN_POINT ( 'NONE',  ( 8.673617379884035500E-016, 3.436741700839194300E-017, 0.0000000000000000000 ) ) ;
#219 = ADVANCED_FACE ( 'NONE', ( #247 ), #327, .F. ) ;
#220 = VERTEX_POINT ( 'NONE', #102 ) ;
#221 = APPROVAL ( #307, 'UNSPECIFIED' ) ;
#222 = AXIS2_PLACEMENT_3D ( 'NONE', #3, #5, #231 ) ;
#223 = CARTESIAN_POINT ( 'NONE',  ( 35.92499999999999700, 0.0000000000000000000, 7.143750000000006000 ) ) ;
#224 = AXIS2_PLACEMENT_3D ( 'NONE', #325, #125, #355 ) ;
#225 = CARTESIAN_POINT ( 'NONE',  ( 1.759163677017862100E-015, -7.143749999999999800, 8.748570571408905200E-016 ) ) ;
#226 = ORIENTED_EDGE ( 'NONE', *, *, #105, .T. ) ;
#227 = CARTESIAN_POINT ( 'NONE',  ( 35.92499999999999700, 0.0000000000000000000, 0.0000000000000000000 ) ) ;
#228 = DIRECTION ( 'NONE',  ( -0.7071067811865411300, 0.7071067811865539000, 8.659560562355013000E-017 ) ) ;
#229 = CALENDAR_DATE ( 2023, 13, 6 ) ;
#230 = CARTESIAN_POINT ( 'NONE',  ( 0.9999999999999970000, 7.143749999999999800, 0.0000000000000000000 ) ) ;
#231 = DIRECTION ( 'NONE',  ( 0.0000000000000000000, 0.0000000000000000000, -1.000000000000000000 ) ) ;
#232 = PERSON ( 'UNSPECIFIED', 'UNSPECIFIED', 'UNSPECIFIED', ('UNSPECIFIED'), ('UNSPECIFIED'), ('UNSPECIFIED') ) ;
#233 = EDGE_CURVE ( 'NONE', #341, #142, #400, .T. ) ;
#234 = DIRECTION ( 'NONE',  ( 1.000000000000000000, 1.248366668807641100E-016, -0.0000000000000000000 ) ) ;
#235 = LINE ( 'NONE', #388, #67 ) ;
#236 = ORIENTED_EDGE ( 'NONE', *, *, #139, .T. ) ;
#237 = CC_DESIGN_APPROVAL ( #213, ( #189 ) ) ;
#238 = PLANE ( 'NONE',  #20 ) ;
#239 = EDGE_LOOP ( 'NONE', ( #351, #138, #76, #186 ) ) ;
#240 = DIRECTION ( 'NONE',  ( 0.0000000000000000000, 0.0000000000000000000, 1.000000000000000000 ) ) ;
#241 = DATE_AND_TIME ( #324, #404 ) ;
#242 = PERSON_AND_ORGANIZATION_ROLE ( 'design_supplier' ) ;
#243 = CIRCLE ( 'NONE', #224, 6.349999999999999600 ) ;
#244 = CC_DESIGN_APPROVAL ( #221, ( #149 ) ) ;
#245 = DIRECTION ( 'NONE',  ( -1.000000000000000000, -0.0000000000000000000, -0.0000000000000000000 ) ) ;
#246 = CARTESIAN_POINT ( 'NONE',  ( -49.49999999999999300, -6.350000000000005000, 7.776507174585696100E-016 ) ) ;
#247 = FACE_OUTER_BOUND ( 'NONE', #393, .T. ) ;
#248 = EDGE_LOOP ( 'NONE', ( #56, #69 ) ) ;
#249 = ORIENTED_EDGE ( 'NONE', *, *, #258, .T. ) ;
#250 = DIRECTION ( 'NONE',  ( 1.000000000000000000, 1.248366668807641100E-016, -0.0000000000000000000 ) ) ;
#251 = AXIS2_PLACEMENT_3D ( 'NONE', #296, #194, #101 ) ;
#252 = APPROVAL_DATE_TIME ( #336, #213 ) ;
#253 = CARTESIAN_POINT ( 'NONE',  ( 1.759163677017862100E-015, -7.143749999999999800, 0.0000000000000000000 ) ) ;
#254 = FACE_OUTER_BOUND ( 'NONE', #217, .T. ) ;
#255 = ADVANCED_FACE ( 'NONE', ( #80 ), #140, .T. ) ;
#256 = LINE ( 'NONE', #160, #165 ) ;
#257 = ORIENTED_EDGE ( 'NONE', *, *, #150, .F. ) ;
#258 = EDGE_CURVE ( 'NONE', #93, #9, #235, .T. ) ;
#259 = EDGE_LOOP ( 'NONE', ( #167, #35, #85, #349 ) ) ;
#260 = DIRECTION ( 'NONE',  ( 0.7071067811865586700, 0.7071067811865363600, 0.0000000000000000000 ) ) ;
#261 = CC_DESIGN_PERSON_AND_ORGANIZATION_ASSIGNMENT ( #158, #366, ( #189 ) ) ;
#262 = DESIGN_CONTEXT ( 'detailed design', #306, 'design' ) ;
#263 = DIRECTION ( 'NONE',  ( 1.000000000000000000, 1.248366668807641100E-016, -0.0000000000000000000 ) ) ;
#264 = APPROVAL_PERSON_ORGANIZATION ( #346, #213, #136 ) ;
#265 = DIRECTION ( 'NONE',  ( 0.0000000000000000000, 0.0000000000000000000, 1.000000000000000000 ) ) ;
#266 = DIRECTION ( 'NONE',  ( 1.000000000000000000, 1.248366668807641100E-016, -0.0000000000000000000 ) ) ;
#267 = FACE_OUTER_BOUND ( 'NONE', #239, .T. ) ;
#268 = ADVANCED_BREP_SHAPE_REPRESENTATION ( '03-2082', ( #60, #340, #141 ), #409 ) ;
#269 = DIRECTION ( 'NONE',  ( 1.000000000000000000, 1.248366668807641100E-016, -0.0000000000000000000 ) ) ;
#270 = CC_DESIGN_SECURITY_CLASSIFICATION ( #149, ( #303 ) ) ;
#271 = AXIS2_PLACEMENT_3D ( 'NONE', #330, #130, #359 ) ;
#272 = EDGE_LOOP ( 'NONE', ( #153, #201, #71, #257 ) ) ;
#273 = ORIENTED_EDGE ( 'NONE', *, *, #128, .T. ) ;
#274 = CARTESIAN_POINT ( 'NONE',  ( 1.000000000000000000, 8.748570571408905200E-016, -7.143749999999999800 ) ) ;
#275 = CARTESIAN_POINT ( 'NONE',  ( 0.9999999999999976700, 7.143749999999999800, 0.0000000000000000000 ) ) ;
#276 = CARTESIAN_POINT ( 'NONE',  ( -49.80000000000000400, 6.049999999999993600, 0.0000000000000000000 ) ) ;
#277 = ORIENTED_EDGE ( 'NONE', *, *, #301, .F. ) ;
#278 = MECHANICAL_CONTEXT ( 'NONE', #14, 'mechanical' ) ;
#279 = LINE ( 'NONE', #187, #108 ) ;
#280 = PERSON_AND_ORGANIZATION_ROLE ( 'classification_officer' ) ;
#281 = ORIENTED_EDGE ( 'NONE', *, *, #51, .T. ) ;
#282 = ORIENTED_EDGE ( 'NONE', *, *, #64, .F. ) ;
#283 = EDGE_CURVE ( 'NONE', #19, #332, #318, .T. ) ;
#284 = CC_DESIGN_DATE_AND_TIME_ASSIGNMENT ( #241, #173, ( #189 ) ) ;
#285 = VECTOR ( 'NONE', #398, 1000.000000000000000 ) ;
#286 = ADVANCED_FACE ( 'NONE', ( #53 ), #300, .F. ) ;
#287 = CALENDAR_DATE ( 2023, 13, 6 ) ;
#288 = PRODUCT_RELATED_PRODUCT_CATEGORY ( 'detail', '', ( #357 ) ) ;
#289 = ORIENTED_EDGE ( 'NONE', *, *, #92, .T. ) ;
#290 = AXIS2_PLACEMENT_3D ( 'NONE', #103, #269, #328 ) ;
#291 = DIRECTION ( 'NONE',  ( -1.214154663850783700E-016, 1.000000000000000000, 0.0000000000000000000 ) ) ;
#292 = CARTESIAN_POINT ( 'NONE',  ( 0.9999999999999983300, 7.143749999999999800, 0.0000000000000000000 ) ) ;
#293 = CIRCLE ( 'NONE', #379, 6.049999999999999800 ) ;
#294 = DIRECTION ( 'NONE',  ( -1.000000000000000000, -1.248366668807641100E-016, 0.0000000000000000000 ) ) ;
#295 = ADVANCED_FACE ( 'NONE', ( #152 ), #47, .T. ) ;
#296 = CARTESIAN_POINT ( 'NONE',  ( 8.673617379884035500E-016, 3.436741700839194300E-017, 0.0000000000000000000 ) ) ;
#297 = DATE_AND_TIME ( #375, #42 ) ;
#298 = EDGE_LOOP ( 'NONE', ( #322, #83, #289, #411 ) ) ;
#299 = ORIENTED_EDGE ( 'NONE', *, *, #17, .T. ) ;
#300 = PLANE ( 'NONE',  #329 ) ;
#301 = EDGE_CURVE ( 'NONE', #210, #93, #132, .T. ) ;
#302 = FACE_OUTER_BOUND ( 'NONE', #61, .T. ) ;
#303 = PRODUCT_DEFINITION_FORMATION_WITH_SPECIFIED_SOURCE ( 'ANY', '', #357, .NOT_KNOWN. ) ;
#304 = FACE_OUTER_BOUND ( 'NONE', #368, .T. ) ;
#305 = CARTESIAN_POINT ( 'NONE',  ( 0.0000000000000000000, 0.0000000000000000000, 0.0000000000000000000 ) ) ;
#306 = APPLICATION_CONTEXT ( 'configuration controlled 3d designs of mechanical parts and assemblies' ) ;
#307 = APPROVAL_STATUS ( 'not_yet_approved' ) ;
#308 = PERSON_AND_ORGANIZATION ( #232, #98 ) ;
#309 = DIRECTION ( 'NONE',  ( 0.7071067811865589000, -0.7071067811865361400, 8.659560562354794800E-017 ) ) ;
#310 = AXIS2_PLACEMENT_3D ( 'NONE', #333, #234, #68 ) ;
#311 = DIRECTION ( 'NONE',  ( -1.000000000000000000, -0.0000000000000000000, -0.0000000000000000000 ) ) ;
#312 = ORIENTED_EDGE ( 'NONE', *, *, #283, .T. ) ;
#313 = DIRECTION ( 'NONE',  ( 1.000000000000000000, 1.248366668807641100E-016, -0.0000000000000000000 ) ) ;
#314 = LOCAL_TIME ( 13, 54, 59.00000000000000000, #397 ) ;
#315 = ADVANCED_FACE ( 'NONE', ( #390 ), #37, .T. ) ;
#316 = ORIENTED_EDGE ( 'NONE', *, *, #79, .F. ) ;
#317 = AXIS2_PLACEMENT_3D ( 'NONE', #143, #250, #45 ) ;
#318 = CIRCLE ( 'NONE', #271, 6.349999999999998800 ) ;
#319 = DIRECTION ( 'NONE',  ( 1.000000000000000000, 1.248366668807641100E-016, -0.0000000000000000000 ) ) ;
#320 = VERTEX_POINT ( 'NONE', #11 ) ;
#321 = DIRECTION ( 'NONE',  ( -1.000000000000000000, -0.0000000000000000000, -0.0000000000000000000 ) ) ;
#322 = ORIENTED_EDGE ( 'NONE', *, *, #25, .F. ) ;
#323 = APPROVAL ( #396, 'UNSPECIFIED' ) ;
#324 = CALENDAR_DATE ( 2023, 13, 6 ) ;
#325 = CARTESIAN_POINT ( 'NONE',  ( 0.7937499999999864100, 1.334565213449966600E-016, 0.0000000000000000000 ) ) ;
#326 = LINE ( 'NONE', #159, #174 ) ;
#327 = PLANE ( 'NONE',  #222 ) ;
#328 = DIRECTION ( 'NONE',  ( -1.365923996832131600E-016, 1.000000000000000000, 0.0000000000000000000 ) ) ;
#329 = AXIS2_PLACEMENT_3D ( 'NONE', #200, #166, #389 ) ;
#330 = CARTESIAN_POINT ( 'NONE',  ( -49.49999999999999300, -6.145047593589431900E-015, 0.0000000000000000000 ) ) ;
#331 = CONICAL_SURFACE ( 'NONE', #251, 7.143749999999999800, 0.7853981633974574900 ) ;
#332 = VERTEX_POINT ( 'NONE', #36 ) ;
#333 = CARTESIAN_POINT ( 'NONE',  ( -49.49999999999999300, -6.145047593589431900E-015, 0.0000000000000000000 ) ) ;
#334 = VERTEX_POINT ( 'NONE', #274 ) ;
#335 = DIRECTION ( 'NONE',  ( -1.248366668807641100E-016, 1.000000000000000000, 0.0000000000000000000 ) ) ;
#336 = DATE_AND_TIME ( #413, #88 ) ;
#337 = ORIENTED_EDGE ( 'NONE', *, *, #301, .T. ) ;
#338 = APPROVAL_STATUS ( 'not_yet_approved' ) ;
#339 = CYLINDRICAL_SURFACE ( 'NONE', #133, 7.143749999999999800 ) ;
#340 = MANIFOLD_SOLID_BREP ( 'È¸Àü4', #177 ) ;
#341 = VERTEX_POINT ( 'NONE', #203 ) ;
#342 = AXIS2_PLACEMENT_3D ( 'NONE', #81, #311, #86 ) ;
#343 = ORIENTED_EDGE ( 'NONE', *, *, #4, .T. ) ;
#344 = CARTESIAN_POINT ( 'NONE',  ( 1.000000000000000000, 0.0000000000000000000, 7.143749999999999800 ) ) ;
#345 = CC_DESIGN_APPROVAL ( #323, ( #303 ) ) ;
#346 = PERSON_AND_ORGANIZATION ( #232, #98 ) ;
#347 = VECTOR ( 'NONE', #321, 1000.000000000000000 ) ;
#348 = ADVANCED_FACE ( 'NONE', ( #380 ), #238, .T. ) ;
#349 = ORIENTED_EDGE ( 'NONE', *, *, #233, .F. ) ;
#350 = AXIS2_PLACEMENT_3D ( 'NONE', #131, #361, #170 ) ;
#351 = ORIENTED_EDGE ( 'NONE', *, *, #79, .T. ) ;
#352 = DIRECTION ( 'NONE',  ( -1.000000000000000000, -1.248366668807641100E-016, 0.0000000000000000000 ) ) ;
#353 = CARTESIAN_POINT ( 'NONE',  ( 0.7937499999999864100, 1.334565213449966600E-016, 0.0000000000000000000 ) ) ;
#354 = LINE ( 'NONE', #188, #347 ) ;
#355 = DIRECTION ( 'NONE',  ( -1.195183497228115300E-016, 1.000000000000000000, 0.0000000000000000000 ) ) ;
#356 = DIRECTION ( 'NONE',  ( 1.000000000000000000, 1.248366668807641100E-016, -0.0000000000000000000 ) ) ;
#357 = PRODUCT ( '03-2082', '03-2082', '', ( #278 ) ) ;
#358 = ORIENTED_EDGE ( 'NONE', *, *, #176, .F. ) ;
#359 = DIRECTION ( 'NONE',  ( 0.0000000000000000000, 1.000000000000000000, 0.0000000000000000000 ) ) ;
#360 = AXIS2_PLACEMENT_3D ( 'NONE', #211, #374, #183 ) ;
#361 = DIRECTION ( 'NONE',  ( -1.000000000000000000, -0.0000000000000000000, -0.0000000000000000000 ) ) ;
#362 = CC_DESIGN_PERSON_AND_ORGANIZATION_ASSIGNMENT ( #386, #16, ( #303 ) ) ;
#363 = DIRECTION ( 'NONE',  ( 0.0000000000000000000, 0.0000000000000000000, 1.000000000000000000 ) ) ;
#364 =( NAMED_UNIT ( * ) SI_UNIT ( $, .STERADIAN. ) SOLID_ANGLE_UNIT ( ) );
#365 = LINE ( 'NONE', #28, #181 ) ;
#366 = PERSON_AND_ORGANIZATION_ROLE ( 'creator' ) ;
#367 = LOCAL_TIME ( 13, 54, 59.00000000000000000, #33 ) ;
#368 = EDGE_LOOP ( 'NONE', ( #377, #337, #249, #8 ) ) ;
#369 = AXIS2_PLACEMENT_3D ( 'NONE', #202, #6, #66 ) ;
#370 = DIRECTION ( 'NONE',  ( 0.0000000000000000000, 0.0000000000000000000, 1.000000000000000000 ) ) ;
#371 = CYLINDRICAL_SURFACE ( 'NONE', #52, 7.143750000000002500 ) ;
#372 = CONICAL_SURFACE ( 'NONE', #317, 6.349999999999998800, 0.7853981633974324000 ) ;
#373 = DIRECTION ( 'NONE',  ( 0.0000000000000000000, 1.000000000000000000, 0.0000000000000000000 ) ) ;
#374 = DIRECTION ( 'NONE',  ( -1.000000000000000000, -0.0000000000000000000, -0.0000000000000000000 ) ) ;
#375 = CALENDAR_DATE ( 2023, 13, 6 ) ;
#376 = ADVANCED_FACE ( 'NONE', ( #302 ), #371, .T. ) ;
#377 = ORIENTED_EDGE ( 'NONE', *, *, #105, .F. ) ;
#378 = CARTESIAN_POINT ( 'NONE',  ( -49.49999999999999300, -6.145047593589431900E-015, 0.0000000000000000000 ) ) ;
#379 = AXIS2_PLACEMENT_3D ( 'NONE', #22, #215, #373 ) ;
#380 = FACE_OUTER_BOUND ( 'NONE', #146, .T. ) ;
#381 = DIRECTION ( 'NONE',  ( 1.000000000000000000, 1.248366668807641100E-016, -0.0000000000000000000 ) ) ;
#382 = CC_DESIGN_PERSON_AND_ORGANIZATION_ASSIGNMENT ( #308, #242, ( #303 ) ) ;
#383 = CIRCLE ( 'NONE', #402, 7.143749999999999800 ) ;
#384 = DIRECTION ( 'NONE',  ( -1.195183497228115300E-016, 1.000000000000000000, 0.0000000000000000000 ) ) ;
#385 = DIRECTION ( 'NONE',  ( 1.000000000000000000, 1.248366668807641100E-016, -0.0000000000000000000 ) ) ;
#386 = PERSON_AND_ORGANIZATION ( #232, #98 ) ;
#387 = DIRECTION ( 'NONE',  ( 1.000000000000000000, 1.248366668807641100E-016, -0.0000000000000000000 ) ) ;
#388 = CARTESIAN_POINT ( 'NONE',  ( 0.0000000000000000000, 0.0000000000000000000, 7.143750000000002500 ) ) ;
#389 = DIRECTION ( 'NONE',  ( -0.0000000000000000000, 0.0000000000000000000, 1.000000000000000000 ) ) ;
#390 = FACE_OUTER_BOUND ( 'NONE', #298, .T. ) ;
#391 = CARTESIAN_POINT ( 'NONE',  ( 0.0000000000000000000, 0.0000000000000000000, 0.0000000000000000000 ) ) ;
#392 = EDGE_LOOP ( 'NONE', ( #106, #312, #401, #358 ) ) ;
#393 = EDGE_LOOP ( 'NONE', ( #299, #343 ) ) ;
#394 = DIRECTION ( 'NONE',  ( -1.000000000000000000, -0.0000000000000000000, -0.0000000000000000000 ) ) ;
#395 = APPLICATION_PROTOCOL_DEFINITION ( 'international standard', 'config_control_design', 1994, #14 ) ;
#396 = APPROVAL_STATUS ( 'not_yet_approved' ) ;
#397 = COORDINATED_UNIVERSAL_TIME_OFFSET ( 9, 0, .AHEAD. ) ;
#398 = DIRECTION ( 'NONE',  ( -0.7071067811865409100, -0.7071067811865541200, 0.0000000000000000000 ) ) ;
#399 = CARTESIAN_POINT ( 'NONE',  ( 0.0000000000000000000, 0.0000000000000000000, 0.0000000000000000000 ) ) ;
#400 = CIRCLE ( 'NONE', #199, 7.143749999999999800 ) ;
#401 = ORIENTED_EDGE ( 'NONE', *, *, #150, .T. ) ;
#402 = AXIS2_PLACEMENT_3D ( 'NONE', #117, #313, #87 ) ;
#403 = ORIENTED_EDGE ( 'NONE', *, *, #233, .T. ) ;
#404 = LOCAL_TIME ( 13, 54, 59.00000000000000000, #75 ) ;
#405 = ADVANCED_FACE ( 'NONE', ( #123 ), #205, .T. ) ;
#406 = FACE_OUTER_BOUND ( 'NONE', #248, .T. ) ;
#407 = UNCERTAINTY_MEASURE_WITH_UNIT (LENGTH_MEASURE( 1.000000000000000100E-005 ), #73, 'distance_accuracy_value', 'NONE');
#408 = CIRCLE ( 'NONE', #151, 6.049999999999999800 ) ;
#409 =( GEOMETRIC_REPRESENTATION_CONTEXT ( 3 ) GLOBAL_UNCERTAINTY_ASSIGNED_CONTEXT ( ( #407 ) ) GLOBAL_UNIT_ASSIGNED_CONTEXT ( ( #73, #135, #364 ) ) REPRESENTATION_CONTEXT ( 'NONE', 'WORKASPACE' ) );
#410 = VERTEX_POINT ( 'NONE', #276 ) ;
#411 = ORIENTED_EDGE ( 'NONE', *, *, #283, .F. ) ;
#412 = ORIENTED_EDGE ( 'NONE', *, *, #198, .F. ) ;
#413 = CALENDAR_DATE ( 2023, 13, 6 ) ;
ENDSEC;
END-ISO-10303-21;
