ISO-10303-21;
HEADER;
FILE_DESCRIPTION (( 'STEP AP203' ),
    '1' );
FILE_NAME ('03-2083.STEP',
    '2023-06-13T05:00:23',
    ( 'USER' ),
    ( 'Hewlett-Packard Company' ),
    'SwSTEP 2.0',
    'SolidWorks 2014',
    '' );
FILE_SCHEMA (( 'CONFIG_CONTROL_DESIGN' ));
ENDSEC;

DATA;
#1 = CALENDAR_DATE ( 2023, 13, 6 ) ;
#2 = ORIENTED_EDGE ( 'NONE', *, *, #304, .F. ) ;
#3 = AXIS2_PLACEMENT_3D ( 'NONE', #265, #116, #288 ) ;
#4 = CONICAL_SURFACE ( 'NONE', #188, 7.937500000000001800, 0.7853981633974497200 ) ;
#5 = APPLICATION_CONTEXT ( 'configuration controlled 3d designs of mechanical parts and assemblies' ) ;
#6 = PERSON_AND_ORGANIZATION_ROLE ( 'creator' ) ;
#7 = DATE_AND_TIME ( #69, #136 ) ;
#8 = ORIENTED_EDGE ( 'NONE', *, *, #240, .T. ) ;
#9 = EDGE_CURVE ( 'NONE', #215, #306, #93, .T. ) ;
#10 = APPROVAL ( #296, 'UNSPECIFIED' ) ;
#11 = VECTOR ( 'NONE', #213, 1000.000000000000000 ) ;
#12 = CARTESIAN_POINT ( 'NONE',  ( -52.97499999999999400, -7.637500000000005500, 9.536936948360011900E-016 ) ) ;
#13 = PERSON_AND_ORGANIZATION ( #91, #148 ) ;
#14 = DIRECTION ( 'NONE',  ( 0.0000000000000000000, 0.0000000000000000000, 1.000000000000000000 ) ) ;
#15 = VERTEX_POINT ( 'NONE', #12 ) ;
#16 = DIRECTION ( 'NONE',  ( 0.7071067811865465700, -0.7071067811865483500, 8.659560562354945200E-017 ) ) ;
#17 = ADVANCED_BREP_SHAPE_REPRESENTATION ( '03-2083', ( #73, #131, #197 ), #128 ) ;
#18 = CARTESIAN_POINT ( 'NONE',  ( 1.000000000000000000, 9.720633968232118200E-016, -7.937500000000000000 ) ) ;
#19 = AXIS2_PLACEMENT_3D ( 'NONE', #68, #216, #46 ) ;
#20 = ADVANCED_FACE ( 'NONE', ( #218 ), #159, .F. ) ;
#21 = ORIENTED_EDGE ( 'NONE', *, *, #223, .T. ) ;
#22 = EDGE_CURVE ( 'NONE', #250, #292, #226, .T. ) ;
#23 = CC_DESIGN_APPROVAL ( #10, ( #307 ) ) ;
#24 = CYLINDRICAL_SURFACE ( 'NONE', #139, 7.937500000000003600 ) ;
#25 = DIRECTION ( 'NONE',  ( 1.000000000000000000, 0.0000000000000000000, 0.0000000000000000000 ) ) ;
#26 = ORIENTED_EDGE ( 'NONE', *, *, #209, .F. ) ;
#27 = SECURITY_CLASSIFICATION_LEVEL ( 'unclassified' ) ;
#28 = LOCAL_TIME ( 14, 0, 23.00000000000000000, #92 ) ;
#29 = VECTOR ( 'NONE', #207, 1000.000000000000000 ) ;
#30 = AXIS2_PLACEMENT_3D ( 'NONE', #259, #283, #138 ) ;
#31 = DESIGN_CONTEXT ( 'detailed design', #220, 'design' ) ;
#32 = CARTESIAN_POINT ( 'NONE',  ( -52.67499999999999000, 7.937499999999994700, 0.0000000000000000000 ) ) ;
#33 = DIRECTION ( 'NONE',  ( -1.000000000000000000, 0.0000000000000000000, -0.0000000000000000000 ) ) ;
#34 = CYLINDRICAL_SURFACE ( 'NONE', #105, 7.937500000000000000 ) ;
#35 = ORIENTED_EDGE ( 'NONE', *, *, #127, .F. ) ;
#36 = CARTESIAN_POINT ( 'NONE',  ( 1.000000000000000400, 1.092739197465706200E-016, 0.0000000000000000000 ) ) ;
#37 = CARTESIAN_POINT ( 'NONE',  ( 0.0000000000000000000, 0.0000000000000000000, 0.0000000000000000000 ) ) ;
#38 = CC_DESIGN_PERSON_AND_ORGANIZATION_ASSIGNMENT ( #47, #6, ( #307 ) ) ;
#39 = CALENDAR_DATE ( 2023, 13, 6 ) ;
#40 = EDGE_LOOP ( 'NONE', ( #26, #8, #298, #160 ) ) ;
#41 = CARTESIAN_POINT ( 'NONE',  ( -52.97499999999999400, -6.453549136775041400E-015, 0.0000000000000000000 ) ) ;
#42 = CARTESIAN_POINT ( 'NONE',  ( 1.000000000000000000, 0.0000000000000000000, 0.0000000000000000000 ) ) ;
#43 = DIRECTION ( 'NONE',  ( 1.000000000000000000, 1.195655236086158700E-016, -0.0000000000000000000 ) ) ;
#44 = LINE ( 'NONE', #67, #122 ) ;
#45 = ADVANCED_FACE ( 'NONE', ( #84 ), #211, .T. ) ;
#46 = DIRECTION ( 'NONE',  ( 0.0000000000000000000, 0.0000000000000000000, 1.000000000000000000 ) ) ;
#47 = PERSON_AND_ORGANIZATION ( #91, #148 ) ;
#48 = ORIENTED_EDGE ( 'NONE', *, *, #289, .F. ) ;
#49 = CIRCLE ( 'NONE', #3, 7.937500000000000000 ) ;
#50 = ORIENTED_EDGE ( 'NONE', *, *, #22, .F. ) ;
#51 = PERSON_AND_ORGANIZATION_ROLE ( 'design_owner' ) ;
#52 = DATE_TIME_ROLE ( 'classification_date' ) ;
#53 = COORDINATED_UNIVERSAL_TIME_OFFSET ( 9, 0, .AHEAD. ) ;
#54 = CLOSED_SHELL ( 'NONE', ( #66, #264, #20, #115 ) ) ;
#55 = CC_DESIGN_PERSON_AND_ORGANIZATION_ASSIGNMENT ( #297, #177, ( #307 ) ) ;
#56 = CIRCLE ( 'NONE', #234, 7.937500000000001800 ) ;
#57 = DIRECTION ( 'NONE',  ( 1.000000000000000000, 1.195655236086158700E-016, -0.0000000000000000000 ) ) ;
#58 = CARTESIAN_POINT ( 'NONE',  ( 0.9999999999999988900, -1.198659399773085800E-031, 0.0000000000000000000 ) ) ;
#59 = AXIS2_PLACEMENT_3D ( 'NONE', #308, #86, #117 ) ;
#60 = LOCAL_TIME ( 14, 0, 23.00000000000000000, #129 ) ;
#61 = ORIENTED_EDGE ( 'NONE', *, *, #194, .F. ) ;
#62 = DIRECTION ( 'NONE',  ( 0.0000000000000000000, 0.0000000000000000000, -1.000000000000000000 ) ) ;
#63 = DIRECTION ( 'NONE',  ( 0.0000000000000000000, 1.000000000000000000, 0.0000000000000000000 ) ) ;
#64 = CIRCLE ( 'NONE', #204, 7.937500000000000000 ) ;
#65 = CARTESIAN_POINT ( 'NONE',  ( 0.0000000000000000000, 0.0000000000000000000, 7.937500000000003600 ) ) ;
#66 = ADVANCED_FACE ( 'NONE', ( #103 ), #24, .T. ) ;
#67 = CARTESIAN_POINT ( 'NONE',  ( -52.67499999999999000, -7.937500000000008900, 9.720633968232118200E-016 ) ) ;
#68 = CARTESIAN_POINT ( 'NONE',  ( 42.27499999999999900, 0.0000000000000000000, 0.0000000000000000000 ) ) ;
#69 = CALENDAR_DATE ( 2023, 13, 6 ) ;
#70 = ORIENTED_EDGE ( 'NONE', *, *, #104, .F. ) ;
#71 = AXIS2_PLACEMENT_3D ( 'NONE', #36, #157, #62 ) ;
#72 = SECURITY_CLASSIFICATION ( '', '', #27 ) ;
#73 = MANIFOLD_SOLID_BREP ( 'È¸Àü3', #54 ) ;
#74 = VECTOR ( 'NONE', #189, 1000.000000000000000 ) ;
#75 = APPLICATION_PROTOCOL_DEFINITION ( 'international standard', 'config_control_design', 1994, #220 ) ;
#76 = PERSON_AND_ORGANIZATION ( #91, #148 ) ;
#77 = ORIENTED_EDGE ( 'NONE', *, *, #88, .T. ) ;
#78 = AXIS2_PLACEMENT_3D ( 'NONE', #170, #278, #147 ) ;
#79 = APPROVAL_ROLE ( '' ) ;
#80 = DIRECTION ( 'NONE',  ( -1.092739197465705300E-016, 1.000000000000000000, 0.0000000000000000000 ) ) ;
#81 = ORIENTED_EDGE ( 'NONE', *, *, #272, .F. ) ;
#82 = CARTESIAN_POINT ( 'NONE',  ( 1.000000000000000900, -7.937500000000000000, 9.720633968232116200E-016 ) ) ;
#83 = CC_DESIGN_PERSON_AND_ORGANIZATION_ASSIGNMENT ( #232, #202, ( #72 ) ) ;
#84 = FACE_OUTER_BOUND ( 'NONE', #268, .T. ) ;
#85 = DIRECTION ( 'NONE',  ( -1.000000000000000000, -0.0000000000000000000, -0.0000000000000000000 ) ) ;
#86 = DIRECTION ( 'NONE',  ( 1.000000000000000000, 1.195655236086158700E-016, -0.0000000000000000000 ) ) ;
#87 = ORIENTED_EDGE ( 'NONE', *, *, #178, .F. ) ;
#88 = EDGE_CURVE ( 'NONE', #219, #292, #302, .T. ) ;
#89 = CARTESIAN_POINT ( 'NONE',  ( 1.000000000000000000, 0.0000000000000000000, 0.0000000000000000000 ) ) ;
#90 = AXIS2_PLACEMENT_3D ( 'NONE', #106, #145, #286 ) ;
#91 = PERSON ( 'UNSPECIFIED', 'UNSPECIFIED', 'UNSPECIFIED', ('UNSPECIFIED'), ('UNSPECIFIED'), ('UNSPECIFIED') ) ;
#92 = COORDINATED_UNIVERSAL_TIME_OFFSET ( 9, 0, .AHEAD. ) ;
#93 = LINE ( 'NONE', #231, #29 ) ;
#94 = CIRCLE ( 'NONE', #90, 7.637499999999999300 ) ;
#95 =( NAMED_UNIT ( * ) PLANE_ANGLE_UNIT ( ) SI_UNIT ( $, .RADIAN. ) );
#96 = APPROVAL_ROLE ( '' ) ;
#97 = AXIS2_PLACEMENT_3D ( 'NONE', #134, #135, #303 ) ;
#98 = LOCAL_TIME ( 14, 0, 23.00000000000000000, #171 ) ;
#99 = ORIENTED_EDGE ( 'NONE', *, *, #9, .T. ) ;
#100 = CC_DESIGN_DATE_AND_TIME_ASSIGNMENT ( #291, #52, ( #72 ) ) ;
#101 = CARTESIAN_POINT ( 'NONE',  ( -52.97499999999999400, -6.453549136775040600E-015, 0.0000000000000000000 ) ) ;
#102 = CARTESIAN_POINT ( 'NONE',  ( 42.27499999999999900, 0.0000000000000000000, 0.0000000000000000000 ) ) ;
#103 = FACE_OUTER_BOUND ( 'NONE', #287, .T. ) ;
#104 = EDGE_CURVE ( 'NONE', #306, #219, #295, .T. ) ;
#105 = AXIS2_PLACEMENT_3D ( 'NONE', #89, #227, #238 ) ;
#106 = CARTESIAN_POINT ( 'NONE',  ( -52.97499999999999400, -6.453549136775040600E-015, 0.0000000000000000000 ) ) ;
#107 = APPROVAL_DATE_TIME ( #179, #10 ) ;
#108 = CARTESIAN_POINT ( 'NONE',  ( 0.9999999999999981100, 7.937500000000000000, 0.0000000000000000000 ) ) ;
#109 = EDGE_LOOP ( 'NONE', ( #203, #180 ) ) ;
#110 = CARTESIAN_POINT ( 'NONE',  ( 42.27499999999999900, 0.0000000000000000000, 0.0000000000000000000 ) ) ;
#111 = DIRECTION ( 'NONE',  ( 1.195655236086158700E-016, -1.000000000000000000, 0.0000000000000000000 ) ) ;
#112 = CARTESIAN_POINT ( 'NONE',  ( 0.0000000000000000000, 9.720633968232120100E-016, -7.937500000000003600 ) ) ;
#113 = FACE_OUTER_BOUND ( 'NONE', #137, .T. ) ;
#114 = ORIENTED_EDGE ( 'NONE', *, *, #289, .T. ) ;
#115 = ADVANCED_FACE ( 'NONE', ( #313 ), #276, .F. ) ;
#116 = DIRECTION ( 'NONE',  ( -1.000000000000000000, -0.0000000000000000000, -0.0000000000000000000 ) ) ;
#117 = DIRECTION ( 'NONE',  ( 0.0000000000000000000, 1.000000000000000000, 0.0000000000000000000 ) ) ;
#118 = APPROVAL_PERSON_ORGANIZATION ( #184, #10, #152 ) ;
#119 = VERTEX_POINT ( 'NONE', #258 ) ;
#120 = AXIS2_PLACEMENT_3D ( 'NONE', #58, #229, #80 ) ;
#121 = APPROVAL ( #221, 'UNSPECIFIED' ) ;
#122 = VECTOR ( 'NONE', #16, 1000.000000000000100 ) ;
#123 = EDGE_LOOP ( 'NONE', ( #236, #150 ) ) ;
#124 = DATE_AND_TIME ( #279, #28 ) ;
#125 = CLOSED_SHELL ( 'NONE', ( #146, #237, #214, #45, #285, #168 ) ) ;
#126 = DATE_TIME_ROLE ( 'creation_date' ) ;
#127 = EDGE_CURVE ( 'NONE', #15, #215, #156, .T. ) ;
#128 =( GEOMETRIC_REPRESENTATION_CONTEXT ( 3 ) GLOBAL_UNCERTAINTY_ASSIGNED_CONTEXT ( ( #186 ) ) GLOBAL_UNIT_ASSIGNED_CONTEXT ( ( #246, #95, #269 ) ) REPRESENTATION_CONTEXT ( 'NONE', 'WORKASPACE' ) );
#129 = COORDINATED_UNIVERSAL_TIME_OFFSET ( 9, 0, .AHEAD. ) ;
#130 = ORIENTED_EDGE ( 'NONE', *, *, #127, .T. ) ;
#131 = MANIFOLD_SOLID_BREP ( 'È¸Àü4', #125 ) ;
#132 = FACE_OUTER_BOUND ( 'NONE', #153, .T. ) ;
#133 = DIRECTION ( 'NONE',  ( 0.0000000000000000000, 1.000000000000000000, 0.0000000000000000000 ) ) ;
#134 = CARTESIAN_POINT ( 'NONE',  ( 0.9999999999999986700, 7.937500000000000000, 0.0000000000000000000 ) ) ;
#135 = DIRECTION ( 'NONE',  ( 1.000000000000000000, 1.195655236086158700E-016, -0.0000000000000000000 ) ) ;
#136 = LOCAL_TIME ( 14, 0, 23.00000000000000000, #201 ) ;
#137 = EDGE_LOOP ( 'NONE', ( #277, #256, #222, #70 ) ) ;
#138 = DIRECTION ( 'NONE',  ( -1.092739197465705300E-016, 1.000000000000000000, 0.0000000000000000000 ) ) ;
#139 = AXIS2_PLACEMENT_3D ( 'NONE', #37, #193, #14 ) ;
#140 = CC_DESIGN_APPROVAL ( #121, ( #72 ) ) ;
#141 = DIRECTION ( 'NONE',  ( 0.0000000000000000000, 0.0000000000000000000, 1.000000000000000000 ) ) ;
#142 = CARTESIAN_POINT ( 'NONE',  ( -52.67499999999999000, -6.417679479692455400E-015, 0.0000000000000000000 ) ) ;
#143 = FACE_OUTER_BOUND ( 'NONE', #233, .T. ) ;
#144 = DIRECTION ( 'NONE',  ( -1.092739197465705300E-016, 1.000000000000000000, 0.0000000000000000000 ) ) ;
#145 = DIRECTION ( 'NONE',  ( 1.000000000000000000, 1.195655236086158700E-016, -0.0000000000000000000 ) ) ;
#146 = ADVANCED_FACE ( 'NONE', ( #143 ), #4, .T. ) ;
#147 = DIRECTION ( 'NONE',  ( 0.0000000000000000000, 0.0000000000000000000, 1.000000000000000000 ) ) ;
#148 = ORGANIZATION ( 'UNSPECIFIED', 'UNSPECIFIED', '' ) ;
#149 = EDGE_CURVE ( 'NONE', #292, #219, #64, .T. ) ;
#150 = ORIENTED_EDGE ( 'NONE', *, *, #240, .F. ) ;
#151 = VERTEX_POINT ( 'NONE', #167 ) ;
#152 = APPROVAL_ROLE ( '' ) ;
#153 = EDGE_LOOP ( 'NONE', ( #81, #130, #99, #87 ) ) ;
#154 = AXIS2_PLACEMENT_3D ( 'NONE', #101, #274, #133 ) ;
#155 = CC_DESIGN_SECURITY_CLASSIFICATION ( #72, ( #307 ) ) ;
#156 = CIRCLE ( 'NONE', #154, 7.637499999999999300 ) ;
#157 = DIRECTION ( 'NONE',  ( 1.000000000000000000, 0.0000000000000000000, 0.0000000000000000000 ) ) ;
#158 = DIRECTION ( 'NONE',  ( 1.000000000000000000, 1.195655236086158700E-016, -0.0000000000000000000 ) ) ;
#159 = PLANE ( 'NONE',  #71 ) ;
#160 = ORIENTED_EDGE ( 'NONE', *, *, #255, .F. ) ;
#161 = CARTESIAN_POINT ( 'NONE',  ( 0.9999999999999991100, 7.937500000000000000, 0.0000000000000000000 ) ) ;
#162 = EDGE_CURVE ( 'NONE', #151, #301, #199, .T. ) ;
#163 = APPROVAL_PERSON_ORGANIZATION ( #225, #121, #79 ) ;
#164 = VECTOR ( 'NONE', #181, 1000.000000000000000 ) ;
#165 = CARTESIAN_POINT ( 'NONE',  ( -52.97499999999999400, 7.637499999999993100, 0.0000000000000000000 ) ) ;
#166 = DIRECTION ( 'NONE',  ( 0.0000000000000000000, 1.000000000000000000, 0.0000000000000000000 ) ) ;
#167 = CARTESIAN_POINT ( 'NONE',  ( 42.27499999999999900, 0.0000000000000000000, 7.937500000000007100 ) ) ;
#168 = ADVANCED_FACE ( 'NONE', ( #132 ), #311, .T. ) ;
#169 = SHAPE_DEFINITION_REPRESENTATION ( #212, #17 ) ;
#170 = CARTESIAN_POINT ( 'NONE',  ( 0.0000000000000000000, 0.0000000000000000000, 0.0000000000000000000 ) ) ;
#171 = COORDINATED_UNIVERSAL_TIME_OFFSET ( 9, 0, .AHEAD. ) ;
#172 = AXIS2_PLACEMENT_3D ( 'NONE', #102, #33, #206 ) ;
#173 = EDGE_LOOP ( 'NONE', ( #50, #208, #185, #245 ) ) ;
#174 = PRODUCT_RELATED_PRODUCT_CATEGORY ( 'detail', '', ( #198 ) ) ;
#175 = FACE_OUTER_BOUND ( 'NONE', #173, .T. ) ;
#176 = DIRECTION ( 'NONE',  ( 0.0000000000000000000, 0.0000000000000000000, 1.000000000000000000 ) ) ;
#177 = PERSON_AND_ORGANIZATION_ROLE ( 'design_supplier' ) ;
#178 = EDGE_CURVE ( 'NONE', #250, #306, #56, .T. ) ;
#179 = DATE_AND_TIME ( #242, #305 ) ;
#180 = ORIENTED_EDGE ( 'NONE', *, *, #255, .T. ) ;
#181 = DIRECTION ( 'NONE',  ( 1.000000000000000000, 1.195655236086158700E-016, -0.0000000000000000000 ) ) ;
#182 = FACE_OUTER_BOUND ( 'NONE', #40, .T. ) ;
#183 = EDGE_LOOP ( 'NONE', ( #48, #35 ) ) ;
#184 = PERSON_AND_ORGANIZATION ( #91, #148 ) ;
#185 = ORIENTED_EDGE ( 'NONE', *, *, #104, .T. ) ;
#186 = UNCERTAINTY_MEASURE_WITH_UNIT (LENGTH_MEASURE( 1.000000000000000100E-005 ), #246, 'distance_accuracy_value', 'NONE');
#187 = CARTESIAN_POINT ( 'NONE',  ( -52.67499999999999000, -7.937500000000008900, 9.720633968232122100E-016 ) ) ;
#188 = AXIS2_PLACEMENT_3D ( 'NONE', #230, #57, #253 ) ;
#189 = DIRECTION ( 'NONE',  ( -1.000000000000000000, -0.0000000000000000000, -0.0000000000000000000 ) ) ;
#190 = PLANE ( 'NONE',  #299 ) ;
#191 = FACE_OUTER_BOUND ( 'NONE', #183, .T. ) ;
#192 = CARTESIAN_POINT ( 'NONE',  ( 0.9999999999999988900, -1.198659399773085800E-031, 0.0000000000000000000 ) ) ;
#193 = DIRECTION ( 'NONE',  ( -1.000000000000000000, -0.0000000000000000000, -0.0000000000000000000 ) ) ;
#194 = EDGE_CURVE ( 'NONE', #301, #196, #261, .T. ) ;
#195 = PERSON_AND_ORGANIZATION ( #91, #148 ) ;
#196 = VERTEX_POINT ( 'NONE', #18 ) ;
#197 = AXIS2_PLACEMENT_3D ( 'NONE', #263, #176, #25 ) ;
#198 = PRODUCT ( '03-2083', '03-2083', '', ( #200 ) ) ;
#199 = LINE ( 'NONE', #65, #11 ) ;
#200 = MECHANICAL_CONTEXT ( 'NONE', #5, 'mechanical' ) ;
#201 = COORDINATED_UNIVERSAL_TIME_OFFSET ( 9, 0, .AHEAD. ) ;
#202 = PERSON_AND_ORGANIZATION_ROLE ( 'classification_officer' ) ;
#203 = ORIENTED_EDGE ( 'NONE', *, *, #194, .T. ) ;
#204 = AXIS2_PLACEMENT_3D ( 'NONE', #192, #284, #144 ) ;
#205 = CARTESIAN_POINT ( 'NONE',  ( 0.9999999999999997800, -7.937500000000000000, 9.720633968232116200E-016 ) ) ;
#206 = DIRECTION ( 'NONE',  ( -0.0000000000000000000, 0.0000000000000000000, 1.000000000000000000 ) ) ;
#207 = DIRECTION ( 'NONE',  ( 0.7071067811865464600, 0.7071067811865486800, 0.0000000000000000000 ) ) ;
#208 = ORIENTED_EDGE ( 'NONE', *, *, #178, .T. ) ;
#209 = EDGE_CURVE ( 'NONE', #119, #196, #252, .T. ) ;
#210 = CC_DESIGN_PERSON_AND_ORGANIZATION_ASSIGNMENT ( #76, #51, ( #198 ) ) ;
#211 = PLANE ( 'NONE',  #97 ) ;
#212 = PRODUCT_DEFINITION_SHAPE ( 'NONE', 'NONE',  #224 ) ;
#213 = DIRECTION ( 'NONE',  ( -1.000000000000000000, -0.0000000000000000000, -0.0000000000000000000 ) ) ;
#214 = ADVANCED_FACE ( 'NONE', ( #191 ), #190, .T. ) ;
#215 = VERTEX_POINT ( 'NONE', #165 ) ;
#216 = DIRECTION ( 'NONE',  ( -1.000000000000000000, -0.0000000000000000000, -0.0000000000000000000 ) ) ;
#217 = AXIS2_PLACEMENT_3D ( 'NONE', #310, #43, #63 ) ;
#218 = FACE_OUTER_BOUND ( 'NONE', #109, .T. ) ;
#219 = VERTEX_POINT ( 'NONE', #108 ) ;
#220 = APPLICATION_CONTEXT ( 'configuration controlled 3d designs of mechanical parts and assemblies' ) ;
#221 = APPROVAL_STATUS ( 'not_yet_approved' ) ;
#222 = ORIENTED_EDGE ( 'NONE', *, *, #88, .F. ) ;
#223 = EDGE_CURVE ( 'NONE', #151, #119, #244, .T. ) ;
#224 = PRODUCT_DEFINITION ( 'UNKNOWN', '', #307, #31 ) ;
#225 = PERSON_AND_ORGANIZATION ( #91, #148 ) ;
#226 = LINE ( 'NONE', #82, #282 ) ;
#227 = DIRECTION ( 'NONE',  ( 1.000000000000000000, 1.195655236086158700E-016, -0.0000000000000000000 ) ) ;
#228 = CIRCLE ( 'NONE', #59, 7.937500000000001800 ) ;
#229 = DIRECTION ( 'NONE',  ( 1.000000000000000000, 1.195655236086158700E-016, -0.0000000000000000000 ) ) ;
#230 = CARTESIAN_POINT ( 'NONE',  ( -52.67499999999999000, -6.417679479692455400E-015, 0.0000000000000000000 ) ) ;
#231 = CARTESIAN_POINT ( 'NONE',  ( -52.67499999999999000, 7.937499999999994700, 0.0000000000000000000 ) ) ;
#232 = PERSON_AND_ORGANIZATION ( #91, #148 ) ;
#233 = EDGE_LOOP ( 'NONE', ( #114, #271, #2, #239 ) ) ;
#234 = AXIS2_PLACEMENT_3D ( 'NONE', #142, #309, #166 ) ;
#235 = CYLINDRICAL_SURFACE ( 'NONE', #30, 7.937500000000000000 ) ;
#236 = ORIENTED_EDGE ( 'NONE', *, *, #223, .F. ) ;
#237 = ADVANCED_FACE ( 'NONE', ( #113 ), #235, .T. ) ;
#238 = DIRECTION ( 'NONE',  ( -1.092739197465705300E-016, 1.000000000000000000, 0.0000000000000000000 ) ) ;
#239 = ORIENTED_EDGE ( 'NONE', *, *, #9, .F. ) ;
#240 = EDGE_CURVE ( 'NONE', #119, #151, #300, .T. ) ;
#241 = APPROVAL ( #248, 'UNSPECIFIED' ) ;
#242 = CALENDAR_DATE ( 2023, 13, 6 ) ;
#243 = ORIENTED_EDGE ( 'NONE', *, *, #149, .T. ) ;
#244 = CIRCLE ( 'NONE', #281, 7.937500000000007100 ) ;
#245 = ORIENTED_EDGE ( 'NONE', *, *, #149, .F. ) ;
#246 =( LENGTH_UNIT ( ) NAMED_UNIT ( * ) SI_UNIT ( .MILLI., .METRE. ) );
#247 = ORIENTED_EDGE ( 'NONE', *, *, #162, .F. ) ;
#248 = APPROVAL_STATUS ( 'not_yet_approved' ) ;
#249 = DATE_AND_TIME ( #1, #60 ) ;
#250 = VERTEX_POINT ( 'NONE', #187 ) ;
#251 = AXIS2_PLACEMENT_3D ( 'NONE', #42, #85, #262 ) ;
#252 = LINE ( 'NONE', #112, #74 ) ;
#253 = DIRECTION ( 'NONE',  ( 0.0000000000000000000, 1.000000000000000000, 0.0000000000000000000 ) ) ;
#254 = APPROVAL_DATE_TIME ( #7, #241 ) ;
#255 = EDGE_CURVE ( 'NONE', #196, #301, #49, .T. ) ;
#256 = ORIENTED_EDGE ( 'NONE', *, *, #22, .T. ) ;
#257 = CC_DESIGN_APPROVAL ( #241, ( #224 ) ) ;
#258 = CARTESIAN_POINT ( 'NONE',  ( 42.27499999999999900, 9.720633968232124100E-016, -7.937500000000007100 ) ) ;
#259 = CARTESIAN_POINT ( 'NONE',  ( 1.000000000000000000, 0.0000000000000000000, 0.0000000000000000000 ) ) ;
#260 = DIRECTION ( 'NONE',  ( -1.000000000000000000, -1.195655236086158700E-016, 0.0000000000000000000 ) ) ;
#261 = CIRCLE ( 'NONE', #251, 7.937500000000000000 ) ;
#262 = DIRECTION ( 'NONE',  ( 0.0000000000000000000, 0.0000000000000000000, 1.000000000000000000 ) ) ;
#263 = CARTESIAN_POINT ( 'NONE',  ( 0.0000000000000000000, 0.0000000000000000000, 0.0000000000000000000 ) ) ;
#264 = ADVANCED_FACE ( 'NONE', ( #182 ), #293, .T. ) ;
#265 = CARTESIAN_POINT ( 'NONE',  ( 1.000000000000000000, 0.0000000000000000000, 0.0000000000000000000 ) ) ;
#266 = CARTESIAN_POINT ( 'NONE',  ( 1.000000000000000000, 0.0000000000000000000, 7.937500000000000000 ) ) ;
#267 = APPROVAL_PERSON_ORGANIZATION ( #13, #241, #96 ) ;
#268 = EDGE_LOOP ( 'NONE', ( #77, #243 ) ) ;
#269 =( NAMED_UNIT ( * ) SI_UNIT ( $, .STERADIAN. ) SOLID_ANGLE_UNIT ( ) );
#270 = PERSON_AND_ORGANIZATION_ROLE ( 'creator' ) ;
#271 = ORIENTED_EDGE ( 'NONE', *, *, #272, .T. ) ;
#272 = EDGE_CURVE ( 'NONE', #15, #250, #44, .T. ) ;
#273 = CC_DESIGN_PERSON_AND_ORGANIZATION_ASSIGNMENT ( #195, #270, ( #224 ) ) ;
#274 = DIRECTION ( 'NONE',  ( 1.000000000000000000, 1.195655236086158700E-016, -0.0000000000000000000 ) ) ;
#275 = APPROVAL_DATE_TIME ( #124, #121 ) ;
#276 = PLANE ( 'NONE',  #172 ) ;
#277 = ORIENTED_EDGE ( 'NONE', *, *, #304, .T. ) ;
#278 = DIRECTION ( 'NONE',  ( -1.000000000000000000, -0.0000000000000000000, -0.0000000000000000000 ) ) ;
#279 = CALENDAR_DATE ( 2023, 13, 6 ) ;
#280 = DIRECTION ( 'NONE',  ( -1.000000000000000000, -0.0000000000000000000, -0.0000000000000000000 ) ) ;
#281 = AXIS2_PLACEMENT_3D ( 'NONE', #110, #280, #141 ) ;
#282 = VECTOR ( 'NONE', #158, 1000.000000000000000 ) ;
#283 = DIRECTION ( 'NONE',  ( 1.000000000000000000, 1.195655236086158700E-016, -0.0000000000000000000 ) ) ;
#284 = DIRECTION ( 'NONE',  ( 1.000000000000000000, 1.195655236086158700E-016, -0.0000000000000000000 ) ) ;
#285 = ADVANCED_FACE ( 'NONE', ( #175 ), #34, .T. ) ;
#286 = DIRECTION ( 'NONE',  ( 0.0000000000000000000, 1.000000000000000000, 0.0000000000000000000 ) ) ;
#287 = EDGE_LOOP ( 'NONE', ( #21, #312, #61, #247 ) ) ;
#288 = DIRECTION ( 'NONE',  ( 0.0000000000000000000, 0.0000000000000000000, 1.000000000000000000 ) ) ;
#289 = EDGE_CURVE ( 'NONE', #215, #15, #94, .T. ) ;
#290 = CC_DESIGN_DATE_AND_TIME_ASSIGNMENT ( #249, #126, ( #224 ) ) ;
#291 = DATE_AND_TIME ( #39, #98 ) ;
#292 = VERTEX_POINT ( 'NONE', #205 ) ;
#293 = CYLINDRICAL_SURFACE ( 'NONE', #78, 7.937500000000003600 ) ;
#294 = APPLICATION_PROTOCOL_DEFINITION ( 'international standard', 'config_control_design', 1994, #5 ) ;
#295 = LINE ( 'NONE', #161, #164 ) ;
#296 = APPROVAL_STATUS ( 'not_yet_approved' ) ;
#297 = PERSON_AND_ORGANIZATION ( #91, #148 ) ;
#298 = ORIENTED_EDGE ( 'NONE', *, *, #162, .T. ) ;
#299 = AXIS2_PLACEMENT_3D ( 'NONE', #41, #260, #111 ) ;
#300 = CIRCLE ( 'NONE', #19, 7.937500000000007100 ) ;
#301 = VERTEX_POINT ( 'NONE', #266 ) ;
#302 = CIRCLE ( 'NONE', #120, 7.937500000000000000 ) ;
#303 = DIRECTION ( 'NONE',  ( -1.195655236086158700E-016, 1.000000000000000000, 0.0000000000000000000 ) ) ;
#304 = EDGE_CURVE ( 'NONE', #306, #250, #228, .T. ) ;
#305 = LOCAL_TIME ( 14, 0, 23.00000000000000000, #53 ) ;
#306 = VERTEX_POINT ( 'NONE', #32 ) ;
#307 = PRODUCT_DEFINITION_FORMATION_WITH_SPECIFIED_SOURCE ( 'ANY', '', #198, .NOT_KNOWN. ) ;
#308 = CARTESIAN_POINT ( 'NONE',  ( -52.67499999999999000, -6.417679479692455400E-015, 0.0000000000000000000 ) ) ;
#309 = DIRECTION ( 'NONE',  ( 1.000000000000000000, 1.195655236086158700E-016, -0.0000000000000000000 ) ) ;
#310 = CARTESIAN_POINT ( 'NONE',  ( -52.67499999999999000, -6.417679479692455400E-015, 0.0000000000000000000 ) ) ;
#311 = CONICAL_SURFACE ( 'NONE', #217, 7.937500000000001800, 0.7853981633974497200 ) ;
#312 = ORIENTED_EDGE ( 'NONE', *, *, #209, .T. ) ;
#313 = FACE_OUTER_BOUND ( 'NONE', #123, .T. ) ;
ENDSEC;
END-ISO-10303-21;
