ISO-10303-21;
HEADER;
FILE_DESCRIPTION (( 'STEP AP203' ),
    '1' );
FILE_NAME ('03-2085.STEP',
    '2023-06-13T05:00:51',
    ( 'USER' ),
    ( 'Hewlett-Packard Company' ),
    'SwSTEP 2.0',
    'SolidWorks 2014',
    '' );
FILE_SCHEMA (( 'CONFIG_CONTROL_DESIGN' ));
ENDSEC;

DATA;
#1 = DATE_AND_TIME ( #70, #133 ) ;
#2 = ORIENTED_EDGE ( 'NONE', *, *, #259, .F. ) ;
#3 = AXIS2_PLACEMENT_3D ( 'NONE', #131, #57, #297 ) ;
#4 = DIRECTION ( 'NONE',  ( 1.221195550198054700E-016, -1.000000000000000000, 0.0000000000000000000 ) ) ;
#5 = LINE ( 'NONE', #156, #198 ) ;
#6 = EDGE_CURVE ( 'NONE', #200, #11, #242, .T. ) ;
#7 = PLANE ( 'NONE',  #46 ) ;
#8 = DIRECTION ( 'NONE',  ( 0.7071067811865579000, -0.7071067811865371400, 8.659560562354807100E-017 ) ) ;
#9 = PRODUCT ( '03-2085', '03-2085', '', ( #14 ) ) ;
#10 = PERSON_AND_ORGANIZATION ( #39, #169 ) ;
#11 = VERTEX_POINT ( 'NONE', #201 ) ;
#12 = CARTESIAN_POINT ( 'NONE',  ( -62.19999999999998900, -7.717955877251704500E-015, 0.0000000000000000000 ) ) ;
#13 = CARTESIAN_POINT ( 'NONE',  ( -62.19999999999998900, -7.717955877251704500E-015, 0.0000000000000000000 ) ) ;
#14 = MECHANICAL_CONTEXT ( 'NONE', #136, 'mechanical' ) ;
#15 = DIRECTION ( 'NONE',  ( 0.0000000000000000000, 1.000000000000000000, 0.0000000000000000000 ) ) ;
#16 = PERSON_AND_ORGANIZATION_ROLE ( 'classification_officer' ) ;
#17 = CIRCLE ( 'NONE', #21, 12.39999999999999900 ) ;
#18 = CC_DESIGN_PERSON_AND_ORGANIZATION_ASSIGNMENT ( #10, #304, ( #264 ) ) ;
#19 = LOCAL_TIME ( 14, 0, 51.00000000000000000, #88 ) ;
#20 = EDGE_LOOP ( 'NONE', ( #310, #176, #26, #253 ) ) ;
#21 = AXIS2_PLACEMENT_3D ( 'NONE', #60, #232, #90 ) ;
#22 = CONICAL_SURFACE ( 'NONE', #159, 12.69999999999999800, 0.7853981633974337400 ) ;
#23 = UNCERTAINTY_MEASURE_WITH_UNIT (LENGTH_MEASURE( 1.000000000000000100E-005 ), #62, 'distance_accuracy_value', 'NONE');
#24 = EDGE_CURVE ( 'NONE', #121, #120, #51, .T. ) ;
#25 = CALENDAR_DATE ( 2023, 13, 6 ) ;
#26 = ORIENTED_EDGE ( 'NONE', *, *, #100, .F. ) ;
#27 = CARTESIAN_POINT ( 'NONE',  ( -62.19999999999998900, -12.70000000000000600, 1.555301434917138800E-015 ) ) ;
#28 = CYLINDRICAL_SURFACE ( 'NONE', #189, 12.69999999999999900 ) ;
#29 = DIRECTION ( 'NONE',  ( -1.000000000000000000, -0.0000000000000000000, -0.0000000000000000000 ) ) ;
#30 = CARTESIAN_POINT ( 'NONE',  ( 0.9999999999999967800, 12.69999999999999900, 0.0000000000000000000 ) ) ;
#31 = ADVANCED_FACE ( 'NONE', ( #309 ), #114, .T. ) ;
#32 = DIRECTION ( 'NONE',  ( 0.0000000000000000000, 1.000000000000000000, 0.0000000000000000000 ) ) ;
#33 = SECURITY_CLASSIFICATION ( '', '', #161 ) ;
#34 = CARTESIAN_POINT ( 'NONE',  ( 51.79999999999999000, 0.0000000000000000000, 0.0000000000000000000 ) ) ;
#35 = DATE_AND_TIME ( #102, #165 ) ;
#36 = ORIENTED_EDGE ( 'NONE', *, *, #259, .T. ) ;
#37 = CARTESIAN_POINT ( 'NONE',  ( 0.0000000000000000000, 1.555301434917138800E-015, -12.70000000000000300 ) ) ;
#38 = CARTESIAN_POINT ( 'NONE',  ( 0.0000000000000000000, 0.0000000000000000000, 0.0000000000000000000 ) ) ;
#39 = PERSON ( 'UNSPECIFIED', 'UNSPECIFIED', 'UNSPECIFIED', ('UNSPECIFIED'), ('UNSPECIFIED'), ('UNSPECIFIED') ) ;
#40 = DIRECTION ( 'NONE',  ( -1.000000000000000000, -0.0000000000000000000, -0.0000000000000000000 ) ) ;
#41 = DIRECTION ( 'NONE',  ( 0.0000000000000000000, 1.000000000000000000, 0.0000000000000000000 ) ) ;
#42 = DIRECTION ( 'NONE',  ( 0.0000000000000000000, 1.000000000000000000, 0.0000000000000000000 ) ) ;
#43 = APPLICATION_CONTEXT ( 'configuration controlled 3d designs of mechanical parts and assemblies' ) ;
#44 = CIRCLE ( 'NONE', #143, 12.69999999999999900 ) ;
#45 = APPROVAL_STATUS ( 'not_yet_approved' ) ;
#46 = AXIS2_PLACEMENT_3D ( 'NONE', #202, #249, #109 ) ;
#47 = PERSON_AND_ORGANIZATION ( #39, #169 ) ;
#48 = CIRCLE ( 'NONE', #113, 12.39999999999999900 ) ;
#49 = CC_DESIGN_PERSON_AND_ORGANIZATION_ASSIGNMENT ( #261, #16, ( #33 ) ) ;
#50 = DIRECTION ( 'NONE',  ( 1.000000000000000000, 1.221195550198054700E-016, -0.0000000000000000000 ) ) ;
#51 = LINE ( 'NONE', #52, #302 ) ;
#52 = CARTESIAN_POINT ( 'NONE',  ( 1.000000000000001600, -12.69999999999999900, 1.555301434917138400E-015 ) ) ;
#53 =( GEOMETRIC_REPRESENTATION_CONTEXT ( 3 ) GLOBAL_UNCERTAINTY_ASSIGNED_CONTEXT ( ( #23 ) ) GLOBAL_UNIT_ASSIGNED_CONTEXT ( ( #62, #233, #91 ) ) REPRESENTATION_CONTEXT ( 'NONE', 'WORKASPACE' ) );
#54 = ADVANCED_FACE ( 'NONE', ( #118 ), #167, .T. ) ;
#55 = DIRECTION ( 'NONE',  ( 1.000000000000000000, 1.221195550198054700E-016, -0.0000000000000000000 ) ) ;
#56 = CLOSED_SHELL ( 'NONE', ( #294, #31, #270, #223 ) ) ;
#57 = DIRECTION ( 'NONE',  ( 1.000000000000000000, 1.221195550198054700E-016, -0.0000000000000000000 ) ) ;
#58 = AXIS2_PLACEMENT_3D ( 'NONE', #197, #148, #32 ) ;
#59 = CARTESIAN_POINT ( 'NONE',  ( 0.9999999999999997800, 0.0000000000000000000, 0.0000000000000000000 ) ) ;
#60 = CARTESIAN_POINT ( 'NONE',  ( -62.50000000000000000, -7.754591743757647500E-015, 0.0000000000000000000 ) ) ;
#61 = LOCAL_TIME ( 14, 0, 51.00000000000000000, #119 ) ;
#62 =( LENGTH_UNIT ( ) NAMED_UNIT ( * ) SI_UNIT ( .MILLI., .METRE. ) );
#63 = FACE_OUTER_BOUND ( 'NONE', #244, .T. ) ;
#64 = ORIENTED_EDGE ( 'NONE', *, *, #212, .F. ) ;
#65 = CARTESIAN_POINT ( 'NONE',  ( 0.9999999999999983300, -2.078094019447202800E-031, 0.0000000000000000000 ) ) ;
#66 = APPROVAL_STATUS ( 'not_yet_approved' ) ;
#67 = EDGE_LOOP ( 'NONE', ( #205, #73, #130, #147 ) ) ;
#68 = CIRCLE ( 'NONE', #74, 12.69999999999999800 ) ;
#69 = CC_DESIGN_DATE_AND_TIME_ASSIGNMENT ( #1, #184, ( #33 ) ) ;
#70 = CALENDAR_DATE ( 2023, 13, 6 ) ;
#71 = VERTEX_POINT ( 'NONE', #245 ) ;
#72 = ORIENTED_EDGE ( 'NONE', *, *, #145, .T. ) ;
#73 = ORIENTED_EDGE ( 'NONE', *, *, #273, .T. ) ;
#74 = AXIS2_PLACEMENT_3D ( 'NONE', #12, #179, #41 ) ;
#75 = FACE_OUTER_BOUND ( 'NONE', #123, .T. ) ;
#76 = ORIENTED_EDGE ( 'NONE', *, *, #240, .T. ) ;
#77 = AXIS2_PLACEMENT_3D ( 'NONE', #224, #29, #173 ) ;
#78 = PERSON_AND_ORGANIZATION ( #39, #169 ) ;
#79 = EDGE_LOOP ( 'NONE', ( #187, #286 ) ) ;
#80 = ADVANCED_FACE ( 'NONE', ( #238 ), #220, .T. ) ;
#81 = FACE_OUTER_BOUND ( 'NONE', #190, .T. ) ;
#82 = DIRECTION ( 'NONE',  ( 0.7071067811865577900, 0.7071067811865373600, 0.0000000000000000000 ) ) ;
#83 = APPROVAL ( #45, 'UNSPECIFIED' ) ;
#84 = MANIFOLD_SOLID_BREP ( 'È¸Àü3', #56 ) ;
#85 = DIRECTION ( 'NONE',  ( -1.000000000000000000, -0.0000000000000000000, -0.0000000000000000000 ) ) ;
#86 = DESIGN_CONTEXT ( 'detailed design', #43, 'design' ) ;
#87 = DIRECTION ( 'NONE',  ( 0.0000000000000000000, 0.0000000000000000000, 1.000000000000000000 ) ) ;
#88 = COORDINATED_UNIVERSAL_TIME_OFFSET ( 9, 0, .AHEAD. ) ;
#89 = ORIENTED_EDGE ( 'NONE', *, *, #273, .F. ) ;
#90 = DIRECTION ( 'NONE',  ( 0.0000000000000000000, 1.000000000000000000, 0.0000000000000000000 ) ) ;
#91 =( NAMED_UNIT ( * ) SI_UNIT ( $, .STERADIAN. ) SOLID_ANGLE_UNIT ( ) );
#92 = DIRECTION ( 'NONE',  ( -1.195183497228115300E-016, 1.000000000000000000, 0.0000000000000000000 ) ) ;
#93 = PERSON_AND_ORGANIZATION_ROLE ( 'creator' ) ;
#94 = CIRCLE ( 'NONE', #209, 12.69999999999999900 ) ;
#95 = AXIS2_PLACEMENT_3D ( 'NONE', #38, #177, #204 ) ;
#96 = AXIS2_PLACEMENT_3D ( 'NONE', #271, #128, #295 ) ;
#97 = LOCAL_TIME ( 14, 0, 51.00000000000000000, #154 ) ;
#98 = ORIENTED_EDGE ( 'NONE', *, *, #192, .T. ) ;
#99 = FACE_OUTER_BOUND ( 'NONE', #214, .T. ) ;
#100 = EDGE_CURVE ( 'NONE', #103, #120, #236, .T. ) ;
#101 = CC_DESIGN_APPROVAL ( #83, ( #33 ) ) ;
#102 = CALENDAR_DATE ( 2023, 13, 6 ) ;
#103 = VERTEX_POINT ( 'NONE', #30 ) ;
#104 = VECTOR ( 'NONE', #196, 1000.000000000000000 ) ;
#105 = CARTESIAN_POINT ( 'NONE',  ( 0.9999999999999997800, -12.69999999999999900, 1.555301434917138400E-015 ) ) ;
#106 = CARTESIAN_POINT ( 'NONE',  ( 51.79999999999999000, 0.0000000000000000000, 0.0000000000000000000 ) ) ;
#107 = PERSON_AND_ORGANIZATION ( #39, #169 ) ;
#108 = AXIS2_PLACEMENT_3D ( 'NONE', #126, #151, #4 ) ;
#109 = DIRECTION ( 'NONE',  ( 0.0000000000000000000, 0.0000000000000000000, -1.000000000000000000 ) ) ;
#110 = CARTESIAN_POINT ( 'NONE',  ( 51.79999999999999000, 0.0000000000000000000, 12.70000000000000800 ) ) ;
#111 = DIRECTION ( 'NONE',  ( 1.000000000000000000, 1.221195550198054700E-016, -0.0000000000000000000 ) ) ;
#112 = APPLICATION_PROTOCOL_DEFINITION ( 'international standard', 'config_control_design', 1994, #136 ) ;
#113 = AXIS2_PLACEMENT_3D ( 'NONE', #303, #135, #300 ) ;
#114 = CYLINDRICAL_SURFACE ( 'NONE', #77, 12.70000000000000300 ) ;
#115 = APPROVAL_STATUS ( 'not_yet_approved' ) ;
#116 = EDGE_CURVE ( 'NONE', #11, #103, #171, .T. ) ;
#117 = CC_DESIGN_SECURITY_CLASSIFICATION ( #33, ( #264 ) ) ;
#118 = FACE_OUTER_BOUND ( 'NONE', #67, .T. ) ;
#119 = COORDINATED_UNIVERSAL_TIME_OFFSET ( 9, 0, .AHEAD. ) ;
#120 = VERTEX_POINT ( 'NONE', #105 ) ;
#121 = VERTEX_POINT ( 'NONE', #27 ) ;
#122 = DIRECTION ( 'NONE',  ( -1.000000000000000000, 0.0000000000000000000, -0.0000000000000000000 ) ) ;
#123 = EDGE_LOOP ( 'NONE', ( #307, #266, #290, #222 ) ) ;
#124 = AXIS2_PLACEMENT_3D ( 'NONE', #219, #50, #195 ) ;
#125 = CARTESIAN_POINT ( 'NONE',  ( 0.9999999999999985600, 12.69999999999999900, 0.0000000000000000000 ) ) ;
#126 = CARTESIAN_POINT ( 'NONE',  ( -62.50000000000000000, -7.754591743757647500E-015, 0.0000000000000000000 ) ) ;
#127 = ADVANCED_FACE ( 'NONE', ( #293 ), #170, .T. ) ;
#128 = DIRECTION ( 'NONE',  ( 1.000000000000000000, 1.221195550198054700E-016, -0.0000000000000000000 ) ) ;
#129 = EDGE_CURVE ( 'NONE', #150, #200, #48, .T. ) ;
#130 = ORIENTED_EDGE ( 'NONE', *, *, #306, .F. ) ;
#131 = CARTESIAN_POINT ( 'NONE',  ( 1.000000000000000000, 0.0000000000000000000, 0.0000000000000000000 ) ) ;
#132 = PRODUCT_RELATED_PRODUCT_CATEGORY ( 'detail', '', ( #9 ) ) ;
#133 = LOCAL_TIME ( 14, 0, 51.00000000000000000, #193 ) ;
#134 = ORIENTED_EDGE ( 'NONE', *, *, #100, .T. ) ;
#135 = DIRECTION ( 'NONE',  ( 1.000000000000000000, 1.221195550198054700E-016, -0.0000000000000000000 ) ) ;
#136 = APPLICATION_CONTEXT ( 'configuration controlled 3d designs of mechanical parts and assemblies' ) ;
#137 = DIRECTION ( 'NONE',  ( -1.195183497228115300E-016, 1.000000000000000000, 0.0000000000000000000 ) ) ;
#138 = PERSON_AND_ORGANIZATION_ROLE ( 'creator' ) ;
#139 = CYLINDRICAL_SURFACE ( 'NONE', #3, 12.69999999999999900 ) ;
#140 = ORIENTED_EDGE ( 'NONE', *, *, #6, .T. ) ;
#141 = APPROVAL_DATE_TIME ( #203, #283 ) ;
#142 = ORIENTED_EDGE ( 'NONE', *, *, #164, .T. ) ;
#143 = AXIS2_PLACEMENT_3D ( 'NONE', #65, #234, #92 ) ;
#144 = CIRCLE ( 'NONE', #268, 12.70000000000000800 ) ;
#145 = EDGE_CURVE ( 'NONE', #120, #103, #44, .T. ) ;
#146 = APPROVAL_PERSON_ORGANIZATION ( #213, #283, #281 ) ;
#147 = ORIENTED_EDGE ( 'NONE', *, *, #6, .F. ) ;
#148 = DIRECTION ( 'NONE',  ( 1.000000000000000000, 1.221195550198054700E-016, -0.0000000000000000000 ) ) ;
#149 = CIRCLE ( 'NONE', #239, 12.70000000000000800 ) ;
#150 = VERTEX_POINT ( 'NONE', #280 ) ;
#151 = DIRECTION ( 'NONE',  ( -1.000000000000000000, -1.221195550198054700E-016, 0.0000000000000000000 ) ) ;
#152 = ADVANCED_FACE ( 'NONE', ( #287 ), #28, .T. ) ;
#153 = AXIS2_PLACEMENT_3D ( 'NONE', #276, #301, #158 ) ;
#154 = COORDINATED_UNIVERSAL_TIME_OFFSET ( 9, 0, .AHEAD. ) ;
#155 = VERTEX_POINT ( 'NONE', #160 ) ;
#156 = CARTESIAN_POINT ( 'NONE',  ( -62.19999999999998900, -12.70000000000000500, 1.555301434917138200E-015 ) ) ;
#157 = CARTESIAN_POINT ( 'NONE',  ( 0.0000000000000000000, 0.0000000000000000000, 12.70000000000000300 ) ) ;
#158 = DIRECTION ( 'NONE',  ( 1.000000000000000000, 0.0000000000000000000, 0.0000000000000000000 ) ) ;
#159 = AXIS2_PLACEMENT_3D ( 'NONE', #279, #111, #15 ) ;
#160 = CARTESIAN_POINT ( 'NONE',  ( 0.9999999999999997800, 0.0000000000000000000, 12.69999999999999900 ) ) ;
#161 = SECURITY_CLASSIFICATION_LEVEL ( 'unclassified' ) ;
#162 = CIRCLE ( 'NONE', #172, 12.69999999999999800 ) ;
#163 = DIRECTION ( 'NONE',  ( -1.000000000000000000, -0.0000000000000000000, -0.0000000000000000000 ) ) ;
#164 = EDGE_CURVE ( 'NONE', #121, #11, #162, .T. ) ;
#165 = LOCAL_TIME ( 14, 0, 51.00000000000000000, #227 ) ;
#166 = ORIENTED_EDGE ( 'NONE', *, *, #24, .F. ) ;
#167 = CONICAL_SURFACE ( 'NONE', #58, 12.69999999999999800, 0.7853981633974337400 ) ;
#168 = CC_DESIGN_PERSON_AND_ORGANIZATION_ASSIGNMENT ( #107, #183, ( #9 ) ) ;
#169 = ORGANIZATION ( 'UNSPECIFIED', 'UNSPECIFIED', '' ) ;
#170 = PLANE ( 'NONE',  #124 ) ;
#171 = LINE ( 'NONE', #125, #104 ) ;
#172 = AXIS2_PLACEMENT_3D ( 'NONE', #13, #181, #42 ) ;
#173 = DIRECTION ( 'NONE',  ( 0.0000000000000000000, 0.0000000000000000000, 1.000000000000000000 ) ) ;
#174 = ADVANCED_FACE ( 'NONE', ( #63 ), #22, .T. ) ;
#175 = EDGE_CURVE ( 'NONE', #155, #71, #94, .T. ) ;
#176 = ORIENTED_EDGE ( 'NONE', *, *, #24, .T. ) ;
#177 = DIRECTION ( 'NONE',  ( -1.000000000000000000, -0.0000000000000000000, -0.0000000000000000000 ) ) ;
#178 = CARTESIAN_POINT ( 'NONE',  ( 0.9999999999999997800, 0.0000000000000000000, 0.0000000000000000000 ) ) ;
#179 = DIRECTION ( 'NONE',  ( 1.000000000000000000, 1.221195550198054700E-016, -0.0000000000000000000 ) ) ;
#180 = APPROVAL_DATE_TIME ( #241, #83 ) ;
#181 = DIRECTION ( 'NONE',  ( 1.000000000000000000, 1.221195550198054700E-016, -0.0000000000000000000 ) ) ;
#182 = VECTOR ( 'NONE', #82, 999.9999999999998900 ) ;
#183 = PERSON_AND_ORGANIZATION_ROLE ( 'design_owner' ) ;
#184 = DATE_TIME_ROLE ( 'classification_date' ) ;
#185 = PRODUCT_DEFINITION ( 'UNKNOWN', '', #264, #86 ) ;
#186 = APPROVAL_PERSON_ORGANIZATION ( #251, #83, #210 ) ;
#187 = ORIENTED_EDGE ( 'NONE', *, *, #288, .F. ) ;
#188 = CLOSED_SHELL ( 'NONE', ( #54, #152, #80, #127, #246, #174 ) ) ;
#189 = AXIS2_PLACEMENT_3D ( 'NONE', #207, #255, #137 ) ;
#190 = EDGE_LOOP ( 'NONE', ( #166, #142, #291, #229 ) ) ;
#191 = SHAPE_DEFINITION_REPRESENTATION ( #260, #226 ) ;
#192 = EDGE_CURVE ( 'NONE', #311, #155, #282, .T. ) ;
#193 = COORDINATED_UNIVERSAL_TIME_OFFSET ( 9, 0, .AHEAD. ) ;
#194 = EDGE_LOOP ( 'NONE', ( #252, #36 ) ) ;
#195 = DIRECTION ( 'NONE',  ( -1.221195550198054700E-016, 1.000000000000000000, 0.0000000000000000000 ) ) ;
#196 = DIRECTION ( 'NONE',  ( 1.000000000000000000, 1.221195550198054700E-016, -0.0000000000000000000 ) ) ;
#197 = CARTESIAN_POINT ( 'NONE',  ( -62.19999999999998900, -7.717955877251704500E-015, 0.0000000000000000000 ) ) ;
#198 = VECTOR ( 'NONE', #8, 1000.000000000000000 ) ;
#199 = APPROVAL ( #66, 'UNSPECIFIED' ) ;
#200 = VERTEX_POINT ( 'NONE', #231 ) ;
#201 = CARTESIAN_POINT ( 'NONE',  ( -62.19999999999998900, 12.69999999999999000, 0.0000000000000000000 ) ) ;
#202 = CARTESIAN_POINT ( 'NONE',  ( 1.000000000000000400, 8.537024980200830000E-017, 0.0000000000000000000 ) ) ;
#203 = DATE_AND_TIME ( #265, #19 ) ;
#204 = DIRECTION ( 'NONE',  ( 0.0000000000000000000, 0.0000000000000000000, 1.000000000000000000 ) ) ;
#205 = ORIENTED_EDGE ( 'NONE', *, *, #288, .T. ) ;
#206 = DIRECTION ( 'NONE',  ( 0.0000000000000000000, 0.0000000000000000000, 1.000000000000000000 ) ) ;
#207 = CARTESIAN_POINT ( 'NONE',  ( 1.000000000000000000, 0.0000000000000000000, 0.0000000000000000000 ) ) ;
#208 = APPLICATION_PROTOCOL_DEFINITION ( 'international standard', 'config_control_design', 1994, #43 ) ;
#209 = AXIS2_PLACEMENT_3D ( 'NONE', #178, #40, #206 ) ;
#210 = APPROVAL_ROLE ( '' ) ;
#211 = VECTOR ( 'NONE', #278, 1000.000000000000000 ) ;
#212 = EDGE_CURVE ( 'NONE', #258, #71, #269, .T. ) ;
#213 = PERSON_AND_ORGANIZATION ( #39, #169 ) ;
#214 = EDGE_LOOP ( 'NONE', ( #262, #254 ) ) ;
#215 = VECTOR ( 'NONE', #299, 1000.000000000000000 ) ;
#216 = CC_DESIGN_APPROVAL ( #199, ( #185 ) ) ;
#217 = PERSON_AND_ORGANIZATION ( #39, #169 ) ;
#218 = EDGE_LOOP ( 'NONE', ( #64, #76, #98, #2 ) ) ;
#219 = CARTESIAN_POINT ( 'NONE',  ( 0.9999999999999974500, 12.69999999999999900, 0.0000000000000000000 ) ) ;
#220 = PLANE ( 'NONE',  #108 ) ;
#221 = CIRCLE ( 'NONE', #305, 12.69999999999999900 ) ;
#222 = ORIENTED_EDGE ( 'NONE', *, *, #192, .F. ) ;
#223 = ADVANCED_FACE ( 'NONE', ( #99 ), #292, .F. ) ;
#224 = CARTESIAN_POINT ( 'NONE',  ( 0.0000000000000000000, 0.0000000000000000000, 0.0000000000000000000 ) ) ;
#225 = EDGE_CURVE ( 'NONE', #311, #258, #149, .T. ) ;
#226 = ADVANCED_BREP_SHAPE_REPRESENTATION ( '03-2085', ( #84, #284, #153 ), #53 ) ;
#227 = COORDINATED_UNIVERSAL_TIME_OFFSET ( 9, 0, .AHEAD. ) ;
#228 = DIRECTION ( 'NONE',  ( 0.0000000000000000000, 0.0000000000000000000, 1.000000000000000000 ) ) ;
#229 = ORIENTED_EDGE ( 'NONE', *, *, #145, .F. ) ;
#230 = DIRECTION ( 'NONE',  ( -1.000000000000000000, -0.0000000000000000000, -0.0000000000000000000 ) ) ;
#231 = CARTESIAN_POINT ( 'NONE',  ( -62.50000000000000000, 12.39999999999999100, 0.0000000000000000000 ) ) ;
#232 = DIRECTION ( 'NONE',  ( 1.000000000000000000, 1.221195550198054700E-016, -0.0000000000000000000 ) ) ;
#233 =( NAMED_UNIT ( * ) PLANE_ANGLE_UNIT ( ) SI_UNIT ( $, .RADIAN. ) );
#234 = DIRECTION ( 'NONE',  ( 1.000000000000000000, 1.221195550198054700E-016, -0.0000000000000000000 ) ) ;
#235 = APPROVAL_ROLE ( '' ) ;
#236 = CIRCLE ( 'NONE', #96, 12.69999999999999900 ) ;
#237 = CC_DESIGN_PERSON_AND_ORGANIZATION_ASSIGNMENT ( #217, #93, ( #185 ) ) ;
#238 = FACE_OUTER_BOUND ( 'NONE', #79, .T. ) ;
#239 = AXIS2_PLACEMENT_3D ( 'NONE', #106, #85, #228 ) ;
#240 = EDGE_CURVE ( 'NONE', #258, #311, #144, .T. ) ;
#241 = DATE_AND_TIME ( #308, #61 ) ;
#242 = LINE ( 'NONE', #248, #182 ) ;
#243 = CARTESIAN_POINT ( 'NONE',  ( 51.79999999999999000, 1.555301434917139600E-015, -12.70000000000000800 ) ) ;
#244 = EDGE_LOOP ( 'NONE', ( #89, #298, #140, #277 ) ) ;
#245 = CARTESIAN_POINT ( 'NONE',  ( 0.9999999999999997800, 1.555301434917138600E-015, -12.69999999999999900 ) ) ;
#246 = ADVANCED_FACE ( 'NONE', ( #81 ), #139, .T. ) ;
#247 = CC_DESIGN_DATE_AND_TIME_ASSIGNMENT ( #275, #256, ( #185 ) ) ;
#248 = CARTESIAN_POINT ( 'NONE',  ( -62.19999999999998900, 12.69999999999999000, 0.0000000000000000000 ) ) ;
#249 = DIRECTION ( 'NONE',  ( 1.000000000000000000, 0.0000000000000000000, 0.0000000000000000000 ) ) ;
#250 = CARTESIAN_POINT ( 'NONE',  ( 51.79999999999999700, 2.830194521436176500E-014, 0.0000000000000000000 ) ) ;
#251 = PERSON_AND_ORGANIZATION ( #39, #169 ) ;
#252 = ORIENTED_EDGE ( 'NONE', *, *, #175, .T. ) ;
#253 = ORIENTED_EDGE ( 'NONE', *, *, #116, .F. ) ;
#254 = ORIENTED_EDGE ( 'NONE', *, *, #240, .F. ) ;
#255 = DIRECTION ( 'NONE',  ( 1.000000000000000000, 1.221195550198054700E-016, -0.0000000000000000000 ) ) ;
#256 = DATE_TIME_ROLE ( 'creation_date' ) ;
#257 = AXIS2_PLACEMENT_3D ( 'NONE', #250, #122, #267 ) ;
#258 = VERTEX_POINT ( 'NONE', #243 ) ;
#259 = EDGE_CURVE ( 'NONE', #71, #155, #221, .T. ) ;
#260 = PRODUCT_DEFINITION_SHAPE ( 'NONE', 'NONE',  #185 ) ;
#261 = PERSON_AND_ORGANIZATION ( #39, #169 ) ;
#262 = ORIENTED_EDGE ( 'NONE', *, *, #225, .F. ) ;
#263 = FACE_OUTER_BOUND ( 'NONE', #194, .T. ) ;
#264 = PRODUCT_DEFINITION_FORMATION_WITH_SPECIFIED_SOURCE ( 'ANY', '', #9, .NOT_KNOWN. ) ;
#265 = CALENDAR_DATE ( 2023, 13, 6 ) ;
#266 = ORIENTED_EDGE ( 'NONE', *, *, #212, .T. ) ;
#267 = DIRECTION ( 'NONE',  ( -0.0000000000000000000, 0.0000000000000000000, 1.000000000000000000 ) ) ;
#268 = AXIS2_PLACEMENT_3D ( 'NONE', #34, #163, #274 ) ;
#269 = LINE ( 'NONE', #37, #211 ) ;
#270 = ADVANCED_FACE ( 'NONE', ( #263 ), #7, .F. ) ;
#271 = CARTESIAN_POINT ( 'NONE',  ( 0.9999999999999983300, -2.078094019447202800E-031, 0.0000000000000000000 ) ) ;
#272 = EDGE_LOOP ( 'NONE', ( #134, #72 ) ) ;
#273 = EDGE_CURVE ( 'NONE', #150, #121, #5, .T. ) ;
#274 = DIRECTION ( 'NONE',  ( 0.0000000000000000000, 0.0000000000000000000, 1.000000000000000000 ) ) ;
#275 = DATE_AND_TIME ( #25, #97 ) ;
#276 = CARTESIAN_POINT ( 'NONE',  ( 0.0000000000000000000, 0.0000000000000000000, 0.0000000000000000000 ) ) ;
#277 = ORIENTED_EDGE ( 'NONE', *, *, #164, .F. ) ;
#278 = DIRECTION ( 'NONE',  ( -1.000000000000000000, -0.0000000000000000000, -0.0000000000000000000 ) ) ;
#279 = CARTESIAN_POINT ( 'NONE',  ( -62.19999999999998900, -7.717955877251704500E-015, 0.0000000000000000000 ) ) ;
#280 = CARTESIAN_POINT ( 'NONE',  ( -62.50000000000000000, -12.40000000000000400, 1.536931732929928200E-015 ) ) ;
#281 = APPROVAL_ROLE ( '' ) ;
#282 = LINE ( 'NONE', #157, #215 ) ;
#283 = APPROVAL ( #115, 'UNSPECIFIED' ) ;
#284 = MANIFOLD_SOLID_BREP ( 'È¸Àü4', #188 ) ;
#285 = APPROVAL_DATE_TIME ( #35, #199 ) ;
#286 = ORIENTED_EDGE ( 'NONE', *, *, #129, .F. ) ;
#287 = FACE_OUTER_BOUND ( 'NONE', #20, .T. ) ;
#288 = EDGE_CURVE ( 'NONE', #200, #150, #17, .T. ) ;
#289 = APPROVAL_PERSON_ORGANIZATION ( #47, #199, #235 ) ;
#290 = ORIENTED_EDGE ( 'NONE', *, *, #175, .F. ) ;
#291 = ORIENTED_EDGE ( 'NONE', *, *, #116, .T. ) ;
#292 = PLANE ( 'NONE',  #257 ) ;
#293 = FACE_OUTER_BOUND ( 'NONE', #272, .T. ) ;
#294 = ADVANCED_FACE ( 'NONE', ( #75 ), #312, .T. ) ;
#295 = DIRECTION ( 'NONE',  ( -1.195183497228115300E-016, 1.000000000000000000, 0.0000000000000000000 ) ) ;
#296 = CC_DESIGN_APPROVAL ( #283, ( #264 ) ) ;
#297 = DIRECTION ( 'NONE',  ( -1.195183497228115300E-016, 1.000000000000000000, 0.0000000000000000000 ) ) ;
#298 = ORIENTED_EDGE ( 'NONE', *, *, #129, .T. ) ;
#299 = DIRECTION ( 'NONE',  ( -1.000000000000000000, -0.0000000000000000000, -0.0000000000000000000 ) ) ;
#300 = DIRECTION ( 'NONE',  ( 0.0000000000000000000, 1.000000000000000000, 0.0000000000000000000 ) ) ;
#301 = DIRECTION ( 'NONE',  ( 0.0000000000000000000, 0.0000000000000000000, 1.000000000000000000 ) ) ;
#302 = VECTOR ( 'NONE', #55, 1000.000000000000000 ) ;
#303 = CARTESIAN_POINT ( 'NONE',  ( -62.50000000000000000, -7.754591743757647500E-015, 0.0000000000000000000 ) ) ;
#304 = PERSON_AND_ORGANIZATION_ROLE ( 'design_supplier' ) ;
#305 = AXIS2_PLACEMENT_3D ( 'NONE', #59, #230, #87 ) ;
#306 = EDGE_CURVE ( 'NONE', #11, #121, #68, .T. ) ;
#307 = ORIENTED_EDGE ( 'NONE', *, *, #225, .T. ) ;
#308 = CALENDAR_DATE ( 2023, 13, 6 ) ;
#309 = FACE_OUTER_BOUND ( 'NONE', #218, .T. ) ;
#310 = ORIENTED_EDGE ( 'NONE', *, *, #306, .T. ) ;
#311 = VERTEX_POINT ( 'NONE', #110 ) ;
#312 = CYLINDRICAL_SURFACE ( 'NONE', #95, 12.70000000000000300 ) ;
#313 = CC_DESIGN_PERSON_AND_ORGANIZATION_ASSIGNMENT ( #78, #138, ( #264 ) ) ;
ENDSEC;
END-ISO-10303-21;
