ISO-10303-21;
HEADER;
FILE_DESCRIPTION (( 'STEP AP203' ),
    '1' );
FILE_NAME ('03-2086.STEP',
    '2023-06-13T04:55:38',
    ( 'USER' ),
    ( 'Hewlett-Packard Company' ),
    'SwSTEP 2.0',
    'SolidWorks 2014',
    '' );
FILE_SCHEMA (( 'CONFIG_CONTROL_DESIGN' ));
ENDSEC;

DATA;
#1 = AXIS2_PLACEMENT_3D ( 'NONE', #231, #41, #264 ) ;
#2 = CIRCLE ( 'NONE', #266, 3.175000000000000700 ) ;
#3 = ORIENTED_EDGE ( 'NONE', *, *, #292, .F. ) ;
#4 = CARTESIAN_POINT ( 'NONE',  ( 32.74999999999999300, 0.0000000000000000000, 0.0000000000000000000 ) ) ;
#5 = APPROVAL ( #355, 'UNSPECIFIED' ) ;
#6 = AXIS2_PLACEMENT_3D ( 'NONE', #392, #43, #268 ) ;
#7 = ORIENTED_EDGE ( 'NONE', *, *, #182, .F. ) ;
#8 = VERTEX_POINT ( 'NONE', #39 ) ;
#9 = CARTESIAN_POINT ( 'NONE',  ( 1.000000000000003300, 3.888253587292848500E-016, -3.175000000000000700 ) ) ;
#10 = DIRECTION ( 'NONE',  ( -1.365923996832131400E-016, 1.000000000000000000, 0.0000000000000000000 ) ) ;
#11 = DIRECTION ( 'NONE',  ( 0.0000000000000000000, 1.000000000000000000, 0.0000000000000000000 ) ) ;
#12 = VECTOR ( 'NONE', #178, 1000.000000000000000 ) ;
#13 = EDGE_CURVE ( 'NONE', #328, #122, #258, .T. ) ;
#14 = ORIENTED_EDGE ( 'NONE', *, *, #351, .F. ) ;
#15 = CARTESIAN_POINT ( 'NONE',  ( -44.73749999999999700, 4.762499999999995700, 0.0000000000000000000 ) ) ;
#16 = COORDINATED_UNIVERSAL_TIME_OFFSET ( 9, 0, .AHEAD. ) ;
#17 = DIRECTION ( 'NONE',  ( -1.000000000000000000, -1.330407220862495400E-016, 0.0000000000000000000 ) ) ;
#18 = DIRECTION ( 'NONE',  ( 1.000000000000000000, 1.330407220862495400E-016, -0.0000000000000000000 ) ) ;
#19 = ORIENTED_EDGE ( 'NONE', *, *, #261, .F. ) ;
#20 = CARTESIAN_POINT ( 'NONE',  ( 32.74999999999999300, 3.888253587292854000E-016, -3.175000000000006500 ) ) ;
#21 = AXIS2_PLACEMENT_3D ( 'NONE', #149, #376, #210 ) ;
#22 = DIRECTION ( 'NONE',  ( 1.000000000000000000, 1.330407220862495400E-016, -0.0000000000000000000 ) ) ;
#23 = LINE ( 'NONE', #306, #12 ) ;
#24 = AXIS2_PLACEMENT_3D ( 'NONE', #167, #194, #72 ) ;
#25 = DIRECTION ( 'NONE',  ( 1.000000000000000000, 0.0000000000000000000, 0.0000000000000000000 ) ) ;
#26 = DIRECTION ( 'NONE',  ( -1.000000000000000000, -0.0000000000000000000, -0.0000000000000000000 ) ) ;
#27 = EDGE_LOOP ( 'NONE', ( #410, #288, #395, #92 ) ) ;
#28 = LOCAL_TIME ( 13, 55, 38.00000000000000000, #116 ) ;
#29 = ADVANCED_FACE ( 'NONE', ( #413 ), #160, .T. ) ;
#30 = PERSON_AND_ORGANIZATION_ROLE ( 'creator' ) ;
#31 = CC_DESIGN_APPROVAL ( #5, ( #404 ) ) ;
#32 = AXIS2_PLACEMENT_3D ( 'NONE', #271, #80, #299 ) ;
#33 = ORIENTED_EDGE ( 'NONE', *, *, #238, .T. ) ;
#34 = CONICAL_SURFACE ( 'NONE', #159, 3.175000000000000700, 0.7853981633974569400 ) ;
#35 = UNCERTAINTY_MEASURE_WITH_UNIT (LENGTH_MEASURE( 1.000000000000000100E-005 ), #154, 'distance_accuracy_value', 'NONE');
#36 = EDGE_LOOP ( 'NONE', ( #247, #403, #366, #236 ) ) ;
#37 = EDGE_CURVE ( 'NONE', #99, #343, #243, .T. ) ;
#38 = APPROVAL_DATE_TIME ( #126, #118 ) ;
#39 = CARTESIAN_POINT ( 'NONE',  ( -45.03750000000000900, 4.462499999999994100, 0.0000000000000000000 ) ) ;
#40 = VERTEX_POINT ( 'NONE', #230 ) ;
#41 = DIRECTION ( 'NONE',  ( -1.000000000000000000, -0.0000000000000000000, -0.0000000000000000000 ) ) ;
#42 = ORIENTED_EDGE ( 'NONE', *, *, #338, .T. ) ;
#43 = DIRECTION ( 'NONE',  ( 1.000000000000000000, 1.330407220862495400E-016, -0.0000000000000000000 ) ) ;
#44 = AXIS2_PLACEMENT_3D ( 'NONE', #378, #25, #251 ) ;
#45 = VECTOR ( 'NONE', #401, 1000.000000000000100 ) ;
#46 = DIRECTION ( 'NONE',  ( 0.7071067811865557900, -0.7071067811865392500, 8.659560562354833000E-017 ) ) ;
#47 = APPROVAL_PERSON_ORGANIZATION ( #133, #118, #219 ) ;
#48 = DIRECTION ( 'NONE',  ( 1.000000000000000000, 1.330407220862495400E-016, -0.0000000000000000000 ) ) ;
#49 = CARTESIAN_POINT ( 'NONE',  ( 0.9999999999999985600, -4.762500000000001100, 5.832380380939271100E-016 ) ) ;
#50 = DIRECTION ( 'NONE',  ( 1.000000000000000000, 1.330407220862495400E-016, -0.0000000000000000000 ) ) ;
#51 = ORIENTED_EDGE ( 'NONE', *, *, #13, .F. ) ;
#52 = CC_DESIGN_PERSON_AND_ORGANIZATION_ASSIGNMENT ( #141, #383, ( #404 ) ) ;
#53 = DIRECTION ( 'NONE',  ( 1.000000000000000000, 1.330407220862495400E-016, -0.0000000000000000000 ) ) ;
#54 = AXIS2_PLACEMENT_3D ( 'NONE', #76, #108, #368 ) ;
#55 = DIRECTION ( 'NONE',  ( 1.000000000000000000, 1.330407220862495400E-016, -0.0000000000000000000 ) ) ;
#56 = CYLINDRICAL_SURFACE ( 'NONE', #74, 3.175000000000000700 ) ;
#57 = CARTESIAN_POINT ( 'NONE',  ( 1.000000000000003300, 0.0000000000000000000, 0.0000000000000000000 ) ) ;
#58 = DIRECTION ( 'NONE',  ( -0.7071067811865413600, -0.7071067811865536800, 0.0000000000000000000 ) ) ;
#59 = COORDINATED_UNIVERSAL_TIME_OFFSET ( 9, 0, .AHEAD. ) ;
#60 = DIRECTION ( 'NONE',  ( -1.000000000000000000, 0.0000000000000000000, -0.0000000000000000000 ) ) ;
#61 = EDGE_CURVE ( 'NONE', #71, #237, #86, .T. ) ;
#62 = FACE_OUTER_BOUND ( 'NONE', #175, .T. ) ;
#63 = ADVANCED_FACE ( 'NONE', ( #169 ), #67, .T. ) ;
#64 = DIRECTION ( 'NONE',  ( 1.000000000000000000, 0.0000000000000000000, 0.0000000000000000000 ) ) ;
#65 = SECURITY_CLASSIFICATION_LEVEL ( 'unclassified' ) ;
#66 = ORIENTED_EDGE ( 'NONE', *, *, #140, .T. ) ;
#67 = CONICAL_SURFACE ( 'NONE', #363, 4.762500000000002000, 0.7853981633974367300 ) ;
#68 = AXIS2_PLACEMENT_3D ( 'NONE', #216, #26, #253 ) ;
#69 = LOCAL_TIME ( 13, 55, 38.00000000000000000, #151 ) ;
#70 = FACE_OUTER_BOUND ( 'NONE', #27, .T. ) ;
#71 = VERTEX_POINT ( 'NONE', #198 ) ;
#72 = DIRECTION ( 'NONE',  ( -1.365923996832131400E-016, 1.000000000000000000, 0.0000000000000000000 ) ) ;
#73 = CC_DESIGN_DATE_AND_TIME_ASSIGNMENT ( #215, #188, ( #404 ) ) ;
#74 = AXIS2_PLACEMENT_3D ( 'NONE', #233, #77, #10 ) ;
#75 = FACE_OUTER_BOUND ( 'NONE', #360, .T. ) ;
#76 = CARTESIAN_POINT ( 'NONE',  ( 0.9999999999999978900, 1.592040838891556900E-016, 0.0000000000000000000 ) ) ;
#77 = DIRECTION ( 'NONE',  ( 1.000000000000000000, 1.330407220862495400E-016, -0.0000000000000000000 ) ) ;
#78 = ORGANIZATION ( 'UNSPECIFIED', 'UNSPECIFIED', '' ) ;
#79 = PERSON ( 'UNSPECIFIED', 'UNSPECIFIED', 'UNSPECIFIED', ('UNSPECIFIED'), ('UNSPECIFIED'), ('UNSPECIFIED') ) ;
#80 = DIRECTION ( 'NONE',  ( 1.000000000000000000, 1.330407220862495400E-016, -0.0000000000000000000 ) ) ;
#81 = LINE ( 'NONE', #248, #340 ) ;
#82 = DIRECTION ( 'NONE',  ( 1.000000000000000000, 1.330407220862495400E-016, -0.0000000000000000000 ) ) ;
#83 = CARTESIAN_POINT ( 'NONE',  ( 4.336808689942017700E-016, 2.616336180290649600E-017, 0.0000000000000000000 ) ) ;
#84 = ORIENTED_EDGE ( 'NONE', *, *, #338, .F. ) ;
#85 = DIRECTION ( 'NONE',  ( 0.0000000000000000000, 0.0000000000000000000, 1.000000000000000000 ) ) ;
#86 = CIRCLE ( 'NONE', #398, 4.762500000000001100 ) ;
#87 = EDGE_LOOP ( 'NONE', ( #316, #110 ) ) ;
#88 = DIRECTION ( 'NONE',  ( 0.0000000000000000000, 0.0000000000000000000, 1.000000000000000000 ) ) ;
#89 = CYLINDRICAL_SURFACE ( 'NONE', #311, 3.175000000000003400 ) ;
#90 = CARTESIAN_POINT ( 'NONE',  ( 32.75000000000000000, 7.157441743400370200E-014, 0.0000000000000000000 ) ) ;
#91 = CARTESIAN_POINT ( 'NONE',  ( 0.0000000000000000000, 0.0000000000000000000, 0.0000000000000000000 ) ) ;
#92 = ORIENTED_EDGE ( 'NONE', *, *, #37, .F. ) ;
#93 = PERSON_AND_ORGANIZATION_ROLE ( 'design_owner' ) ;
#94 = APPROVAL_DATE_TIME ( #176, #265 ) ;
#95 = ADVANCED_FACE ( 'NONE', ( #75 ), #365, .T. ) ;
#96 = DATE_TIME_ROLE ( 'classification_date' ) ;
#97 = ORIENTED_EDGE ( 'NONE', *, *, #226, .F. ) ;
#98 = PRODUCT_DEFINITION_FORMATION_WITH_SPECIFIED_SOURCE ( 'ANY', '', #107, .NOT_KNOWN. ) ;
#99 = VERTEX_POINT ( 'NONE', #9 ) ;
#100 = DESIGN_CONTEXT ( 'detailed design', #321, 'design' ) ;
#101 = CONICAL_SURFACE ( 'NONE', #180, 3.175000000000000700, 0.7853981633974569400 ) ;
#102 = ORIENTED_EDGE ( 'NONE', *, *, #269, .T. ) ;
#103 = APPROVAL_PERSON_ORGANIZATION ( #186, #265, #129 ) ;
#104 = DIRECTION ( 'NONE',  ( -1.000000000000000000, -0.0000000000000000000, -0.0000000000000000000 ) ) ;
#105 = ORIENTED_EDGE ( 'NONE', *, *, #200, .F. ) ;
#106 = CARTESIAN_POINT ( 'NONE',  ( -44.73749999999999700, -5.925745942530682800E-015, 0.0000000000000000000 ) ) ;
#107 = PRODUCT ( '03-2086', '03-2086', '', ( #285 ) ) ;
#108 = DIRECTION ( 'NONE',  ( 1.000000000000000000, 1.330407220862495400E-016, -0.0000000000000000000 ) ) ;
#109 =( GEOMETRIC_REPRESENTATION_CONTEXT ( 3 ) GLOBAL_UNCERTAINTY_ASSIGNED_CONTEXT ( ( #35 ) ) GLOBAL_UNIT_ASSIGNED_CONTEXT ( ( #154, #382, #185 ) ) REPRESENTATION_CONTEXT ( 'NONE', 'WORKASPACE' ) );
#110 = ORIENTED_EDGE ( 'NONE', *, *, #37, .T. ) ;
#111 = FACE_OUTER_BOUND ( 'NONE', #307, .T. ) ;
#112 = MANIFOLD_SOLID_BREP ( 'È¸Àü4', #166 ) ;
#113 = CARTESIAN_POINT ( 'NONE',  ( 0.9999999999999983300, -3.175000000000000700, 3.888253587292847100E-016 ) ) ;
#114 = VERTEX_POINT ( 'NONE', #296 ) ;
#115 = DIRECTION ( 'NONE',  ( -1.000000000000000000, -1.330407220862495400E-016, 0.0000000000000000000 ) ) ;
#116 = COORDINATED_UNIVERSAL_TIME_OFFSET ( 9, 0, .AHEAD. ) ;
#117 = CARTESIAN_POINT ( 'NONE',  ( -1.587499999999973300, 4.762500000000001100, 5.832380380939271100E-016 ) ) ;
#118 = APPROVAL ( #412, 'UNSPECIFIED' ) ;
#119 = AXIS2_PLACEMENT_3D ( 'NONE', #272, #82, #303 ) ;
#120 = ORIENTED_EDGE ( 'NONE', *, *, #249, .T. ) ;
#121 = CARTESIAN_POINT ( 'NONE',  ( 4.336808689942017700E-016, 2.616336180290649600E-017, 0.0000000000000000000 ) ) ;
#122 = VERTEX_POINT ( 'NONE', #335 ) ;
#123 = DIRECTION ( 'NONE',  ( -0.7071067811865415800, 0.7071067811865535700, 8.659560562355008000E-017 ) ) ;
#124 = CIRCLE ( 'NONE', #290, 4.462500000000000400 ) ;
#125 = EDGE_LOOP ( 'NONE', ( #7, #157 ) ) ;
#126 = DATE_AND_TIME ( #204, #293 ) ;
#127 = APPLICATION_PROTOCOL_DEFINITION ( 'international standard', 'config_control_design', 1994, #321 ) ;
#128 = ADVANCED_FACE ( 'NONE', ( #232 ), #393, .T. ) ;
#129 = APPROVAL_ROLE ( '' ) ;
#130 = ORIENTED_EDGE ( 'NONE', *, *, #249, .F. ) ;
#131 = VECTOR ( 'NONE', #48, 1000.000000000000000 ) ;
#132 = AXIS2_PLACEMENT_3D ( 'NONE', #90, #60, #283 ) ;
#133 = PERSON_AND_ORGANIZATION ( #79, #78 ) ;
#134 = VERTEX_POINT ( 'NONE', #199 ) ;
#135 = CC_DESIGN_APPROVAL ( #118, ( #98 ) ) ;
#136 = AXIS2_PLACEMENT_3D ( 'NONE', #298, #339, #142 ) ;
#137 = ORIENTED_EDGE ( 'NONE', *, *, #261, .T. ) ;
#138 = DIRECTION ( 'NONE',  ( 1.000000000000000000, 1.330407220862495400E-016, -0.0000000000000000000 ) ) ;
#139 = FACE_OUTER_BOUND ( 'NONE', #181, .T. ) ;
#140 = EDGE_CURVE ( 'NONE', #134, #195, #147, .T. ) ;
#141 = PERSON_AND_ORGANIZATION ( #79, #78 ) ;
#142 = DIRECTION ( 'NONE',  ( 1.330407220862495400E-016, -1.000000000000000000, 0.0000000000000000000 ) ) ;
#143 = DIRECTION ( 'NONE',  ( -1.365923996832131400E-016, 1.000000000000000000, 0.0000000000000000000 ) ) ;
#144 = VECTOR ( 'NONE', #315, 1000.000000000000000 ) ;
#145 = ORIENTED_EDGE ( 'NONE', *, *, #409, .T. ) ;
#146 = DIRECTION ( 'NONE',  ( -1.000000000000000000, -0.0000000000000000000, -0.0000000000000000000 ) ) ;
#147 = LINE ( 'NONE', #396, #312 ) ;
#148 = DIRECTION ( 'NONE',  ( -1.330407220862495400E-016, 1.000000000000000000, 0.0000000000000000000 ) ) ;
#149 = CARTESIAN_POINT ( 'NONE',  ( 0.0000000000000000000, 0.0000000000000000000, 0.0000000000000000000 ) ) ;
#150 = DIRECTION ( 'NONE',  ( 0.0000000000000000000, 0.0000000000000000000, 1.000000000000000000 ) ) ;
#151 = COORDINATED_UNIVERSAL_TIME_OFFSET ( 9, 0, .AHEAD. ) ;
#152 = DIRECTION ( 'NONE',  ( 1.000000000000000000, 1.330407220862495400E-016, -0.0000000000000000000 ) ) ;
#153 = VECTOR ( 'NONE', #58, 1000.000000000000100 ) ;
#154 =( LENGTH_UNIT ( ) NAMED_UNIT ( * ) SI_UNIT ( .MILLI., .METRE. ) );
#155 = ADVANCED_FACE ( 'NONE', ( #330 ), #56, .T. ) ;
#156 = APPROVAL_ROLE ( '' ) ;
#157 = ORIENTED_EDGE ( 'NONE', *, *, #301, .F. ) ;
#158 = CC_DESIGN_PERSON_AND_ORGANIZATION_ASSIGNMENT ( #372, #30, ( #98 ) ) ;
#159 = AXIS2_PLACEMENT_3D ( 'NONE', #173, #115, #341 ) ;
#160 = CYLINDRICAL_SURFACE ( 'NONE', #24, 3.175000000000000700 ) ;
#161 = ORIENTED_EDGE ( 'NONE', *, *, #269, .F. ) ;
#162 = EDGE_CURVE ( 'NONE', #195, #190, #324, .T. ) ;
#163 = SHAPE_DEFINITION_REPRESENTATION ( #336, #300 ) ;
#164 = ORIENTED_EDGE ( 'NONE', *, *, #390, .F. ) ;
#165 = CIRCLE ( 'NONE', #374, 3.175000000000000700 ) ;
#166 = CLOSED_SHELL ( 'NONE', ( #320, #220, #256, #155, #187, #95, #29, #217, #128, #63 ) ) ;
#167 = CARTESIAN_POINT ( 'NONE',  ( 0.9999999999999978900, 1.592040838891556900E-016, 0.0000000000000000000 ) ) ;
#168 = DIRECTION ( 'NONE',  ( 0.0000000000000000000, 1.000000000000000000, 0.0000000000000000000 ) ) ;
#169 = FACE_OUTER_BOUND ( 'NONE', #36, .T. ) ;
#170 = EDGE_LOOP ( 'NONE', ( #145, #370, #189, #332 ) ) ;
#171 = CARTESIAN_POINT ( 'NONE',  ( 8.560851616180442000E-016, -3.175000000000000700, 3.888253587292847100E-016 ) ) ;
#172 = LINE ( 'NONE', #308, #349 ) ;
#173 = CARTESIAN_POINT ( 'NONE',  ( 4.336808689942017700E-016, 2.616336180290649600E-017, 0.0000000000000000000 ) ) ;
#174 = DIRECTION ( 'NONE',  ( 1.000000000000000000, 1.330407220862495400E-016, -0.0000000000000000000 ) ) ;
#175 = EDGE_LOOP ( 'NONE', ( #273, #51 ) ) ;
#176 = DATE_AND_TIME ( #263, #354 ) ;
#177 = CARTESIAN_POINT ( 'NONE',  ( 1.000000000000003100, 1.592040838891563800E-016, 0.0000000000000000000 ) ) ;
#178 = DIRECTION ( 'NONE',  ( -1.000000000000000000, -0.0000000000000000000, -0.0000000000000000000 ) ) ;
#179 = CC_DESIGN_PERSON_AND_ORGANIZATION_ASSIGNMENT ( #284, #257, ( #98 ) ) ;
#180 = AXIS2_PLACEMENT_3D ( 'NONE', #83, #17, #241 ) ;
#181 = EDGE_LOOP ( 'NONE', ( #84, #164, #277, #267 ) ) ;
#182 = EDGE_CURVE ( 'NONE', #8, #134, #225, .T. ) ;
#183 = LINE ( 'NONE', #275, #359 ) ;
#184 = VERTEX_POINT ( 'NONE', #171 ) ;
#185 =( NAMED_UNIT ( * ) SI_UNIT ( $, .STERADIAN. ) SOLID_ANGLE_UNIT ( ) );
#186 = PERSON_AND_ORGANIZATION ( #79, #78 ) ;
#187 = ADVANCED_FACE ( 'NONE', ( #297 ), #235, .T. ) ;
#188 = DATE_TIME_ROLE ( 'creation_date' ) ;
#189 = ORIENTED_EDGE ( 'NONE', *, *, #326, .F. ) ;
#190 = VERTEX_POINT ( 'NONE', #337 ) ;
#191 = VECTOR ( 'NONE', #305, 1000.000000000000000 ) ;
#192 = ORIENTED_EDGE ( 'NONE', *, *, #182, .T. ) ;
#193 = PERSON_AND_ORGANIZATION ( #79, #78 ) ;
#194 = DIRECTION ( 'NONE',  ( 1.000000000000000000, 1.330407220862495400E-016, -0.0000000000000000000 ) ) ;
#195 = VERTEX_POINT ( 'NONE', #203 ) ;
#196 = SECURITY_CLASSIFICATION ( '', '', #65 ) ;
#197 = AXIS2_PLACEMENT_3D ( 'NONE', #177, #402, #206 ) ;
#198 = CARTESIAN_POINT ( 'NONE',  ( -1.587499999999971700, -4.762500000000001100, 0.0000000000000000000 ) ) ;
#199 = CARTESIAN_POINT ( 'NONE',  ( -45.03750000000000900, -4.462500000000006600, 5.648683361067169800E-016 ) ) ;
#200 = EDGE_CURVE ( 'NONE', #190, #195, #406, .T. ) ;
#201 = CIRCLE ( 'NONE', #197, 3.175000000000000700 ) ;
#202 = DIRECTION ( 'NONE',  ( 1.000000000000000000, 1.330407220862495400E-016, -0.0000000000000000000 ) ) ;
#203 = CARTESIAN_POINT ( 'NONE',  ( -44.73749999999999700, -4.762500000000008200, 5.832380380939275000E-016 ) ) ;
#204 = CALENDAR_DATE ( 2023, 13, 6 ) ;
#205 = CARTESIAN_POINT ( 'NONE',  ( 0.9999999999999978900, 1.592040838891556900E-016, 0.0000000000000000000 ) ) ;
#206 = DIRECTION ( 'NONE',  ( -1.365923996832131400E-016, 1.000000000000000000, 0.0000000000000000000 ) ) ;
#207 = CARTESIAN_POINT ( 'NONE',  ( -1.587499999999972600, -1.850387845090110400E-016, 0.0000000000000000000 ) ) ;
#208 = ORIENTED_EDGE ( 'NONE', *, *, #390, .T. ) ;
#209 = DIRECTION ( 'NONE',  ( 0.0000000000000000000, 1.000000000000000000, 0.0000000000000000000 ) ) ;
#210 = DIRECTION ( 'NONE',  ( 0.0000000000000000000, 0.0000000000000000000, 1.000000000000000000 ) ) ;
#211 = LINE ( 'NONE', #113, #131 ) ;
#212 = CARTESIAN_POINT ( 'NONE',  ( 1.000000000000003100, 1.592040838891563800E-016, 0.0000000000000000000 ) ) ;
#213 = PLANE ( 'NONE',  #44 ) ;
#214 = EDGE_CURVE ( 'NONE', #184, #114, #211, .T. ) ;
#215 = DATE_AND_TIME ( #302, #389 ) ;
#216 = CARTESIAN_POINT ( 'NONE',  ( 32.74999999999999300, 0.0000000000000000000, 0.0000000000000000000 ) ) ;
#217 = ADVANCED_FACE ( 'NONE', ( #139 ), #34, .T. ) ;
#218 = APPLICATION_PROTOCOL_DEFINITION ( 'international standard', 'config_control_design', 1994, #254 ) ;
#219 = APPROVAL_ROLE ( '' ) ;
#220 = ADVANCED_FACE ( 'NONE', ( #387 ), #375, .T. ) ;
#221 = ORIENTED_EDGE ( 'NONE', *, *, #61, .F. ) ;
#222 = CC_DESIGN_PERSON_AND_ORGANIZATION_ASSIGNMENT ( #193, #287, ( #196 ) ) ;
#223 = AXIS2_PLACEMENT_3D ( 'NONE', #205, #174, #143 ) ;
#224 = EDGE_LOOP ( 'NONE', ( #255, #208, #137, #14 ) ) ;
#225 = CIRCLE ( 'NONE', #32, 4.462500000000000400 ) ;
#226 = EDGE_CURVE ( 'NONE', #8, #190, #291, .T. ) ;
#227 = APPROVAL_DATE_TIME ( #317, #5 ) ;
#228 = CIRCLE ( 'NONE', #394, 3.175000000000000700 ) ;
#229 = EDGE_LOOP ( 'NONE', ( #294, #42, #102, #386 ) ) ;
#230 = CARTESIAN_POINT ( 'NONE',  ( 1.000000000000002700, 3.175000000000000700, 0.0000000000000000000 ) ) ;
#231 = CARTESIAN_POINT ( 'NONE',  ( 1.000000000000003300, 0.0000000000000000000, 0.0000000000000000000 ) ) ;
#232 = FACE_OUTER_BOUND ( 'NONE', #342, .T. ) ;
#233 = CARTESIAN_POINT ( 'NONE',  ( 0.9999999999999978900, 1.592040838891556900E-016, 0.0000000000000000000 ) ) ;
#234 = APPROVAL_PERSON_ORGANIZATION ( #325, #5, #156 ) ;
#235 = PLANE ( 'NONE',  #136 ) ;
#236 = ORIENTED_EDGE ( 'NONE', *, *, #162, .F. ) ;
#237 = VERTEX_POINT ( 'NONE', #117 ) ;
#238 = EDGE_CURVE ( 'NONE', #40, #114, #201, .T. ) ;
#239 = CONICAL_SURFACE ( 'NONE', #334, 4.762500000000002000, 0.7853981633974367300 ) ;
#240 = ORIENTED_EDGE ( 'NONE', *, *, #200, .T. ) ;
#241 = DIRECTION ( 'NONE',  ( 1.330407220862495600E-016, -1.000000000000000000, 0.0000000000000000000 ) ) ;
#242 = DIRECTION ( 'NONE',  ( -1.365923996832131400E-016, 1.000000000000000000, 0.0000000000000000000 ) ) ;
#243 = CIRCLE ( 'NONE', #1, 3.175000000000000700 ) ;
#244 = CC_DESIGN_DATE_AND_TIME_ASSIGNMENT ( #274, #96, ( #196 ) ) ;
#245 = CARTESIAN_POINT ( 'NONE',  ( -45.03750000000000900, -5.965658159156558100E-015, 0.0000000000000000000 ) ) ;
#246 = AXIS2_PLACEMENT_3D ( 'NONE', #207, #18, #242 ) ;
#247 = ORIENTED_EDGE ( 'NONE', *, *, #140, .F. ) ;
#248 = CARTESIAN_POINT ( 'NONE',  ( 1.127657637035941300E-017, 3.175000000000000700, 3.888253587292847100E-016 ) ) ;
#249 = EDGE_CURVE ( 'NONE', #195, #71, #369, .T. ) ;
#250 = DIRECTION ( 'NONE',  ( -1.365923996832131400E-016, 1.000000000000000000, 0.0000000000000000000 ) ) ;
#251 = DIRECTION ( 'NONE',  ( 0.0000000000000000000, 0.0000000000000000000, -1.000000000000000000 ) ) ;
#252 = FACE_OUTER_BOUND ( 'NONE', #87, .T. ) ;
#253 = DIRECTION ( 'NONE',  ( 0.0000000000000000000, 0.0000000000000000000, 1.000000000000000000 ) ) ;
#254 = APPLICATION_CONTEXT ( 'configuration controlled 3d designs of mechanical parts and assemblies' ) ;
#255 = ORIENTED_EDGE ( 'NONE', *, *, #214, .F. ) ;
#256 = ADVANCED_FACE ( 'NONE', ( #280 ), #101, .T. ) ;
#257 = PERSON_AND_ORGANIZATION_ROLE ( 'design_supplier' ) ;
#258 = CIRCLE ( 'NONE', #377, 3.175000000000006000 ) ;
#259 = ORIENTED_EDGE ( 'NONE', *, *, #314, .T. ) ;
#260 = FACE_OUTER_BOUND ( 'NONE', #170, .T. ) ;
#261 = EDGE_CURVE ( 'NONE', #352, #40, #183, .T. ) ;
#262 = ORIENTED_EDGE ( 'NONE', *, *, #292, .T. ) ;
#263 = CALENDAR_DATE ( 2023, 13, 6 ) ;
#264 = DIRECTION ( 'NONE',  ( 0.0000000000000000000, 0.0000000000000000000, 1.000000000000000000 ) ) ;
#265 = APPROVAL ( #323, 'UNSPECIFIED' ) ;
#266 = AXIS2_PLACEMENT_3D ( 'NONE', #121, #345, #148 ) ;
#267 = ORIENTED_EDGE ( 'NONE', *, *, #61, .T. ) ;
#268 = DIRECTION ( 'NONE',  ( -1.330407220862495400E-016, 1.000000000000000000, 0.0000000000000000000 ) ) ;
#269 = EDGE_CURVE ( 'NONE', #237, #71, #270, .T. ) ;
#270 = CIRCLE ( 'NONE', #246, 4.762500000000001100 ) ;
#271 = CARTESIAN_POINT ( 'NONE',  ( -45.03750000000000900, -5.965658159156558100E-015, 0.0000000000000000000 ) ) ;
#272 = CARTESIAN_POINT ( 'NONE',  ( -44.73749999999999700, -5.925745942530682800E-015, 0.0000000000000000000 ) ) ;
#273 = ORIENTED_EDGE ( 'NONE', *, *, #409, .F. ) ;
#274 = DATE_AND_TIME ( #361, #28 ) ;
#275 = CARTESIAN_POINT ( 'NONE',  ( 0.9999999999999974500, 3.175000000000000700, 0.0000000000000000000 ) ) ;
#276 = CARTESIAN_POINT ( 'NONE',  ( 0.0000000000000000000, 0.0000000000000000000, 0.0000000000000000000 ) ) ;
#277 = ORIENTED_EDGE ( 'NONE', *, *, #358, .T. ) ;
#278 = DIRECTION ( 'NONE',  ( 0.0000000000000000000, 1.000000000000000000, 0.0000000000000000000 ) ) ;
#279 = DIRECTION ( 'NONE',  ( -1.000000000000000000, -0.0000000000000000000, -0.0000000000000000000 ) ) ;
#280 = FACE_OUTER_BOUND ( 'NONE', #229, .T. ) ;
#281 = CARTESIAN_POINT ( 'NONE',  ( 8.560851616180442000E-016, -3.175000000000000700, 0.0000000000000000000 ) ) ;
#282 = EDGE_CURVE ( 'NONE', #122, #343, #23, .T. ) ;
#283 = DIRECTION ( 'NONE',  ( -0.0000000000000000000, 0.0000000000000000000, 1.000000000000000000 ) ) ;
#284 = PERSON_AND_ORGANIZATION ( #79, #78 ) ;
#285 = MECHANICAL_CONTEXT ( 'NONE', #254, 'mechanical' ) ;
#286 = ADVANCED_FACE ( 'NONE', ( #260 ), #89, .T. ) ;
#287 = PERSON_AND_ORGANIZATION_ROLE ( 'classification_officer' ) ;
#288 = ORIENTED_EDGE ( 'NONE', *, *, #13, .T. ) ;
#289 = CC_DESIGN_APPROVAL ( #265, ( #196 ) ) ;
#290 = AXIS2_PLACEMENT_3D ( 'NONE', #245, #55, #278 ) ;
#291 = LINE ( 'NONE', #15, #45 ) ;
#292 = EDGE_CURVE ( 'NONE', #190, #237, #172, .T. ) ;
#293 = LOCAL_TIME ( 13, 55, 38.00000000000000000, #381 ) ;
#294 = ORIENTED_EDGE ( 'NONE', *, *, #314, .F. ) ;
#295 = DIRECTION ( 'NONE',  ( 1.000000000000000000, 1.330407220862495400E-016, -0.0000000000000000000 ) ) ;
#296 = CARTESIAN_POINT ( 'NONE',  ( 1.000000000000003600, -3.175000000000000700, 3.888253587292847100E-016 ) ) ;
#297 = FACE_OUTER_BOUND ( 'NONE', #125, .T. ) ;
#298 = CARTESIAN_POINT ( 'NONE',  ( -45.03750000000000900, -5.965658159156558100E-015, 0.0000000000000000000 ) ) ;
#299 = DIRECTION ( 'NONE',  ( 0.0000000000000000000, 1.000000000000000000, 0.0000000000000000000 ) ) ;
#300 = ADVANCED_BREP_SHAPE_REPRESENTATION ( '03-2086', ( #379, #112, #362 ), #109 ) ;
#301 = EDGE_CURVE ( 'NONE', #134, #8, #124, .T. ) ;
#302 = CALENDAR_DATE ( 2023, 13, 6 ) ;
#303 = DIRECTION ( 'NONE',  ( 0.0000000000000000000, 1.000000000000000000, 0.0000000000000000000 ) ) ;
#304 = CIRCLE ( 'NONE', #68, 3.175000000000006000 ) ;
#305 = DIRECTION ( 'NONE',  ( 1.000000000000000000, 1.330407220862495400E-016, -0.0000000000000000000 ) ) ;
#306 = CARTESIAN_POINT ( 'NONE',  ( 0.0000000000000000000, 0.0000000000000000000, 3.175000000000003400 ) ) ;
#307 = EDGE_LOOP ( 'NONE', ( #192, #66, #105, #97 ) ) ;
#308 = CARTESIAN_POINT ( 'NONE',  ( 0.9999999999999972200, 4.762500000000001100, 0.0000000000000000000 ) ) ;
#309 = CC_DESIGN_SECURITY_CLASSIFICATION ( #196, ( #98 ) ) ;
#310 = CARTESIAN_POINT ( 'NONE',  ( -44.73749999999999700, -5.925745942530682800E-015, 0.0000000000000000000 ) ) ;
#311 = AXIS2_PLACEMENT_3D ( 'NONE', #276, #146, #85 ) ;
#312 = VECTOR ( 'NONE', #46, 1000.000000000000000 ) ;
#313 = CARTESIAN_POINT ( 'NONE',  ( 1.000000000000003300, 0.0000000000000000000, 3.175000000000000700 ) ) ;
#314 = EDGE_CURVE ( 'NONE', #352, #184, #2, .T. ) ;
#315 = DIRECTION ( 'NONE',  ( -1.000000000000000000, -0.0000000000000000000, -0.0000000000000000000 ) ) ;
#316 = ORIENTED_EDGE ( 'NONE', *, *, #326, .T. ) ;
#317 = DATE_AND_TIME ( #399, #69 ) ;
#318 = PLANE ( 'NONE',  #132 ) ;
#319 = CYLINDRICAL_SURFACE ( 'NONE', #21, 3.175000000000003400 ) ;
#320 = ADVANCED_FACE ( 'NONE', ( #111 ), #239, .T. ) ;
#321 = APPLICATION_CONTEXT ( 'configuration controlled 3d designs of mechanical parts and assemblies' ) ;
#322 = EDGE_LOOP ( 'NONE', ( #259, #388, #391, #19 ) ) ;
#323 = APPROVAL_STATUS ( 'not_yet_approved' ) ;
#324 = CIRCLE ( 'NONE', #405, 4.762500000000002000 ) ;
#325 = PERSON_AND_ORGANIZATION ( #79, #78 ) ;
#326 = EDGE_CURVE ( 'NONE', #343, #99, #327, .T. ) ;
#327 = CIRCLE ( 'NONE', #357, 3.175000000000000700 ) ;
#328 = VERTEX_POINT ( 'NONE', #20 ) ;
#329 = DIRECTION ( 'NONE',  ( 0.0000000000000000000, 0.0000000000000000000, 1.000000000000000000 ) ) ;
#330 = FACE_OUTER_BOUND ( 'NONE', #322, .T. ) ;
#331 = CARTESIAN_POINT ( 'NONE',  ( -1.587499999999972600, -1.850387845090110400E-016, 0.0000000000000000000 ) ) ;
#332 = ORIENTED_EDGE ( 'NONE', *, *, #282, .F. ) ;
#333 = PRODUCT_RELATED_PRODUCT_CATEGORY ( 'detail', '', ( #107 ) ) ;
#334 = AXIS2_PLACEMENT_3D ( 'NONE', #310, #344, #209 ) ;
#335 = CARTESIAN_POINT ( 'NONE',  ( 32.74999999999999300, 0.0000000000000000000, 3.175000000000006000 ) ) ;
#336 = PRODUCT_DEFINITION_SHAPE ( 'NONE', 'NONE',  #404 ) ;
#337 = CARTESIAN_POINT ( 'NONE',  ( -44.73749999999999700, 4.762499999999995700, 0.0000000000000000000 ) ) ;
#338 = EDGE_CURVE ( 'NONE', #352, #237, #81, .T. ) ;
#339 = DIRECTION ( 'NONE',  ( -1.000000000000000000, -1.330407220862495400E-016, 0.0000000000000000000 ) ) ;
#340 = VECTOR ( 'NONE', #123, 1000.000000000000000 ) ;
#341 = DIRECTION ( 'NONE',  ( 1.330407220862495600E-016, -1.000000000000000000, 0.0000000000000000000 ) ) ;
#342 = EDGE_LOOP ( 'NONE', ( #130, #356, #262, #221 ) ) ;
#343 = VERTEX_POINT ( 'NONE', #313 ) ;
#344 = DIRECTION ( 'NONE',  ( 1.000000000000000000, 1.330407220862495400E-016, -0.0000000000000000000 ) ) ;
#345 = DIRECTION ( 'NONE',  ( 1.000000000000000000, 1.330407220862495400E-016, -0.0000000000000000000 ) ) ;
#346 = CLOSED_SHELL ( 'NONE', ( #286, #353, #384, #411 ) ) ;
#347 = CARTESIAN_POINT ( 'NONE',  ( 1.127657637035941300E-017, 3.175000000000000700, 0.0000000000000000000 ) ) ;
#348 = CARTESIAN_POINT ( 'NONE',  ( 0.0000000000000000000, 3.888253587292850500E-016, -3.175000000000003400 ) ) ;
#349 = VECTOR ( 'NONE', #53, 1000.000000000000000 ) ;
#350 = CARTESIAN_POINT ( 'NONE',  ( 4.336808689942017700E-016, 2.616336180290649600E-017, 0.0000000000000000000 ) ) ;
#351 = EDGE_CURVE ( 'NONE', #114, #40, #165, .T. ) ;
#352 = VERTEX_POINT ( 'NONE', #347 ) ;
#353 = ADVANCED_FACE ( 'NONE', ( #70 ), #319, .T. ) ;
#354 = LOCAL_TIME ( 13, 55, 38.00000000000000000, #16 ) ;
#355 = APPROVAL_STATUS ( 'not_yet_approved' ) ;
#356 = ORIENTED_EDGE ( 'NONE', *, *, #162, .T. ) ;
#357 = AXIS2_PLACEMENT_3D ( 'NONE', #57, #279, #88 ) ;
#358 = EDGE_CURVE ( 'NONE', #184, #71, #400, .T. ) ;
#359 = VECTOR ( 'NONE', #50, 1000.000000000000000 ) ;
#360 = EDGE_LOOP ( 'NONE', ( #33, #364 ) ) ;
#361 = CALENDAR_DATE ( 2023, 13, 6 ) ;
#362 = AXIS2_PLACEMENT_3D ( 'NONE', #91, #150, #64 ) ;
#363 = AXIS2_PLACEMENT_3D ( 'NONE', #106, #295, #168 ) ;
#364 = ORIENTED_EDGE ( 'NONE', *, *, #351, .T. ) ;
#365 = PLANE ( 'NONE',  #6 ) ;
#366 = ORIENTED_EDGE ( 'NONE', *, *, #226, .T. ) ;
#367 = DIRECTION ( 'NONE',  ( -1.365923996832131400E-016, 1.000000000000000000, 0.0000000000000000000 ) ) ;
#368 = DIRECTION ( 'NONE',  ( -1.365923996832131400E-016, 1.000000000000000000, 0.0000000000000000000 ) ) ;
#369 = LINE ( 'NONE', #49, #191 ) ;
#370 = ORIENTED_EDGE ( 'NONE', *, *, #371, .T. ) ;
#371 = EDGE_CURVE ( 'NONE', #328, #99, #408, .T. ) ;
#372 = PERSON_AND_ORGANIZATION ( #79, #78 ) ;
#373 = EDGE_LOOP ( 'NONE', ( #240, #120, #161, #3 ) ) ;
#374 = AXIS2_PLACEMENT_3D ( 'NONE', #212, #22, #250 ) ;
#375 = CYLINDRICAL_SURFACE ( 'NONE', #223, 4.762500000000001100 ) ;
#376 = DIRECTION ( 'NONE',  ( -1.000000000000000000, -0.0000000000000000000, -0.0000000000000000000 ) ) ;
#377 = AXIS2_PLACEMENT_3D ( 'NONE', #4, #104, #329 ) ;
#378 = CARTESIAN_POINT ( 'NONE',  ( 1.000000000000002400, -5.463695987328534300E-016, 0.0000000000000000000 ) ) ;
#379 = MANIFOLD_SOLID_BREP ( 'È¸Àü3', #346 ) ;
#380 = DIRECTION ( 'NONE',  ( -1.330407220862495400E-016, 1.000000000000000000, 0.0000000000000000000 ) ) ;
#381 = COORDINATED_UNIVERSAL_TIME_OFFSET ( 9, 0, .AHEAD. ) ;
#382 =( NAMED_UNIT ( * ) PLANE_ANGLE_UNIT ( ) SI_UNIT ( $, .RADIAN. ) );
#383 = PERSON_AND_ORGANIZATION_ROLE ( 'creator' ) ;
#384 = ADVANCED_FACE ( 'NONE', ( #252 ), #213, .F. ) ;
#385 = CC_DESIGN_PERSON_AND_ORGANIZATION_ASSIGNMENT ( #407, #93, ( #107 ) ) ;
#386 = ORIENTED_EDGE ( 'NONE', *, *, #358, .F. ) ;
#387 = FACE_OUTER_BOUND ( 'NONE', #373, .T. ) ;
#388 = ORIENTED_EDGE ( 'NONE', *, *, #214, .T. ) ;
#389 = LOCAL_TIME ( 13, 55, 38.00000000000000000, #59 ) ;
#390 = EDGE_CURVE ( 'NONE', #184, #352, #228, .T. ) ;
#391 = ORIENTED_EDGE ( 'NONE', *, *, #238, .F. ) ;
#392 = CARTESIAN_POINT ( 'NONE',  ( 1.000000000000000000, 3.175000000000000700, 0.0000000000000000000 ) ) ;
#393 = CYLINDRICAL_SURFACE ( 'NONE', #54, 4.762500000000001100 ) ;
#394 = AXIS2_PLACEMENT_3D ( 'NONE', #350, #152, #380 ) ;
#395 = ORIENTED_EDGE ( 'NONE', *, *, #282, .T. ) ;
#396 = CARTESIAN_POINT ( 'NONE',  ( -44.73749999999999700, -4.762500000000008200, 5.832380380939272100E-016 ) ) ;
#397 = CARTESIAN_POINT ( 'NONE',  ( -44.73749999999999700, -5.925745942530682800E-015, 0.0000000000000000000 ) ) ;
#398 = AXIS2_PLACEMENT_3D ( 'NONE', #331, #138, #367 ) ;
#399 = CALENDAR_DATE ( 2023, 13, 6 ) ;
#400 = LINE ( 'NONE', #281, #153 ) ;
#401 = DIRECTION ( 'NONE',  ( 0.7071067811865555700, 0.7071067811865393600, 0.0000000000000000000 ) ) ;
#402 = DIRECTION ( 'NONE',  ( 1.000000000000000000, 1.330407220862495400E-016, -0.0000000000000000000 ) ) ;
#403 = ORIENTED_EDGE ( 'NONE', *, *, #301, .T. ) ;
#404 = PRODUCT_DEFINITION ( 'UNKNOWN', '', #98, #100 ) ;
#405 = AXIS2_PLACEMENT_3D ( 'NONE', #397, #202, #11 ) ;
#406 = CIRCLE ( 'NONE', #119, 4.762500000000002000 ) ;
#407 = PERSON_AND_ORGANIZATION ( #79, #78 ) ;
#408 = LINE ( 'NONE', #348, #144 ) ;
#409 = EDGE_CURVE ( 'NONE', #122, #328, #304, .T. ) ;
#410 = ORIENTED_EDGE ( 'NONE', *, *, #371, .F. ) ;
#411 = ADVANCED_FACE ( 'NONE', ( #62 ), #318, .F. ) ;
#412 = APPROVAL_STATUS ( 'not_yet_approved' ) ;
#413 = FACE_OUTER_BOUND ( 'NONE', #224, .T. ) ;
ENDSEC;
END-ISO-10303-21;
