ISO-10303-21;
HEADER;
FILE_DESCRIPTION (( 'STEP AP203' ),
    '1' );
FILE_NAME ('03-2087.STEP',
    '2023-06-13T04:56:02',
    ( 'USER' ),
    ( 'Hewlett-Packard Company' ),
    'SwSTEP 2.0',
    'SolidWorks 2014',
    '' );
FILE_SCHEMA (( 'CONFIG_CONTROL_DESIGN' ));
ENDSEC;

DATA;
#1 = ADVANCED_FACE ( 'NONE', ( #184 ), #174, .T. ) ;
#2 = DIRECTION ( 'NONE',  ( -1.000000000000000000, -0.0000000000000000000, -0.0000000000000000000 ) ) ;
#3 = CYLINDRICAL_SURFACE ( 'NONE', #28, 4.762500000000000200 ) ;
#4 = ADVANCED_FACE ( 'NONE', ( #21 ), #269, .T. ) ;
#5 = EDGE_CURVE ( 'NONE', #198, #301, #93, .T. ) ;
#6 = DIRECTION ( 'NONE',  ( 0.0000000000000000000, 1.000000000000000000, 0.0000000000000000000 ) ) ;
#7 = PERSON_AND_ORGANIZATION ( #173, #124 ) ;
#8 = CARTESIAN_POINT ( 'NONE',  ( 35.92499999999999700, 0.0000000000000000000, 0.0000000000000000000 ) ) ;
#9 = CARTESIAN_POINT ( 'NONE',  ( -0.7937499999999978500, 4.762500000000000200, 5.832380380939269100E-016 ) ) ;
#10 = ORIENTED_EDGE ( 'NONE', *, *, #260, .T. ) ;
#11 = CARTESIAN_POINT ( 'NONE',  ( 0.9999999999999972200, 4.762500000000000200, 0.0000000000000000000 ) ) ;
#12 = VECTOR ( 'NONE', #41, 1000.000000000000000 ) ;
#13 = AXIS2_PLACEMENT_3D ( 'NONE', #343, #180, #213 ) ;
#14 = APPLICATION_PROTOCOL_DEFINITION ( 'international standard', 'config_control_design', 1994, #43 ) ;
#15 = CIRCLE ( 'NONE', #72, 3.968750000000000000 ) ;
#16 = APPROVAL_STATUS ( 'not_yet_approved' ) ;
#17 = COORDINATED_UNIVERSAL_TIME_OFFSET ( 9, 0, .AHEAD. ) ;
#18 = ORIENTED_EDGE ( 'NONE', *, *, #260, .F. ) ;
#19 = CC_DESIGN_PERSON_AND_ORGANIZATION_ASSIGNMENT ( #44, #108, ( #37 ) ) ;
#20 = FACE_OUTER_BOUND ( 'NONE', #280, .T. ) ;
#21 = FACE_OUTER_BOUND ( 'NONE', #388, .T. ) ;
#22 = LOCAL_TIME ( 13, 56, 2.000000000000000000, #109 ) ;
#23 = EDGE_CURVE ( 'NONE', #256, #166, #347, .T. ) ;
#24 = CARTESIAN_POINT ( 'NONE',  ( 0.9999999999999997800, 0.0000000000000000000, 3.968750000000000000 ) ) ;
#25 = ORIENTED_EDGE ( 'NONE', *, *, #235, .F. ) ;
#26 = FACE_OUTER_BOUND ( 'NONE', #161, .T. ) ;
#27 = CARTESIAN_POINT ( 'NONE',  ( 0.0000000000000000000, 4.860316984116063000E-016, -3.968750000000003600 ) ) ;
#28 = AXIS2_PLACEMENT_3D ( 'NONE', #240, #53, #51 ) ;
#29 = CARTESIAN_POINT ( 'NONE',  ( -43.44999999999999600, 4.462499999999995000, 0.0000000000000000000 ) ) ;
#30 = ORIENTED_EDGE ( 'NONE', *, *, #200, .F. ) ;
#31 = CARTESIAN_POINT ( 'NONE',  ( 1.000000000000000700, 4.370956789862827600E-016, 0.0000000000000000000 ) ) ;
#32 = ADVANCED_FACE ( 'NONE', ( #250 ), #3, .T. ) ;
#33 = CALENDAR_DATE ( 2023, 13, 6 ) ;
#34 = DIRECTION ( 'NONE',  ( 1.000000000000000000, 1.255964264747572600E-016, -0.0000000000000000000 ) ) ;
#35 = VERTEX_POINT ( 'NONE', #305 ) ;
#36 = AXIS2_PLACEMENT_3D ( 'NONE', #38, #255, #67 ) ;
#37 = PRODUCT ( '03-2087', '03-2087', '', ( #295 ) ) ;
#38 = CARTESIAN_POINT ( 'NONE',  ( -43.14999999999999900, -5.385878144971377200E-015, 0.0000000000000000000 ) ) ;
#39 = PRODUCT_DEFINITION ( 'UNKNOWN', '', #143, #88 ) ;
#40 = CIRCLE ( 'NONE', #367, 3.968750000000000000 ) ;
#41 = DIRECTION ( 'NONE',  ( -1.000000000000000000, -0.0000000000000000000, -0.0000000000000000000 ) ) ;
#42 = ORIENTED_EDGE ( 'NONE', *, *, #243, .F. ) ;
#43 = APPLICATION_CONTEXT ( 'configuration controlled 3d designs of mechanical parts and assemblies' ) ;
#44 = PERSON_AND_ORGANIZATION ( #173, #124 ) ;
#45 = PERSON_AND_ORGANIZATION_ROLE ( 'creator' ) ;
#46 = ORIENTED_EDGE ( 'NONE', *, *, #218, .T. ) ;
#47 = LINE ( 'NONE', #352, #264 ) ;
#48 = ORIENTED_EDGE ( 'NONE', *, *, #374, .T. ) ;
#49 = AXIS2_PLACEMENT_3D ( 'NONE', #149, #377, #178 ) ;
#50 = CIRCLE ( 'NONE', #169, 4.762500000000000200 ) ;
#51 = DIRECTION ( 'NONE',  ( -1.365923996832131600E-016, 1.000000000000000000, 0.0000000000000000000 ) ) ;
#52 = VERTEX_POINT ( 'NONE', #85 ) ;
#53 = DIRECTION ( 'NONE',  ( 1.000000000000000000, 1.255964264747572600E-016, -0.0000000000000000000 ) ) ;
#54 = AXIS2_PLACEMENT_3D ( 'NONE', #8, #130, #354 ) ;
#55 = FACE_OUTER_BOUND ( 'NONE', #355, .T. ) ;
#56 = DIRECTION ( 'NONE',  ( -1.000000000000000000, -0.0000000000000000000, -0.0000000000000000000 ) ) ;
#57 = APPROVAL ( #365, 'UNSPECIFIED' ) ;
#58 = DIRECTION ( 'NONE',  ( -1.000000000000000000, -0.0000000000000000000, -0.0000000000000000000 ) ) ;
#59 = VERTEX_POINT ( 'NONE', #24 ) ;
#60 = CARTESIAN_POINT ( 'NONE',  ( -0.7937499999999971800, -6.608450609993949700E-017, 0.0000000000000000000 ) ) ;
#61 = DIRECTION ( 'NONE',  ( -1.000000000000000000, -0.0000000000000000000, -0.0000000000000000000 ) ) ;
#62 = ADVANCED_FACE ( 'NONE', ( #165 ), #370, .T. ) ;
#63 = CARTESIAN_POINT ( 'NONE',  ( 0.9999999999999983300, -3.968750000000000000, 4.860316984116058100E-016 ) ) ;
#64 = ORIENTED_EDGE ( 'NONE', *, *, #107, .F. ) ;
#65 = DIRECTION ( 'NONE',  ( 1.000000000000000000, 1.255964264747572600E-016, -0.0000000000000000000 ) ) ;
#66 = COORDINATED_UNIVERSAL_TIME_OFFSET ( 9, 0, .AHEAD. ) ;
#67 = DIRECTION ( 'NONE',  ( 0.0000000000000000000, 1.000000000000000000, 0.0000000000000000000 ) ) ;
#68 = DIRECTION ( 'NONE',  ( -1.092739197465705300E-016, 1.000000000000000000, 0.0000000000000000000 ) ) ;
#69 = EDGE_LOOP ( 'NONE', ( #372, #376, #323, #362 ) ) ;
#70 = ORIENTED_EDGE ( 'NONE', *, *, #302, .T. ) ;
#71 = CARTESIAN_POINT ( 'NONE',  ( -43.14999999999999900, 4.762499999999994800, 0.0000000000000000000 ) ) ;
#72 = AXIS2_PLACEMENT_3D ( 'NONE', #242, #58, #275 ) ;
#73 = CONICAL_SURFACE ( 'NONE', #211, 4.762500000000000200, 0.7853981633974569400 ) ;
#74 = DIRECTION ( 'NONE',  ( 1.000000000000000000, 0.0000000000000000000, 0.0000000000000000000 ) ) ;
#75 = ORIENTED_EDGE ( 'NONE', *, *, #200, .T. ) ;
#76 = SECURITY_CLASSIFICATION_LEVEL ( 'unclassified' ) ;
#77 = LOCAL_TIME ( 13, 56, 2.000000000000000000, #158 ) ;
#78 = CC_DESIGN_APPROVAL ( #57, ( #39 ) ) ;
#79 = ORIENTED_EDGE ( 'NONE', *, *, #154, .F. ) ;
#80 = EDGE_CURVE ( 'NONE', #171, #303, #81, .T. ) ;
#81 = CIRCLE ( 'NONE', #334, 3.968750000000000000 ) ;
#82 = EDGE_LOOP ( 'NONE', ( #18, #134 ) ) ;
#83 = APPROVAL_DATE_TIME ( #168, #162 ) ;
#84 = CARTESIAN_POINT ( 'NONE',  ( 0.9999999999999978900, 1.592040838891556900E-016, 0.0000000000000000000 ) ) ;
#85 = CARTESIAN_POINT ( 'NONE',  ( -43.44999999999999600, -4.462500000000005700, 5.648683361067167800E-016 ) ) ;
#86 = CARTESIAN_POINT ( 'NONE',  ( 0.9999999999999991100, 1.592040838891558600E-016, 0.0000000000000000000 ) ) ;
#87 = ORIENTED_EDGE ( 'NONE', *, *, #145, .T. ) ;
#88 = DESIGN_CONTEXT ( 'detailed design', #328, 'design' ) ;
#89 = LINE ( 'NONE', #101, #336 ) ;
#90 = DIRECTION ( 'NONE',  ( -1.365923996832131600E-016, 1.000000000000000000, 0.0000000000000000000 ) ) ;
#91 = AXIS2_PLACEMENT_3D ( 'NONE', #117, #56, #273 ) ;
#92 = ADVANCED_FACE ( 'NONE', ( #329 ), #361, .T. ) ;
#93 = LINE ( 'NONE', #407, #105 ) ;
#94 = PLANE ( 'NONE',  #341 ) ;
#95 = DIRECTION ( 'NONE',  ( -1.000000000000000000, -0.0000000000000000000, -0.0000000000000000000 ) ) ;
#96 = APPROVAL_PERSON_ORGANIZATION ( #176, #162, #228 ) ;
#97 = DIRECTION ( 'NONE',  ( 1.000000000000000000, 1.255964264747572600E-016, -0.0000000000000000000 ) ) ;
#98 = CARTESIAN_POINT ( 'NONE',  ( 0.9999999999999997800, 4.860316984116061100E-016, -3.968750000000000000 ) ) ;
#99 = ORIENTED_EDGE ( 'NONE', *, *, #302, .F. ) ;
#100 = CC_DESIGN_PERSON_AND_ORGANIZATION_ASSIGNMENT ( #189, #397, ( #39 ) ) ;
#101 = CARTESIAN_POINT ( 'NONE',  ( 0.9999999999999985600, -4.762500000000000200, 5.832380380939270100E-016 ) ) ;
#102 = CIRCLE ( 'NONE', #408, 4.462500000000000400 ) ;
#103 = DIRECTION ( 'NONE',  ( 1.000000000000000000, 1.255964264747572600E-016, -0.0000000000000000000 ) ) ;
#104 = DIRECTION ( 'NONE',  ( 1.000000000000000000, 1.255964264747572600E-016, -0.0000000000000000000 ) ) ;
#105 = VECTOR ( 'NONE', #210, 999.9999999999998900 ) ;
#106 = VERTEX_POINT ( 'NONE', #379 ) ;
#107 = EDGE_CURVE ( 'NONE', #59, #278, #15, .T. ) ;
#108 = PERSON_AND_ORGANIZATION_ROLE ( 'design_owner' ) ;
#109 = COORDINATED_UNIVERSAL_TIME_OFFSET ( 9, 0, .AHEAD. ) ;
#110 = DATE_TIME_ROLE ( 'classification_date' ) ;
#111 = ORIENTED_EDGE ( 'NONE', *, *, #80, .T. ) ;
#112 = SHAPE_DEFINITION_REPRESENTATION ( #322, #136 ) ;
#113 = AXIS2_PLACEMENT_3D ( 'NONE', #183, #411, #214 ) ;
#114 = EDGE_LOOP ( 'NONE', ( #267, #129, #241, #371 ) ) ;
#115 = LOCAL_TIME ( 13, 56, 2.000000000000000000, #199 ) ;
#116 = EDGE_LOOP ( 'NONE', ( #394, #75, #271, #402 ) ) ;
#117 = CARTESIAN_POINT ( 'NONE',  ( 0.0000000000000000000, 0.0000000000000000000, 0.0000000000000000000 ) ) ;
#118 = DIRECTION ( 'NONE',  ( -1.092739197465705300E-016, 1.000000000000000000, 0.0000000000000000000 ) ) ;
#119 = VECTOR ( 'NONE', #219, 1000.000000000000000 ) ;
#120 = CC_DESIGN_DATE_AND_TIME_ASSIGNMENT ( #262, #201, ( #39 ) ) ;
#121 = DIRECTION ( 'NONE',  ( 1.255964264747572300E-016, -1.000000000000000000, 0.0000000000000000000 ) ) ;
#122 = ORIENTED_EDGE ( 'NONE', *, *, #235, .T. ) ;
#123 = ADVANCED_FACE ( 'NONE', ( #353 ), #237, .T. ) ;
#124 = ORGANIZATION ( 'UNSPECIFIED', 'UNSPECIFIED', '' ) ;
#125 = EDGE_CURVE ( 'NONE', #256, #198, #387, .T. ) ;
#126 = CARTESIAN_POINT ( 'NONE',  ( 35.92499999999999700, 0.0000000000000000000, 0.0000000000000000000 ) ) ;
#127 = DIRECTION ( 'NONE',  ( 0.7071067811865415800, -0.7071067811865535700, 8.659560562355008000E-017 ) ) ;
#128 = CARTESIAN_POINT ( 'NONE',  ( 9.321416865658945100E-016, -3.968750000000000000, 4.860316984116058100E-016 ) ) ;
#129 = ORIENTED_EDGE ( 'NONE', *, *, #125, .F. ) ;
#130 = DIRECTION ( 'NONE',  ( -1.000000000000000000, 0.0000000000000000000, -0.0000000000000000000 ) ) ;
#131 = CIRCLE ( 'NONE', #270, 3.968750000000006200 ) ;
#132 = DIRECTION ( 'NONE',  ( 1.000000000000000000, 1.255964264747572600E-016, -0.0000000000000000000 ) ) ;
#133 = CARTESIAN_POINT ( 'NONE',  ( -43.14999999999999900, -5.385878144971377200E-015, 0.0000000000000000000 ) ) ;
#134 = ORIENTED_EDGE ( 'NONE', *, *, #290, .F. ) ;
#135 = PLANE ( 'NONE',  #299 ) ;
#136 = ADVANCED_BREP_SHAPE_REPRESENTATION ( '03-2087', ( #206, #359, #409 ), #319 ) ;
#137 = EDGE_CURVE ( 'NONE', #166, #301, #50, .T. ) ;
#138 = APPLICATION_PROTOCOL_DEFINITION ( 'international standard', 'config_control_design', 1994, #328 ) ;
#139 = APPROVAL_ROLE ( '' ) ;
#140 = ORIENTED_EDGE ( 'NONE', *, *, #330, .F. ) ;
#141 = APPROVAL_DATE_TIME ( #223, #309 ) ;
#142 = CIRCLE ( 'NONE', #230, 4.762500000000000200 ) ;
#143 = PRODUCT_DEFINITION_FORMATION_WITH_SPECIFIED_SOURCE ( 'ANY', '', #37, .NOT_KNOWN. ) ;
#144 = ORIENTED_EDGE ( 'NONE', *, *, #290, .T. ) ;
#145 = EDGE_CURVE ( 'NONE', #251, #278, #401, .T. ) ;
#146 = DIRECTION ( 'NONE',  ( -1.365923996832131600E-016, 1.000000000000000000, 0.0000000000000000000 ) ) ;
#147 = EDGE_LOOP ( 'NONE', ( #215, #405, #193, #307 ) ) ;
#148 = APPROVAL_PERSON_ORGANIZATION ( #231, #309, #139 ) ;
#149 = CARTESIAN_POINT ( 'NONE',  ( 0.9999999999999978900, 1.592040838891556900E-016, 0.0000000000000000000 ) ) ;
#150 = CLOSED_SHELL ( 'NONE', ( #348, #1, #153, #312, #384, #4, #62, #123, #32, #248 ) ) ;
#151 = CIRCLE ( 'NONE', #192, 4.762500000000000200 ) ;
#152 = CARTESIAN_POINT ( 'NONE',  ( -43.14999999999999900, -5.385878144971377200E-015, 0.0000000000000000000 ) ) ;
#153 = ADVANCED_FACE ( 'NONE', ( #321 ), #390, .T. ) ;
#154 = EDGE_CURVE ( 'NONE', #106, #251, #383, .T. ) ;
#155 = DIRECTION ( 'NONE',  ( 0.0000000000000000000, 0.0000000000000000000, 1.000000000000000000 ) ) ;
#156 = EDGE_LOOP ( 'NONE', ( #140, #342, #48, #229 ) ) ;
#157 = CARTESIAN_POINT ( 'NONE',  ( -43.14999999999999900, -4.762500000000005500, 5.832380380939270100E-016 ) ) ;
#158 = COORDINATED_UNIVERSAL_TIME_OFFSET ( 9, 0, .AHEAD. ) ;
#159 = DIRECTION ( 'NONE',  ( 1.000000000000000000, 1.255964264747572600E-016, -0.0000000000000000000 ) ) ;
#160 = CARTESIAN_POINT ( 'NONE',  ( 0.9999999999999986700, 3.968750000000000000, 0.0000000000000000000 ) ) ;
#161 = EDGE_LOOP ( 'NONE', ( #79, #30 ) ) ;
#162 = APPROVAL ( #16, 'UNSPECIFIED' ) ;
#163 = CYLINDRICAL_SURFACE ( 'NONE', #232, 3.968750000000000000 ) ;
#164 =( NAMED_UNIT ( * ) PLANE_ANGLE_UNIT ( ) SI_UNIT ( $, .RADIAN. ) );
#165 = FACE_OUTER_BOUND ( 'NONE', #205, .T. ) ;
#166 = VERTEX_POINT ( 'NONE', #216 ) ;
#167 = APPROVAL_ROLE ( '' ) ;
#168 = DATE_AND_TIME ( #252, #339 ) ;
#169 = AXIS2_PLACEMENT_3D ( 'NONE', #60, #276, #90 ) ;
#170 = AXIS2_PLACEMENT_3D ( 'NONE', #320, #132, #356 ) ;
#171 = VERTEX_POINT ( 'NONE', #413 ) ;
#172 = VECTOR ( 'NONE', #391, 1000.000000000000100 ) ;
#173 = PERSON ( 'UNSPECIFIED', 'UNSPECIFIED', 'UNSPECIFIED', ('UNSPECIFIED'), ('UNSPECIFIED'), ('UNSPECIFIED') ) ;
#174 = CYLINDRICAL_SURFACE ( 'NONE', #380, 4.762500000000000200 ) ;
#175 = EDGE_CURVE ( 'NONE', #35, #410, #142, .T. ) ;
#176 = PERSON_AND_ORGANIZATION ( #173, #124 ) ;
#177 = CARTESIAN_POINT ( 'NONE',  ( 9.321416865658945100E-016, -3.968750000000000000, 0.0000000000000000000 ) ) ;
#178 = DIRECTION ( 'NONE',  ( -1.092739197465705300E-016, 1.000000000000000000, 0.0000000000000000000 ) ) ;
#179 = ORIENTED_EDGE ( 'NONE', *, *, #308, .F. ) ;
#180 = DIRECTION ( 'NONE',  ( -1.000000000000000000, -1.255964264747572600E-016, 0.0000000000000000000 ) ) ;
#181 = CC_DESIGN_APPROVAL ( #162, ( #143 ) ) ;
#182 = CONICAL_SURFACE ( 'NONE', #389, 4.762500000000000200, 0.7853981633974569400 ) ;
#183 = CARTESIAN_POINT ( 'NONE',  ( 4.336808689942017700E-016, 3.360765741439875700E-017, 0.0000000000000000000 ) ) ;
#184 = FACE_OUTER_BOUND ( 'NONE', #147, .T. ) ;
#185 = DIRECTION ( 'NONE',  ( 0.0000000000000000000, 1.000000000000000000, 0.0000000000000000000 ) ) ;
#186 = VERTEX_POINT ( 'NONE', #29 ) ;
#187 = ADVANCED_FACE ( 'NONE', ( #300 ), #378, .T. ) ;
#188 = DIRECTION ( 'NONE',  ( 0.0000000000000000000, 0.0000000000000000000, -1.000000000000000000 ) ) ;
#189 = PERSON_AND_ORGANIZATION ( #173, #124 ) ;
#190 = CARTESIAN_POINT ( 'NONE',  ( -43.14999999999999900, -5.385878144971377200E-015, 0.0000000000000000000 ) ) ;
#191 = AXIS2_PLACEMENT_3D ( 'NONE', #344, #310, #121 ) ;
#192 = AXIS2_PLACEMENT_3D ( 'NONE', #292, #103, #325 ) ;
#193 = ORIENTED_EDGE ( 'NONE', *, *, #351, .F. ) ;
#194 = CARTESIAN_POINT ( 'NONE',  ( 0.0000000000000000000, 0.0000000000000000000, 3.968750000000003600 ) ) ;
#195 = CIRCLE ( 'NONE', #36, 4.762500000000000200 ) ;
#196 = DIRECTION ( 'NONE',  ( 1.000000000000000000, 1.255964264747572600E-016, -0.0000000000000000000 ) ) ;
#197 = DIRECTION ( 'NONE',  ( 1.255964264747572600E-016, -1.000000000000000000, 0.0000000000000000000 ) ) ;
#198 = VERTEX_POINT ( 'NONE', #249 ) ;
#199 = COORDINATED_UNIVERSAL_TIME_OFFSET ( 9, 0, .AHEAD. ) ;
#200 = EDGE_CURVE ( 'NONE', #251, #106, #131, .T. ) ;
#201 = DATE_TIME_ROLE ( 'creation_date' ) ;
#202 = ORIENTED_EDGE ( 'NONE', *, *, #175, .F. ) ;
#203 = LINE ( 'NONE', #157, #369 ) ;
#204 = CC_DESIGN_PERSON_AND_ORGANIZATION_ASSIGNMENT ( #7, #45, ( #143 ) ) ;
#205 = EDGE_LOOP ( 'NONE', ( #226, #236, #286, #233 ) ) ;
#206 = MANIFOLD_SOLID_BREP ( 'È¸Àü3', #297 ) ;
#207 = DIRECTION ( 'NONE',  ( 1.000000000000000000, 1.255964264747572600E-016, -0.0000000000000000000 ) ) ;
#208 = AXIS2_PLACEMENT_3D ( 'NONE', #247, #61, #279 ) ;
#209 = ORIENTED_EDGE ( 'NONE', *, *, #398, .T. ) ;
#210 = DIRECTION ( 'NONE',  ( -0.7071067811865464600, 0.7071067811865486800, 8.659560562354948900E-017 ) ) ;
#211 = AXIS2_PLACEMENT_3D ( 'NONE', #133, #393, #324 ) ;
#212 = LINE ( 'NONE', #63, #119 ) ;
#213 = DIRECTION ( 'NONE',  ( 1.255964264747572300E-016, -1.000000000000000000, 0.0000000000000000000 ) ) ;
#214 = DIRECTION ( 'NONE',  ( -1.255964264747572600E-016, 1.000000000000000000, 0.0000000000000000000 ) ) ;
#215 = ORIENTED_EDGE ( 'NONE', *, *, #283, .T. ) ;
#216 = CARTESIAN_POINT ( 'NONE',  ( -0.7937499999999965100, -4.762500000000000200, 0.0000000000000000000 ) ) ;
#217 = ADVANCED_FACE ( 'NONE', ( #55 ), #94, .F. ) ;
#218 = EDGE_CURVE ( 'NONE', #278, #59, #288, .T. ) ;
#219 = DIRECTION ( 'NONE',  ( 1.000000000000000000, 1.255964264747572600E-016, -0.0000000000000000000 ) ) ;
#220 = DIRECTION ( 'NONE',  ( 1.000000000000000000, 1.255964264747572600E-016, -0.0000000000000000000 ) ) ;
#221 = ORIENTED_EDGE ( 'NONE', *, *, #265, .F. ) ;
#222 = CARTESIAN_POINT ( 'NONE',  ( -43.44999999999999600, -5.423557072913803500E-015, 0.0000000000000000000 ) ) ;
#223 = DATE_AND_TIME ( #304, #400 ) ;
#224 = EDGE_CURVE ( 'NONE', #256, #171, #212, .T. ) ;
#225 = CC_DESIGN_PERSON_AND_ORGANIZATION_ASSIGNMENT ( #332, #261, ( #143 ) ) ;
#226 = ORIENTED_EDGE ( 'NONE', *, *, #224, .F. ) ;
#227 = CARTESIAN_POINT ( 'NONE',  ( 0.0000000000000000000, 0.0000000000000000000, 0.0000000000000000000 ) ) ;
#228 = APPROVAL_ROLE ( '' ) ;
#229 = ORIENTED_EDGE ( 'NONE', *, *, #137, .F. ) ;
#230 = AXIS2_PLACEMENT_3D ( 'NONE', #152, #385, #185 ) ;
#231 = PERSON_AND_ORGANIZATION ( #173, #124 ) ;
#232 = AXIS2_PLACEMENT_3D ( 'NONE', #257, #159, #68 ) ;
#233 = ORIENTED_EDGE ( 'NONE', *, *, #80, .F. ) ;
#234 = FACE_OUTER_BOUND ( 'NONE', #82, .T. ) ;
#235 = EDGE_CURVE ( 'NONE', #52, #35, #203, .T. ) ;
#236 = ORIENTED_EDGE ( 'NONE', *, *, #125, .T. ) ;
#237 = CONICAL_SURFACE ( 'NONE', #13, 3.968750000000000000, 0.7853981633974499400 ) ;
#238 = CARTESIAN_POINT ( 'NONE',  ( 0.9999999999999981100, 3.968750000000000000, 0.0000000000000000000 ) ) ;
#239 = PERSON_AND_ORGANIZATION ( #173, #124 ) ;
#240 = CARTESIAN_POINT ( 'NONE',  ( 0.9999999999999978900, 1.592040838891556900E-016, 0.0000000000000000000 ) ) ;
#241 = ORIENTED_EDGE ( 'NONE', *, *, #23, .T. ) ;
#242 = CARTESIAN_POINT ( 'NONE',  ( 0.9999999999999997800, 0.0000000000000000000, 0.0000000000000000000 ) ) ;
#243 = EDGE_CURVE ( 'NONE', #303, #171, #40, .T. ) ;
#244 = SECURITY_CLASSIFICATION ( '', '', #76 ) ;
#245 = DIRECTION ( 'NONE',  ( -1.000000000000000000, -0.0000000000000000000, -0.0000000000000000000 ) ) ;
#246 = FACE_OUTER_BOUND ( 'NONE', #263, .T. ) ;
#247 = CARTESIAN_POINT ( 'NONE',  ( 35.92499999999999700, 0.0000000000000000000, 0.0000000000000000000 ) ) ;
#248 = ADVANCED_FACE ( 'NONE', ( #274 ), #182, .T. ) ;
#249 = CARTESIAN_POINT ( 'NONE',  ( -6.477994857749105800E-017, 3.968750000000000000, 0.0000000000000000000 ) ) ;
#250 = FACE_OUTER_BOUND ( 'NONE', #156, .T. ) ;
#251 = VERTEX_POINT ( 'NONE', #315 ) ;
#252 = CALENDAR_DATE ( 2023, 13, 6 ) ;
#253 = CARTESIAN_POINT ( 'NONE',  ( 0.9999999999999991100, 1.592040838891558600E-016, 0.0000000000000000000 ) ) ;
#254 = DIRECTION ( 'NONE',  ( 0.0000000000000000000, 1.000000000000000000, 0.0000000000000000000 ) ) ;
#255 = DIRECTION ( 'NONE',  ( 1.000000000000000000, 1.255964264747572600E-016, -0.0000000000000000000 ) ) ;
#256 = VERTEX_POINT ( 'NONE', #128 ) ;
#257 = CARTESIAN_POINT ( 'NONE',  ( 0.9999999999999978900, 1.592040838891556900E-016, 0.0000000000000000000 ) ) ;
#258 = LINE ( 'NONE', #287, #172 ) ;
#259 = DIRECTION ( 'NONE',  ( 0.0000000000000000000, 0.0000000000000000000, 1.000000000000000000 ) ) ;
#260 = EDGE_CURVE ( 'NONE', #186, #52, #102, .T. ) ;
#261 = PERSON_AND_ORGANIZATION_ROLE ( 'design_supplier' ) ;
#262 = DATE_AND_TIME ( #350, #22 ) ;
#263 = EDGE_LOOP ( 'NONE', ( #10, #122, #399, #99 ) ) ;
#264 = VECTOR ( 'NONE', #97, 1000.000000000000000 ) ;
#265 = EDGE_CURVE ( 'NONE', #198, #303, #47, .T. ) ;
#266 = CC_DESIGN_PERSON_AND_ORGANIZATION_ASSIGNMENT ( #239, #296, ( #244 ) ) ;
#267 = ORIENTED_EDGE ( 'NONE', *, *, #5, .F. ) ;
#268 = APPROVAL_DATE_TIME ( #366, #57 ) ;
#269 = PLANE ( 'NONE',  #403 ) ;
#270 = AXIS2_PLACEMENT_3D ( 'NONE', #126, #349, #155 ) ;
#271 = ORIENTED_EDGE ( 'NONE', *, *, #308, .T. ) ;
#272 = AXIS2_PLACEMENT_3D ( 'NONE', #294, #104, #327 ) ;
#273 = DIRECTION ( 'NONE',  ( 0.0000000000000000000, 0.0000000000000000000, 1.000000000000000000 ) ) ;
#274 = FACE_OUTER_BOUND ( 'NONE', #368, .T. ) ;
#275 = DIRECTION ( 'NONE',  ( 0.0000000000000000000, 0.0000000000000000000, 1.000000000000000000 ) ) ;
#276 = DIRECTION ( 'NONE',  ( 1.000000000000000000, 1.255964264747572600E-016, -0.0000000000000000000 ) ) ;
#277 = UNCERTAINTY_MEASURE_WITH_UNIT (LENGTH_MEASURE( 1.000000000000000100E-005 ), #364, 'distance_accuracy_value', 'NONE');
#278 = VERTEX_POINT ( 'NONE', #98 ) ;
#279 = DIRECTION ( 'NONE',  ( 0.0000000000000000000, 0.0000000000000000000, 1.000000000000000000 ) ) ;
#280 = EDGE_LOOP ( 'NONE', ( #209, #333, #42, #221 ) ) ;
#281 = APPROVAL_PERSON_ORGANIZATION ( #373, #57, #167 ) ;
#282 = ADVANCED_FACE ( 'NONE', ( #26 ), #318, .F. ) ;
#283 = EDGE_CURVE ( 'NONE', #410, #35, #195, .T. ) ;
#284 = CARTESIAN_POINT ( 'NONE',  ( 0.9999999999999997800, 0.0000000000000000000, 0.0000000000000000000 ) ) ;
#285 = DIRECTION ( 'NONE',  ( -1.092739197465705300E-016, 1.000000000000000000, 0.0000000000000000000 ) ) ;
#286 = ORIENTED_EDGE ( 'NONE', *, *, #265, .T. ) ;
#287 = CARTESIAN_POINT ( 'NONE',  ( -43.14999999999999900, 4.762499999999994800, 0.0000000000000000000 ) ) ;
#288 = CIRCLE ( 'NONE', #317, 3.968750000000000000 ) ;
#289 = DIRECTION ( 'NONE',  ( 1.000000000000000000, 1.255964264747572600E-016, -0.0000000000000000000 ) ) ;
#290 = EDGE_CURVE ( 'NONE', #52, #186, #357, .T. ) ;
#291 = CC_DESIGN_DATE_AND_TIME_ASSIGNMENT ( #316, #110, ( #244 ) ) ;
#292 = CARTESIAN_POINT ( 'NONE',  ( -0.7937499999999971800, -6.608450609993949700E-017, 0.0000000000000000000 ) ) ;
#293 = ORIENTED_EDGE ( 'NONE', *, *, #154, .T. ) ;
#294 = CARTESIAN_POINT ( 'NONE',  ( 4.336808689942017700E-016, 3.360765741439875700E-017, 0.0000000000000000000 ) ) ;
#295 = MECHANICAL_CONTEXT ( 'NONE', #43, 'mechanical' ) ;
#296 = PERSON_AND_ORGANIZATION_ROLE ( 'classification_officer' ) ;
#297 = CLOSED_SHELL ( 'NONE', ( #187, #92, #217, #282 ) ) ;
#298 = AXIS2_PLACEMENT_3D ( 'NONE', #311, #2, #346 ) ;
#299 = AXIS2_PLACEMENT_3D ( 'NONE', #360, #395, #197 ) ;
#300 = FACE_OUTER_BOUND ( 'NONE', #382, .T. ) ;
#301 = VERTEX_POINT ( 'NONE', #9 ) ;
#302 = EDGE_CURVE ( 'NONE', #186, #410, #258, .T. ) ;
#303 = VERTEX_POINT ( 'NONE', #160 ) ;
#304 = CALENDAR_DATE ( 2023, 13, 6 ) ;
#305 = CARTESIAN_POINT ( 'NONE',  ( -43.14999999999999900, -4.762500000000004600, 5.832380380939273100E-016 ) ) ;
#306 = DIRECTION ( 'NONE',  ( 1.000000000000000000, 1.255964264747572600E-016, -0.0000000000000000000 ) ) ;
#307 = ORIENTED_EDGE ( 'NONE', *, *, #374, .F. ) ;
#308 = EDGE_CURVE ( 'NONE', #106, #59, #345, .T. ) ;
#309 = APPROVAL ( #331, 'UNSPECIFIED' ) ;
#310 = DIRECTION ( 'NONE',  ( -1.000000000000000000, -1.255964264747572600E-016, 0.0000000000000000000 ) ) ;
#311 = CARTESIAN_POINT ( 'NONE',  ( 0.0000000000000000000, 0.0000000000000000000, 0.0000000000000000000 ) ) ;
#312 = ADVANCED_FACE ( 'NONE', ( #20 ), #163, .T. ) ;
#313 = DIRECTION ( 'NONE',  ( 0.0000000000000000000, 0.0000000000000000000, 1.000000000000000000 ) ) ;
#314 = ORIENTED_EDGE ( 'NONE', *, *, #243, .T. ) ;
#315 = CARTESIAN_POINT ( 'NONE',  ( 35.92499999999999700, 4.860316984116066000E-016, -3.968750000000006200 ) ) ;
#316 = DATE_AND_TIME ( #406, #77 ) ;
#317 = AXIS2_PLACEMENT_3D ( 'NONE', #284, #95, #313 ) ;
#318 = PLANE ( 'NONE',  #54 ) ;
#319 =( GEOMETRIC_REPRESENTATION_CONTEXT ( 3 ) GLOBAL_UNCERTAINTY_ASSIGNED_CONTEXT ( ( #277 ) ) GLOBAL_UNIT_ASSIGNED_CONTEXT ( ( #364, #164, #396 ) ) REPRESENTATION_CONTEXT ( 'NONE', 'WORKASPACE' ) );
#320 = CARTESIAN_POINT ( 'NONE',  ( -43.44999999999999600, -5.423557072913803500E-015, 0.0000000000000000000 ) ) ;
#321 = FACE_OUTER_BOUND ( 'NONE', #69, .T. ) ;
#322 = PRODUCT_DEFINITION_SHAPE ( 'NONE', 'NONE',  #39 ) ;
#323 = ORIENTED_EDGE ( 'NONE', *, *, #351, .T. ) ;
#324 = DIRECTION ( 'NONE',  ( 0.0000000000000000000, 1.000000000000000000, 0.0000000000000000000 ) ) ;
#325 = DIRECTION ( 'NONE',  ( -1.365923996832131600E-016, 1.000000000000000000, 0.0000000000000000000 ) ) ;
#326 = VECTOR ( 'NONE', #196, 1000.000000000000000 ) ;
#327 = DIRECTION ( 'NONE',  ( -1.255964264747572600E-016, 1.000000000000000000, 0.0000000000000000000 ) ) ;
#328 = APPLICATION_CONTEXT ( 'configuration controlled 3d designs of mechanical parts and assemblies' ) ;
#329 = FACE_OUTER_BOUND ( 'NONE', #116, .T. ) ;
#330 = EDGE_CURVE ( 'NONE', #35, #166, #89, .T. ) ;
#331 = APPROVAL_STATUS ( 'not_yet_approved' ) ;
#332 = PERSON_AND_ORGANIZATION ( #173, #124 ) ;
#333 = ORIENTED_EDGE ( 'NONE', *, *, #224, .T. ) ;
#334 = AXIS2_PLACEMENT_3D ( 'NONE', #86, #306, #118 ) ;
#335 = CC_DESIGN_APPROVAL ( #309, ( #244 ) ) ;
#336 = VECTOR ( 'NONE', #289, 1000.000000000000000 ) ;
#337 = VECTOR ( 'NONE', #375, 999.9999999999998900 ) ;
#338 = DIRECTION ( 'NONE',  ( 1.000000000000000000, 1.255964264747572600E-016, -0.0000000000000000000 ) ) ;
#339 = LOCAL_TIME ( 13, 56, 2.000000000000000000, #17 ) ;
#340 = DIRECTION ( 'NONE',  ( -1.255964264747572600E-016, 1.000000000000000000, 0.0000000000000000000 ) ) ;
#341 = AXIS2_PLACEMENT_3D ( 'NONE', #31, #386, #188 ) ;
#342 = ORIENTED_EDGE ( 'NONE', *, *, #175, .T. ) ;
#343 = CARTESIAN_POINT ( 'NONE',  ( 4.336808689942017700E-016, 3.360765741439875700E-017, 0.0000000000000000000 ) ) ;
#344 = CARTESIAN_POINT ( 'NONE',  ( 4.336808689942017700E-016, 3.360765741439875700E-017, 0.0000000000000000000 ) ) ;
#345 = LINE ( 'NONE', #194, #12 ) ;
#346 = DIRECTION ( 'NONE',  ( 0.0000000000000000000, 0.0000000000000000000, 1.000000000000000000 ) ) ;
#347 = LINE ( 'NONE', #177, #337 ) ;
#348 = ADVANCED_FACE ( 'NONE', ( #246 ), #73, .T. ) ;
#349 = DIRECTION ( 'NONE',  ( -1.000000000000000000, -0.0000000000000000000, -0.0000000000000000000 ) ) ;
#350 = CALENDAR_DATE ( 2023, 13, 6 ) ;
#351 = EDGE_CURVE ( 'NONE', #301, #166, #151, .T. ) ;
#352 = CARTESIAN_POINT ( 'NONE',  ( 0.9999999999999974500, 3.968750000000000000, 0.0000000000000000000 ) ) ;
#353 = FACE_OUTER_BOUND ( 'NONE', #114, .T. ) ;
#354 = DIRECTION ( 'NONE',  ( -0.0000000000000000000, 0.0000000000000000000, 1.000000000000000000 ) ) ;
#355 = EDGE_LOOP ( 'NONE', ( #363, #46 ) ) ;
#356 = DIRECTION ( 'NONE',  ( 0.0000000000000000000, 1.000000000000000000, 0.0000000000000000000 ) ) ;
#357 = CIRCLE ( 'NONE', #170, 4.462500000000000400 ) ;
#358 = CC_DESIGN_SECURITY_CLASSIFICATION ( #244, ( #143 ) ) ;
#359 = MANIFOLD_SOLID_BREP ( 'È¸Àü4', #150 ) ;
#360 = CARTESIAN_POINT ( 'NONE',  ( -43.45000000000000300, -5.423557072913805100E-015, 0.0000000000000000000 ) ) ;
#361 = CYLINDRICAL_SURFACE ( 'NONE', #91, 3.968750000000003600 ) ;
#362 = ORIENTED_EDGE ( 'NONE', *, *, #23, .F. ) ;
#363 = ORIENTED_EDGE ( 'NONE', *, *, #107, .T. ) ;
#364 =( LENGTH_UNIT ( ) NAMED_UNIT ( * ) SI_UNIT ( .MILLI., .METRE. ) );
#365 = APPROVAL_STATUS ( 'not_yet_approved' ) ;
#366 = DATE_AND_TIME ( #33, #115 ) ;
#367 = AXIS2_PLACEMENT_3D ( 'NONE', #253, #65, #285 ) ;
#368 = EDGE_LOOP ( 'NONE', ( #25, #144, #70, #202 ) ) ;
#369 = VECTOR ( 'NONE', #127, 1000.000000000000000 ) ;
#370 = CYLINDRICAL_SURFACE ( 'NONE', #49, 3.968750000000000000 ) ;
#371 = ORIENTED_EDGE ( 'NONE', *, *, #137, .T. ) ;
#372 = ORIENTED_EDGE ( 'NONE', *, *, #398, .F. ) ;
#373 = PERSON_AND_ORGANIZATION ( #173, #124 ) ;
#374 = EDGE_CURVE ( 'NONE', #410, #301, #412, .T. ) ;
#375 = DIRECTION ( 'NONE',  ( -0.7071067811865462400, -0.7071067811865489100, 0.0000000000000000000 ) ) ;
#376 = ORIENTED_EDGE ( 'NONE', *, *, #5, .T. ) ;
#377 = DIRECTION ( 'NONE',  ( 1.000000000000000000, 1.255964264747572600E-016, -0.0000000000000000000 ) ) ;
#378 = CYLINDRICAL_SURFACE ( 'NONE', #298, 3.968750000000003600 ) ;
#379 = CARTESIAN_POINT ( 'NONE',  ( 35.92499999999999700, 0.0000000000000000000, 3.968750000000006200 ) ) ;
#380 = AXIS2_PLACEMENT_3D ( 'NONE', #84, #207, #146 ) ;
#381 = PRODUCT_RELATED_PRODUCT_CATEGORY ( 'detail', '', ( #37 ) ) ;
#382 = EDGE_LOOP ( 'NONE', ( #293, #87, #64, #179 ) ) ;
#383 = CIRCLE ( 'NONE', #208, 3.968750000000006200 ) ;
#384 = ADVANCED_FACE ( 'NONE', ( #234 ), #135, .T. ) ;
#385 = DIRECTION ( 'NONE',  ( 1.000000000000000000, 1.255964264747572600E-016, -0.0000000000000000000 ) ) ;
#386 = DIRECTION ( 'NONE',  ( 1.000000000000000000, 0.0000000000000000000, 0.0000000000000000000 ) ) ;
#387 = CIRCLE ( 'NONE', #113, 3.968750000000000000 ) ;
#388 = EDGE_LOOP ( 'NONE', ( #314, #111 ) ) ;
#389 = AXIS2_PLACEMENT_3D ( 'NONE', #190, #220, #6 ) ;
#390 = CONICAL_SURFACE ( 'NONE', #191, 3.968750000000000000, 0.7853981633974499400 ) ;
#391 = DIRECTION ( 'NONE',  ( 0.7071067811865413600, 0.7071067811865536800, 0.0000000000000000000 ) ) ;
#392 = VECTOR ( 'NONE', #245, 1000.000000000000000 ) ;
#393 = DIRECTION ( 'NONE',  ( 1.000000000000000000, 1.255964264747572600E-016, -0.0000000000000000000 ) ) ;
#394 = ORIENTED_EDGE ( 'NONE', *, *, #145, .F. ) ;
#395 = DIRECTION ( 'NONE',  ( -1.000000000000000000, -1.255964264747572600E-016, 0.0000000000000000000 ) ) ;
#396 =( NAMED_UNIT ( * ) SI_UNIT ( $, .STERADIAN. ) SOLID_ANGLE_UNIT ( ) );
#397 = PERSON_AND_ORGANIZATION_ROLE ( 'creator' ) ;
#398 = EDGE_CURVE ( 'NONE', #198, #256, #404, .T. ) ;
#399 = ORIENTED_EDGE ( 'NONE', *, *, #283, .F. ) ;
#400 = LOCAL_TIME ( 13, 56, 2.000000000000000000, #66 ) ;
#401 = LINE ( 'NONE', #27, #392 ) ;
#402 = ORIENTED_EDGE ( 'NONE', *, *, #218, .F. ) ;
#403 = AXIS2_PLACEMENT_3D ( 'NONE', #238, #338, #340 ) ;
#404 = CIRCLE ( 'NONE', #272, 3.968750000000000000 ) ;
#405 = ORIENTED_EDGE ( 'NONE', *, *, #330, .T. ) ;
#406 = CALENDAR_DATE ( 2023, 13, 6 ) ;
#407 = CARTESIAN_POINT ( 'NONE',  ( -6.477994857749105800E-017, 3.968750000000000000, 4.860316984116058100E-016 ) ) ;
#408 = AXIS2_PLACEMENT_3D ( 'NONE', #222, #34, #254 ) ;
#409 = AXIS2_PLACEMENT_3D ( 'NONE', #227, #259, #74 ) ;
#410 = VERTEX_POINT ( 'NONE', #71 ) ;
#411 = DIRECTION ( 'NONE',  ( 1.000000000000000000, 1.255964264747572600E-016, -0.0000000000000000000 ) ) ;
#412 = LINE ( 'NONE', #11, #326 ) ;
#413 = CARTESIAN_POINT ( 'NONE',  ( 0.9999999999999995600, -3.968750000000000000, 4.860316984116058100E-016 ) ) ;
ENDSEC;
END-ISO-10303-21;
