ISO-10303-21;
HEADER;
FILE_DESCRIPTION (( 'STEP AP203' ),
    '1' );
FILE_NAME ('03-2090.STEP',
    '2023-06-13T04:56:22',
    ( 'USER' ),
    ( 'Hewlett-Packard Company' ),
    'SwSTEP 2.0',
    'SolidWorks 2014',
    '' );
FILE_SCHEMA (( 'CONFIG_CONTROL_DESIGN' ));
ENDSEC;

DATA;
#1 = VERTEX_POINT ( 'NONE', #265 ) ;
#2 = PLANE ( 'NONE',  #48 ) ;
#3 = CONICAL_SURFACE ( 'NONE', #91, 4.762500000000000200, 0.7853981633974569400 ) ;
#4 = CARTESIAN_POINT ( 'NONE',  ( 1.000000000000000700, 3.642463991552356400E-016, 0.0000000000000000000 ) ) ;
#5 = EDGE_CURVE ( 'NONE', #298, #281, #222, .T. ) ;
#6 = CC_DESIGN_APPROVAL ( #307, ( #250 ) ) ;
#7 = CARTESIAN_POINT ( 'NONE',  ( 0.9999999999999978900, 1.592040838891556900E-016, 0.0000000000000000000 ) ) ;
#8 = CARTESIAN_POINT ( 'NONE',  ( -43.14999999999999900, -5.385878144971377200E-015, 0.0000000000000000000 ) ) ;
#9 = ORIENTED_EDGE ( 'NONE', *, *, #160, .F. ) ;
#10 = COORDINATED_UNIVERSAL_TIME_OFFSET ( 9, 0, .AHEAD. ) ;
#11 = ORIENTED_EDGE ( 'NONE', *, *, #24, .T. ) ;
#12 = ADVANCED_FACE ( 'NONE', ( #36 ), #2, .F. ) ;
#13 = DIRECTION ( 'NONE',  ( 1.000000000000000000, 1.255964264747572600E-016, -0.0000000000000000000 ) ) ;
#14 = CC_DESIGN_APPROVAL ( #311, ( #294 ) ) ;
#15 = CARTESIAN_POINT ( 'NONE',  ( 0.0000000000000000000, 0.0000000000000000000, 4.762500000000003700 ) ) ;
#16 = FACE_OUTER_BOUND ( 'NONE', #304, .T. ) ;
#17 = CARTESIAN_POINT ( 'NONE',  ( -43.14999999999999900, -4.762500000000005500, 5.832380380939272100E-016 ) ) ;
#18 = DIRECTION ( 'NONE',  ( 1.000000000000000000, 1.255964264747572600E-016, -0.0000000000000000000 ) ) ;
#19 = LOCAL_TIME ( 13, 56, 22.00000000000000000, #216 ) ;
#20 = LOCAL_TIME ( 13, 56, 22.00000000000000000, #79 ) ;
#21 = VERTEX_POINT ( 'NONE', #215 ) ;
#22 = APPROVAL_ROLE ( '' ) ;
#23 = LINE ( 'NONE', #78, #74 ) ;
#24 = EDGE_CURVE ( 'NONE', #245, #21, #285, .T. ) ;
#25 = CC_DESIGN_SECURITY_CLASSIFICATION ( #250, ( #165 ) ) ;
#26 = ORGANIZATION ( 'UNSPECIFIED', 'UNSPECIFIED', '' ) ;
#27 = ORIENTED_EDGE ( 'NONE', *, *, #24, .F. ) ;
#28 = CC_DESIGN_PERSON_AND_ORGANIZATION_ASSIGNMENT ( #72, #132, ( #294 ) ) ;
#29 = FACE_OUTER_BOUND ( 'NONE', #263, .T. ) ;
#30 = DIRECTION ( 'NONE',  ( 1.000000000000000000, 1.255964264747572600E-016, -0.0000000000000000000 ) ) ;
#31 = DIRECTION ( 'NONE',  ( 1.000000000000000000, 1.255964264747572600E-016, -0.0000000000000000000 ) ) ;
#32 = EDGE_LOOP ( 'NONE', ( #283, #122 ) ) ;
#33 = DIRECTION ( 'NONE',  ( 0.7071067811865413600, 0.7071067811865536800, 0.0000000000000000000 ) ) ;
#34 = DIRECTION ( 'NONE',  ( 0.0000000000000000000, 0.0000000000000000000, 1.000000000000000000 ) ) ;
#35 = DIRECTION ( 'NONE',  ( -1.000000000000000000, -0.0000000000000000000, -0.0000000000000000000 ) ) ;
#36 = FACE_OUTER_BOUND ( 'NONE', #254, .T. ) ;
#37 = DIRECTION ( 'NONE',  ( 0.7071067811865415800, -0.7071067811865535700, 8.659560562355008000E-017 ) ) ;
#38 = DIRECTION ( 'NONE',  ( 0.0000000000000000000, 0.0000000000000000000, 1.000000000000000000 ) ) ;
#39 = PRODUCT_RELATED_PRODUCT_CATEGORY ( 'detail', '', ( #57 ) ) ;
#40 = PERSON_AND_ORGANIZATION ( #264, #26 ) ;
#41 = ORIENTED_EDGE ( 'NONE', *, *, #140, .T. ) ;
#42 = DIRECTION ( 'NONE',  ( 0.0000000000000000000, 0.0000000000000000000, 1.000000000000000000 ) ) ;
#43 = PERSON_AND_ORGANIZATION_ROLE ( 'design_supplier' ) ;
#44 = COORDINATED_UNIVERSAL_TIME_OFFSET ( 9, 0, .AHEAD. ) ;
#45 = COORDINATED_UNIVERSAL_TIME_OFFSET ( 9, 0, .AHEAD. ) ;
#46 = ORIENTED_EDGE ( 'NONE', *, *, #134, .F. ) ;
#47 = CC_DESIGN_DATE_AND_TIME_ASSIGNMENT ( #288, #309, ( #294 ) ) ;
#48 = AXIS2_PLACEMENT_3D ( 'NONE', #4, #269, #119 ) ;
#49 = SHAPE_DEFINITION_REPRESENTATION ( #300, #241 ) ;
#50 = UNCERTAINTY_MEASURE_WITH_UNIT (LENGTH_MEASURE( 1.000000000000000100E-005 ), #109, 'distance_accuracy_value', 'NONE');
#51 = LOCAL_TIME ( 13, 56, 22.00000000000000000, #44 ) ;
#52 = ORIENTED_EDGE ( 'NONE', *, *, #189, .F. ) ;
#53 = CARTESIAN_POINT ( 'NONE',  ( -43.44999999999999600, -5.423557072913803500E-015, 0.0000000000000000000 ) ) ;
#54 = CIRCLE ( 'NONE', #287, 4.762500000000000200 ) ;
#55 = DIRECTION ( 'NONE',  ( 1.000000000000000000, 1.255964264747572600E-016, -0.0000000000000000000 ) ) ;
#56 = DIRECTION ( 'NONE',  ( 0.0000000000000000000, 1.000000000000000000, 0.0000000000000000000 ) ) ;
#57 = PRODUCT ( '03-2090', '03-2090', '', ( #68 ) ) ;
#58 = ORIENTED_EDGE ( 'NONE', *, *, #278, .F. ) ;
#59 = ADVANCED_FACE ( 'NONE', ( #90 ), #170, .F. ) ;
#60 = PLANE ( 'NONE',  #268 ) ;
#61 = CARTESIAN_POINT ( 'NONE',  ( 0.9999999999999978900, 1.592040838891556900E-016, 0.0000000000000000000 ) ) ;
#62 = DIRECTION ( 'NONE',  ( 1.255964264747572600E-016, -1.000000000000000000, 0.0000000000000000000 ) ) ;
#63 = AXIS2_PLACEMENT_3D ( 'NONE', #191, #120, #98 ) ;
#64 = DIRECTION ( 'NONE',  ( -1.000000000000000000, -0.0000000000000000000, -0.0000000000000000000 ) ) ;
#65 = VECTOR ( 'NONE', #176, 1000.000000000000000 ) ;
#66 = CARTESIAN_POINT ( 'NONE',  ( -43.44999999999999600, -4.462500000000005700, 5.648683361067167800E-016 ) ) ;
#67 = CARTESIAN_POINT ( 'NONE',  ( 0.0000000000000000000, 0.0000000000000000000, 0.0000000000000000000 ) ) ;
#68 = MECHANICAL_CONTEXT ( 'NONE', #180, 'mechanical' ) ;
#69 = PERSON_AND_ORGANIZATION_ROLE ( 'classification_officer' ) ;
#70 = ORIENTED_EDGE ( 'NONE', *, *, #125, .T. ) ;
#71 = CIRCLE ( 'NONE', #136, 4.762500000000000200 ) ;
#72 = PERSON_AND_ORGANIZATION ( #264, #26 ) ;
#73 = ORIENTED_EDGE ( 'NONE', *, *, #259, .T. ) ;
#74 = VECTOR ( 'NONE', #100, 1000.000000000000000 ) ;
#75 = AXIS2_PLACEMENT_3D ( 'NONE', #297, #217, #77 ) ;
#76 = CARTESIAN_POINT ( 'NONE',  ( 0.9999999999999972200, 4.762499999999999300, 0.0000000000000000000 ) ) ;
#77 = DIRECTION ( 'NONE',  ( -0.0000000000000000000, 0.0000000000000000000, 1.000000000000000000 ) ) ;
#78 = CARTESIAN_POINT ( 'NONE',  ( 0.0000000000000000000, 5.832380380939274100E-016, -4.762500000000003700 ) ) ;
#79 = COORDINATED_UNIVERSAL_TIME_OFFSET ( 9, 0, .AHEAD. ) ;
#80 = ORIENTED_EDGE ( 'NONE', *, *, #5, .T. ) ;
#81 = ADVANCED_FACE ( 'NONE', ( #29 ), #84, .T. ) ;
#82 = DIRECTION ( 'NONE',  ( 1.000000000000000000, 1.255964264747572600E-016, -0.0000000000000000000 ) ) ;
#83 = CARTESIAN_POINT ( 'NONE',  ( 0.9999999999999997800, 0.0000000000000000000, 0.0000000000000000000 ) ) ;
#84 = CONICAL_SURFACE ( 'NONE', #63, 4.762500000000000200, 0.7853981633974569400 ) ;
#85 = DIRECTION ( 'NONE',  ( 1.000000000000000000, 1.255964264747572600E-016, -0.0000000000000000000 ) ) ;
#86 = DATE_AND_TIME ( #161, #19 ) ;
#87 = ORIENTED_EDGE ( 'NONE', *, *, #239, .F. ) ;
#88 = APPLICATION_CONTEXT ( 'configuration controlled 3d designs of mechanical parts and assemblies' ) ;
#89 = APPROVAL_STATUS ( 'not_yet_approved' ) ;
#90 = FACE_OUTER_BOUND ( 'NONE', #32, .T. ) ;
#91 = AXIS2_PLACEMENT_3D ( 'NONE', #8, #195, #56 ) ;
#92 = ORIENTED_EDGE ( 'NONE', *, *, #160, .T. ) ;
#93 = APPROVAL_DATE_TIME ( #158, #307 ) ;
#94 = FACE_OUTER_BOUND ( 'NONE', #206, .T. ) ;
#95 = DIRECTION ( 'NONE',  ( 0.0000000000000000000, 1.000000000000000000, 0.0000000000000000000 ) ) ;
#96 = CYLINDRICAL_SURFACE ( 'NONE', #208, 4.762500000000003700 ) ;
#97 = ORIENTED_EDGE ( 'NONE', *, *, #259, .F. ) ;
#98 = DIRECTION ( 'NONE',  ( 0.0000000000000000000, 1.000000000000000000, 0.0000000000000000000 ) ) ;
#99 = MANIFOLD_SOLID_BREP ( 'È¸Àü4', #271 ) ;
#100 = DIRECTION ( 'NONE',  ( -1.000000000000000000, -0.0000000000000000000, -0.0000000000000000000 ) ) ;
#101 = ADVANCED_FACE ( 'NONE', ( #94 ), #159, .T. ) ;
#102 = APPROVAL_PERSON_ORGANIZATION ( #163, #307, #257 ) ;
#103 = CLOSED_SHELL ( 'NONE', ( #302, #171, #12, #59 ) ) ;
#104 = DIRECTION ( 'NONE',  ( 0.0000000000000000000, 0.0000000000000000000, 1.000000000000000000 ) ) ;
#105 = CARTESIAN_POINT ( 'NONE',  ( 39.10000000000000100, 0.0000000000000000000, 4.762500000000007300 ) ) ;
#106 = AXIS2_PLACEMENT_3D ( 'NONE', #121, #301, #144 ) ;
#107 = VECTOR ( 'NONE', #37, 1000.000000000000000 ) ;
#108 = CARTESIAN_POINT ( 'NONE',  ( 0.0000000000000000000, 0.0000000000000000000, 0.0000000000000000000 ) ) ;
#109 =( LENGTH_UNIT ( ) NAMED_UNIT ( * ) SI_UNIT ( .MILLI., .METRE. ) );
#110 = APPROVAL_STATUS ( 'not_yet_approved' ) ;
#111 = ORIENTED_EDGE ( 'NONE', *, *, #116, .T. ) ;
#112 = CIRCLE ( 'NONE', #214, 4.762500000000007300 ) ;
#113 = DESIGN_CONTEXT ( 'detailed design', #88, 'design' ) ;
#114 = ORIENTED_EDGE ( 'NONE', *, *, #149, .F. ) ;
#115 = ORIENTED_EDGE ( 'NONE', *, *, #189, .T. ) ;
#116 = EDGE_CURVE ( 'NONE', #281, #245, #277, .T. ) ;
#117 = AXIS2_PLACEMENT_3D ( 'NONE', #7, #55, #142 ) ;
#118 = LINE ( 'NONE', #15, #65 ) ;
#119 = DIRECTION ( 'NONE',  ( 0.0000000000000000000, 0.0000000000000000000, -1.000000000000000000 ) ) ;
#120 = DIRECTION ( 'NONE',  ( 1.000000000000000000, 1.255964264747572600E-016, -0.0000000000000000000 ) ) ;
#121 = CARTESIAN_POINT ( 'NONE',  ( 0.9999999999999993300, 1.592040838891558800E-016, 0.0000000000000000000 ) ) ;
#122 = ORIENTED_EDGE ( 'NONE', *, *, #224, .F. ) ;
#123 = CARTESIAN_POINT ( 'NONE',  ( 1.000000000000000000, -4.762500000000000200, 5.832380380939269100E-016 ) ) ;
#124 = AXIS2_PLACEMENT_3D ( 'NONE', #227, #85, #252 ) ;
#125 = EDGE_CURVE ( 'NONE', #154, #21, #141, .T. ) ;
#126 = CARTESIAN_POINT ( 'NONE',  ( -43.45000000000000300, -5.423557072913805100E-015, 0.0000000000000000000 ) ) ;
#127 = CARTESIAN_POINT ( 'NONE',  ( 39.10000000000000100, 0.0000000000000000000, 0.0000000000000000000 ) ) ;
#128 = CIRCLE ( 'NONE', #157, 4.762500000000000200 ) ;
#129 = PLANE ( 'NONE',  #139 ) ;
#130 =( NAMED_UNIT ( * ) SI_UNIT ( $, .STERADIAN. ) SOLID_ANGLE_UNIT ( ) );
#131 = APPROVAL_DATE_TIME ( #193, #311 ) ;
#132 = PERSON_AND_ORGANIZATION_ROLE ( 'creator' ) ;
#133 = EDGE_LOOP ( 'NONE', ( #97, #80, #111, #9 ) ) ;
#134 = EDGE_CURVE ( 'NONE', #295, #154, #212, .T. ) ;
#135 = FACE_OUTER_BOUND ( 'NONE', #133, .T. ) ;
#136 = AXIS2_PLACEMENT_3D ( 'NONE', #145, #13, #172 ) ;
#137 = APPROVAL_PERSON_ORGANIZATION ( #204, #311, #284 ) ;
#138 = ORIENTED_EDGE ( 'NONE', *, *, #296, .T. ) ;
#139 = AXIS2_PLACEMENT_3D ( 'NONE', #279, #306, #152 ) ;
#140 = EDGE_CURVE ( 'NONE', #310, #256, #23, .T. ) ;
#141 = CIRCLE ( 'NONE', #106, 4.762500000000000200 ) ;
#142 = DIRECTION ( 'NONE',  ( -1.365923996832131900E-016, 1.000000000000000000, 0.0000000000000000000 ) ) ;
#143 = EDGE_LOOP ( 'NONE', ( #58, #244 ) ) ;
#144 = DIRECTION ( 'NONE',  ( -1.365923996832131600E-016, 1.000000000000000000, 0.0000000000000000000 ) ) ;
#145 = CARTESIAN_POINT ( 'NONE',  ( 0.9999999999999993300, 1.592040838891558800E-016, 0.0000000000000000000 ) ) ;
#146 = ADVANCED_FACE ( 'NONE', ( #135 ), #3, .T. ) ;
#147 = DIRECTION ( 'NONE',  ( 1.000000000000000000, 1.255964264747572600E-016, -0.0000000000000000000 ) ) ;
#148 = VECTOR ( 'NONE', #31, 1000.000000000000000 ) ;
#149 = EDGE_CURVE ( 'NONE', #21, #154, #71, .T. ) ;
#150 = DIRECTION ( 'NONE',  ( 0.0000000000000000000, 0.0000000000000000000, 1.000000000000000000 ) ) ;
#151 = AXIS2_PLACEMENT_3D ( 'NONE', #220, #82, #246 ) ;
#152 = DIRECTION ( 'NONE',  ( -1.255964264747572600E-016, 1.000000000000000000, 0.0000000000000000000 ) ) ;
#153 = CARTESIAN_POINT ( 'NONE',  ( -43.14999999999999900, -5.385878144971377200E-015, 0.0000000000000000000 ) ) ;
#154 = VERTEX_POINT ( 'NONE', #123 ) ;
#155 = APPLICATION_PROTOCOL_DEFINITION ( 'international standard', 'config_control_design', 1994, #180 ) ;
#156 = APPROVAL_STATUS ( 'not_yet_approved' ) ;
#157 = AXIS2_PLACEMENT_3D ( 'NONE', #153, #18, #179 ) ;
#158 = DATE_AND_TIME ( #221, #293 ) ;
#159 = CYLINDRICAL_SURFACE ( 'NONE', #117, 4.762499999999999300 ) ;
#160 = EDGE_CURVE ( 'NONE', #295, #245, #260, .T. ) ;
#161 = CALENDAR_DATE ( 2023, 13, 6 ) ;
#162 = ORIENTED_EDGE ( 'NONE', *, *, #116, .F. ) ;
#163 = PERSON_AND_ORGANIZATION ( #264, #26 ) ;
#164 = ORIENTED_EDGE ( 'NONE', *, *, #125, .F. ) ;
#165 = PRODUCT_DEFINITION_FORMATION_WITH_SPECIFIED_SOURCE ( 'ANY', '', #57, .NOT_KNOWN. ) ;
#166 = AXIS2_PLACEMENT_3D ( 'NONE', #83, #247, #104 ) ;
#167 = LINE ( 'NONE', #177, #107 ) ;
#168 = APPROVAL_DATE_TIME ( #86, #185 ) ;
#169 = ORIENTED_EDGE ( 'NONE', *, *, #140, .F. ) ;
#170 = PLANE ( 'NONE',  #75 ) ;
#171 = ADVANCED_FACE ( 'NONE', ( #190 ), #184, .T. ) ;
#172 = DIRECTION ( 'NONE',  ( -1.365923996832131600E-016, 1.000000000000000000, 0.0000000000000000000 ) ) ;
#173 = ORIENTED_EDGE ( 'NONE', *, *, #134, .T. ) ;
#174 = CARTESIAN_POINT ( 'NONE',  ( 39.10000000000000100, 0.0000000000000000000, 0.0000000000000000000 ) ) ;
#175 = EDGE_CURVE ( 'NONE', #229, #310, #249, .T. ) ;
#176 = DIRECTION ( 'NONE',  ( -1.000000000000000000, -0.0000000000000000000, -0.0000000000000000000 ) ) ;
#177 = CARTESIAN_POINT ( 'NONE',  ( -43.14999999999999900, -4.762500000000005500, 5.832380380939270100E-016 ) ) ;
#178 = FACE_OUTER_BOUND ( 'NONE', #143, .T. ) ;
#179 = DIRECTION ( 'NONE',  ( 0.0000000000000000000, 1.000000000000000000, 0.0000000000000000000 ) ) ;
#180 = APPLICATION_CONTEXT ( 'configuration controlled 3d designs of mechanical parts and assemblies' ) ;
#181 = PERSON_AND_ORGANIZATION_ROLE ( 'creator' ) ;
#182 = ORIENTED_EDGE ( 'NONE', *, *, #209, .T. ) ;
#183 = EDGE_LOOP ( 'NONE', ( #169, #238, #182, #87 ) ) ;
#184 = CYLINDRICAL_SURFACE ( 'NONE', #202, 4.762500000000003700 ) ;
#185 = APPROVAL ( #156, 'UNSPECIFIED' ) ;
#186 = AXIS2_PLACEMENT_3D ( 'NONE', #174, #35, #197 ) ;
#187 = EDGE_LOOP ( 'NONE', ( #194, #41, #52, #234 ) ) ;
#188 =( GEOMETRIC_REPRESENTATION_CONTEXT ( 3 ) GLOBAL_UNCERTAINTY_ASSIGNED_CONTEXT ( ( #50 ) ) GLOBAL_UNIT_ASSIGNED_CONTEXT ( ( #109, #282, #130 ) ) REPRESENTATION_CONTEXT ( 'NONE', 'WORKASPACE' ) );
#189 = EDGE_CURVE ( 'NONE', #1, #256, #266, .T. ) ;
#190 = FACE_OUTER_BOUND ( 'NONE', #183, .T. ) ;
#191 = CARTESIAN_POINT ( 'NONE',  ( -43.14999999999999900, -5.385878144971377200E-015, 0.0000000000000000000 ) ) ;
#192 = CARTESIAN_POINT ( 'NONE',  ( -43.14999999999999900, 4.762499999999994800, 0.0000000000000000000 ) ) ;
#193 = DATE_AND_TIME ( #262, #20 ) ;
#194 = ORIENTED_EDGE ( 'NONE', *, *, #175, .T. ) ;
#195 = DIRECTION ( 'NONE',  ( 1.000000000000000000, 1.255964264747572600E-016, -0.0000000000000000000 ) ) ;
#196 = ADVANCED_FACE ( 'NONE', ( #16 ), #240, .T. ) ;
#197 = DIRECTION ( 'NONE',  ( 0.0000000000000000000, 0.0000000000000000000, 1.000000000000000000 ) ) ;
#198 = DIRECTION ( 'NONE',  ( -1.000000000000000000, -1.255964264747572600E-016, 0.0000000000000000000 ) ) ;
#199 = VECTOR ( 'NONE', #299, 1000.000000000000000 ) ;
#200 = CARTESIAN_POINT ( 'NONE',  ( 0.9999999999999997800, 0.0000000000000000000, 0.0000000000000000000 ) ) ;
#201 = CC_DESIGN_APPROVAL ( #185, ( #165 ) ) ;
#202 = AXIS2_PLACEMENT_3D ( 'NONE', #243, #273, #34 ) ;
#203 = CARTESIAN_POINT ( 'NONE',  ( -43.44999999999999600, 4.462499999999995000, 0.0000000000000000000 ) ) ;
#204 = PERSON_AND_ORGANIZATION ( #264, #26 ) ;
#205 = DIRECTION ( 'NONE',  ( 1.000000000000000000, 0.0000000000000000000, 0.0000000000000000000 ) ) ;
#206 = EDGE_LOOP ( 'NONE', ( #46, #92, #11, #164 ) ) ;
#207 = SECURITY_CLASSIFICATION_LEVEL ( 'unclassified' ) ;
#208 = AXIS2_PLACEMENT_3D ( 'NONE', #108, #280, #38 ) ;
#209 = EDGE_CURVE ( 'NONE', #229, #1, #118, .T. ) ;
#210 = VECTOR ( 'NONE', #33, 1000.000000000000100 ) ;
#211 = ORIENTED_EDGE ( 'NONE', *, *, #149, .T. ) ;
#212 = LINE ( 'NONE', #272, #199 ) ;
#213 = CC_DESIGN_PERSON_AND_ORGANIZATION_ASSIGNMENT ( #40, #181, ( #165 ) ) ;
#214 = AXIS2_PLACEMENT_3D ( 'NONE', #127, #305, #150 ) ;
#215 = CARTESIAN_POINT ( 'NONE',  ( 0.9999999999999986700, 4.762500000000000200, 0.0000000000000000000 ) ) ;
#216 = COORDINATED_UNIVERSAL_TIME_OFFSET ( 9, 0, .AHEAD. ) ;
#217 = DIRECTION ( 'NONE',  ( -1.000000000000000000, 0.0000000000000000000, -0.0000000000000000000 ) ) ;
#218 = ORIENTED_EDGE ( 'NONE', *, *, #278, .T. ) ;
#219 = ADVANCED_FACE ( 'NONE', ( #178 ), #60, .T. ) ;
#220 = CARTESIAN_POINT ( 'NONE',  ( -43.14999999999999900, -5.385878144971377200E-015, 0.0000000000000000000 ) ) ;
#221 = CALENDAR_DATE ( 2023, 13, 6 ) ;
#222 = CIRCLE ( 'NONE', #312, 4.462500000000000400 ) ;
#223 = DIRECTION ( 'NONE',  ( -1.365923996832131900E-016, 1.000000000000000000, 0.0000000000000000000 ) ) ;
#224 = EDGE_CURVE ( 'NONE', #310, #229, #112, .T. ) ;
#225 = CARTESIAN_POINT ( 'NONE',  ( 0.9999999999999997800, 5.832380380939272100E-016, -4.762500000000000200 ) ) ;
#226 = DIRECTION ( 'NONE',  ( 0.0000000000000000000, 0.0000000000000000000, 1.000000000000000000 ) ) ;
#227 = CARTESIAN_POINT ( 'NONE',  ( -43.44999999999999600, -5.423557072913803500E-015, 0.0000000000000000000 ) ) ;
#228 = FACE_OUTER_BOUND ( 'NONE', #187, .T. ) ;
#229 = VERTEX_POINT ( 'NONE', #105 ) ;
#230 = CARTESIAN_POINT ( 'NONE',  ( 39.10000000000000100, 5.832380380939278000E-016, -4.762500000000007300 ) ) ;
#231 = PERSON_AND_ORGANIZATION_ROLE ( 'design_owner' ) ;
#232 = DATE_TIME_ROLE ( 'classification_date' ) ;
#233 = DATE_AND_TIME ( #303, #51 ) ;
#234 = ORIENTED_EDGE ( 'NONE', *, *, #209, .F. ) ;
#235 = ORIENTED_EDGE ( 'NONE', *, *, #296, .F. ) ;
#236 = CC_DESIGN_PERSON_AND_ORGANIZATION_ASSIGNMENT ( #290, #43, ( #165 ) ) ;
#237 = FACE_OUTER_BOUND ( 'NONE', #291, .T. ) ;
#238 = ORIENTED_EDGE ( 'NONE', *, *, #224, .T. ) ;
#239 = EDGE_CURVE ( 'NONE', #256, #1, #54, .T. ) ;
#240 = CYLINDRICAL_SURFACE ( 'NONE', #251, 4.762499999999999300 ) ;
#241 = ADVANCED_BREP_SHAPE_REPRESENTATION ( '03-2090', ( #308, #99, #258 ), #188 ) ;
#242 = CALENDAR_DATE ( 2023, 13, 6 ) ;
#243 = CARTESIAN_POINT ( 'NONE',  ( 0.0000000000000000000, 0.0000000000000000000, 0.0000000000000000000 ) ) ;
#244 = ORIENTED_EDGE ( 'NONE', *, *, #5, .F. ) ;
#245 = VERTEX_POINT ( 'NONE', #248 ) ;
#246 = DIRECTION ( 'NONE',  ( 0.0000000000000000000, 1.000000000000000000, 0.0000000000000000000 ) ) ;
#247 = DIRECTION ( 'NONE',  ( -1.000000000000000000, -0.0000000000000000000, -0.0000000000000000000 ) ) ;
#248 = CARTESIAN_POINT ( 'NONE',  ( -43.14999999999999900, 4.762499999999994800, 0.0000000000000000000 ) ) ;
#249 = CIRCLE ( 'NONE', #186, 4.762500000000007300 ) ;
#250 = SECURITY_CLASSIFICATION ( '', '', #207 ) ;
#251 = AXIS2_PLACEMENT_3D ( 'NONE', #61, #147, #223 ) ;
#252 = DIRECTION ( 'NONE',  ( 0.0000000000000000000, 1.000000000000000000, 0.0000000000000000000 ) ) ;
#253 = APPLICATION_PROTOCOL_DEFINITION ( 'international standard', 'config_control_design', 1994, #88 ) ;
#254 = EDGE_LOOP ( 'NONE', ( #115, #261 ) ) ;
#255 = LOCAL_TIME ( 13, 56, 22.00000000000000000, #10 ) ;
#256 = VERTEX_POINT ( 'NONE', #225 ) ;
#257 = APPROVAL_ROLE ( '' ) ;
#258 = AXIS2_PLACEMENT_3D ( 'NONE', #67, #42, #205 ) ;
#259 = EDGE_CURVE ( 'NONE', #298, #295, #167, .T. ) ;
#260 = CIRCLE ( 'NONE', #151, 4.762500000000000200 ) ;
#261 = ORIENTED_EDGE ( 'NONE', *, *, #239, .T. ) ;
#262 = CALENDAR_DATE ( 2023, 13, 6 ) ;
#263 = EDGE_LOOP ( 'NONE', ( #218, #73, #235, #162 ) ) ;
#264 = PERSON ( 'UNSPECIFIED', 'UNSPECIFIED', 'UNSPECIFIED', ('UNSPECIFIED'), ('UNSPECIFIED'), ('UNSPECIFIED') ) ;
#265 = CARTESIAN_POINT ( 'NONE',  ( 0.9999999999999997800, 0.0000000000000000000, 4.762500000000000200 ) ) ;
#266 = CIRCLE ( 'NONE', #166, 4.762500000000000200 ) ;
#267 = CC_DESIGN_PERSON_AND_ORGANIZATION_ASSIGNMENT ( #275, #69, ( #250 ) ) ;
#268 = AXIS2_PLACEMENT_3D ( 'NONE', #126, #198, #62 ) ;
#269 = DIRECTION ( 'NONE',  ( 1.000000000000000000, 0.0000000000000000000, 0.0000000000000000000 ) ) ;
#270 = PERSON_AND_ORGANIZATION ( #264, #26 ) ;
#271 = CLOSED_SHELL ( 'NONE', ( #81, #196, #219, #274, #101, #146 ) ) ;
#272 = CARTESIAN_POINT ( 'NONE',  ( 0.9999999999999985600, -4.762499999999999300, 5.832380380939268100E-016 ) ) ;
#273 = DIRECTION ( 'NONE',  ( -1.000000000000000000, -0.0000000000000000000, -0.0000000000000000000 ) ) ;
#274 = ADVANCED_FACE ( 'NONE', ( #237 ), #129, .T. ) ;
#275 = PERSON_AND_ORGANIZATION ( #264, #26 ) ;
#276 = CC_DESIGN_PERSON_AND_ORGANIZATION_ASSIGNMENT ( #270, #231, ( #57 ) ) ;
#277 = LINE ( 'NONE', #192, #210 ) ;
#278 = EDGE_CURVE ( 'NONE', #281, #298, #313, .T. ) ;
#279 = CARTESIAN_POINT ( 'NONE',  ( 0.9999999999999981100, 4.762500000000000200, 0.0000000000000000000 ) ) ;
#280 = DIRECTION ( 'NONE',  ( -1.000000000000000000, -0.0000000000000000000, -0.0000000000000000000 ) ) ;
#281 = VERTEX_POINT ( 'NONE', #203 ) ;
#282 =( NAMED_UNIT ( * ) PLANE_ANGLE_UNIT ( ) SI_UNIT ( $, .RADIAN. ) );
#283 = ORIENTED_EDGE ( 'NONE', *, *, #175, .F. ) ;
#284 = APPROVAL_ROLE ( '' ) ;
#285 = LINE ( 'NONE', #76, #148 ) ;
#286 = CC_DESIGN_DATE_AND_TIME_ASSIGNMENT ( #233, #232, ( #250 ) ) ;
#287 = AXIS2_PLACEMENT_3D ( 'NONE', #200, #64, #226 ) ;
#288 = DATE_AND_TIME ( #242, #255 ) ;
#289 = APPROVAL_PERSON_ORGANIZATION ( #292, #185, #22 ) ;
#290 = PERSON_AND_ORGANIZATION ( #264, #26 ) ;
#291 = EDGE_LOOP ( 'NONE', ( #211, #70 ) ) ;
#292 = PERSON_AND_ORGANIZATION ( #264, #26 ) ;
#293 = LOCAL_TIME ( 13, 56, 22.00000000000000000, #45 ) ;
#294 = PRODUCT_DEFINITION ( 'UNKNOWN', '', #165, #113 ) ;
#295 = VERTEX_POINT ( 'NONE', #17 ) ;
#296 = EDGE_CURVE ( 'NONE', #245, #295, #128, .T. ) ;
#297 = CARTESIAN_POINT ( 'NONE',  ( 39.10000000000000100, 0.0000000000000000000, 0.0000000000000000000 ) ) ;
#298 = VERTEX_POINT ( 'NONE', #66 ) ;
#299 = DIRECTION ( 'NONE',  ( 1.000000000000000000, 1.255964264747572600E-016, -0.0000000000000000000 ) ) ;
#300 = PRODUCT_DEFINITION_SHAPE ( 'NONE', 'NONE',  #294 ) ;
#301 = DIRECTION ( 'NONE',  ( 1.000000000000000000, 1.255964264747572600E-016, -0.0000000000000000000 ) ) ;
#302 = ADVANCED_FACE ( 'NONE', ( #228 ), #96, .T. ) ;
#303 = CALENDAR_DATE ( 2023, 13, 6 ) ;
#304 = EDGE_LOOP ( 'NONE', ( #138, #173, #114, #27 ) ) ;
#305 = DIRECTION ( 'NONE',  ( -1.000000000000000000, -0.0000000000000000000, -0.0000000000000000000 ) ) ;
#306 = DIRECTION ( 'NONE',  ( 1.000000000000000000, 1.255964264747572600E-016, -0.0000000000000000000 ) ) ;
#307 = APPROVAL ( #89, 'UNSPECIFIED' ) ;
#308 = MANIFOLD_SOLID_BREP ( 'È¸Àü3', #103 ) ;
#309 = DATE_TIME_ROLE ( 'creation_date' ) ;
#310 = VERTEX_POINT ( 'NONE', #230 ) ;
#311 = APPROVAL ( #110, 'UNSPECIFIED' ) ;
#312 = AXIS2_PLACEMENT_3D ( 'NONE', #53, #30, #95 ) ;
#313 = CIRCLE ( 'NONE', #124, 4.462500000000000400 ) ;
ENDSEC;
END-ISO-10303-21;
