ISO-10303-21;
HEADER;
FILE_DESCRIPTION (( 'STEP AP203' ),
    '1' );
FILE_NAME ('03-2091.STEP',
    '2023-06-13T04:58:27',
    ( 'USER' ),
    ( 'Hewlett-Packard Company' ),
    'SwSTEP 2.0',
    'SolidWorks 2014',
    '' );
FILE_SCHEMA (( 'CONFIG_CONTROL_DESIGN' ));
ENDSEC;

DATA;
#1 = PERSON_AND_ORGANIZATION_ROLE ( 'creator' ) ;
#2 = APPROVAL_ROLE ( '' ) ;
#3 = APPROVAL_ROLE ( '' ) ;
#4 = AXIS2_PLACEMENT_3D ( 'NONE', #47, #45, #42 ) ;
#5 = FACE_OUTER_BOUND ( 'NONE', #124, .T. ) ;
#6 = AXIS2_PLACEMENT_3D ( 'NONE', #193, #177, #172 ) ;
#7 = APPROVAL_STATUS ( 'not_yet_approved' ) ;
#8 = APPLICATION_PROTOCOL_DEFINITION ( 'international standard', 'config_control_design', 1994, #10 ) ;
#9 = ORIENTED_EDGE ( 'NONE', *, *, #272, .F. ) ;
#10 = APPLICATION_CONTEXT ( 'configuration controlled 3d designs of mechanical parts and assemblies' ) ;
#11 = CC_DESIGN_PERSON_AND_ORGANIZATION_ASSIGNMENT ( #161, #201, ( #309 ) ) ;
#12 = ORIENTED_EDGE ( 'NONE', *, *, #215, .F. ) ;
#13 = COORDINATED_UNIVERSAL_TIME_OFFSET ( 9, 0, .AHEAD. ) ;
#14 = AXIS2_PLACEMENT_3D ( 'NONE', #134, #132, #131 ) ;
#15 = CLOSED_SHELL ( 'NONE', ( #292, #157, #265, #181 ) ) ;
#16 = PERSON_AND_ORGANIZATION_ROLE ( 'design_owner' ) ;
#17 = CIRCLE ( 'NONE', #4, 6.350000000000000500 ) ;
#18 = MECHANICAL_CONTEXT ( 'NONE', #24, 'mechanical' ) ;
#19 = DIRECTION ( 'NONE',  ( 1.000000000000000000, 0.0000000000000000000, 0.0000000000000000000 ) ) ;
#20 = AXIS2_PLACEMENT_3D ( 'NONE', #60, #59, #57 ) ;
#21 = DIRECTION ( 'NONE',  ( 0.0000000000000000000, 0.0000000000000000000, 1.000000000000000000 ) ) ;
#22 = ORIENTED_EDGE ( 'NONE', *, *, #310, .T. ) ;
#23 = LOCAL_TIME ( 13, 58, 27.00000000000000000, #96 ) ;
#24 = APPLICATION_CONTEXT ( 'configuration controlled 3d designs of mechanical parts and assemblies' ) ;
#25 = PERSON ( 'UNSPECIFIED', 'UNSPECIFIED', 'UNSPECIFIED', ('UNSPECIFIED'), ('UNSPECIFIED'), ('UNSPECIFIED') ) ;
#26 = APPLICATION_PROTOCOL_DEFINITION ( 'international standard', 'config_control_design', 1994, #24 ) ;
#27 = AXIS2_PLACEMENT_3D ( 'NONE', #183, #180, #178 ) ;
#28 = CIRCLE ( 'NONE', #138, 6.349999999999999600 ) ;
#29 = DATE_TIME_ROLE ( 'classification_date' ) ;
#30 = ADVANCED_FACE ( 'NONE', ( #207 ), #239, .T. ) ;
#31 =( NAMED_UNIT ( * ) SI_UNIT ( $, .STERADIAN. ) SOLID_ANGLE_UNIT ( ) );
#32 = PRODUCT ( '03-2091', '03-2091', '', ( #18 ) ) ;
#33 = ORIENTED_EDGE ( 'NONE', *, *, #222, .F. ) ;
#34 =( NAMED_UNIT ( * ) PLANE_ANGLE_UNIT ( ) SI_UNIT ( $, .RADIAN. ) );
#35 = APPROVAL_DATE_TIME ( #102, #248 ) ;
#36 = CC_DESIGN_DATE_AND_TIME_ASSIGNMENT ( #214, #29, ( #309 ) ) ;
#37 = AXIS2_PLACEMENT_3D ( 'NONE', #267, #299, #264 ) ;
#38 = LINE ( 'NONE', #154, #229 ) ;
#39 = APPROVAL_STATUS ( 'not_yet_approved' ) ;
#40 = AXIS2_PLACEMENT_3D ( 'NONE', #100, #99, #104 ) ;
#41 = ORIENTED_EDGE ( 'NONE', *, *, #310, .F. ) ;
#42 = DIRECTION ( 'NONE',  ( 0.0000000000000000000, 1.000000000000000000, 0.0000000000000000000 ) ) ;
#43 = AXIS2_PLACEMENT_3D ( 'NONE', #231, #226, #224 ) ;
#44 = APPROVAL_PERSON_ORGANIZATION ( #112, #248, #251 ) ;
#45 = DIRECTION ( 'NONE',  ( 1.000000000000000000, 1.269709231258142800E-016, -0.0000000000000000000 ) ) ;
#46 = LINE ( 'NONE', #234, #290 ) ;
#47 = CARTESIAN_POINT ( 'NONE',  ( -49.49999999999999300, -6.252827533964464600E-015, 0.0000000000000000000 ) ) ;
#48 = CARTESIAN_POINT ( 'NONE',  ( 51.79999999999999700, 7.776507174585704000E-016, -6.350000000000009400 ) ) ;
#49 = CARTESIAN_POINT ( 'NONE',  ( 0.0000000000000000000, 0.0000000000000000000, 0.0000000000000000000 ) ) ;
#50 = EDGE_LOOP ( 'NONE', ( #33, #203, #186, #41 ) ) ;
#51 = COORDINATED_UNIVERSAL_TIME_OFFSET ( 9, 0, .AHEAD. ) ;
#52 = CARTESIAN_POINT ( 'NONE',  ( 51.79999999999999700, 0.0000000000000000000, 0.0000000000000000000 ) ) ;
#53 = APPROVAL ( #182, 'UNSPECIFIED' ) ;
#54 = AXIS2_PLACEMENT_3D ( 'NONE', #210, #205, #202 ) ;
#55 = FACE_OUTER_BOUND ( 'NONE', #189, .T. ) ;
#56 = DIRECTION ( 'NONE',  ( -1.000000000000000000, -0.0000000000000000000, -0.0000000000000000000 ) ) ;
#57 = DIRECTION ( 'NONE',  ( -1.365923996832131600E-016, 1.000000000000000000, 0.0000000000000000000 ) ) ;
#58 = ADVANCED_FACE ( 'NONE', ( #79 ), #140, .T. ) ;
#59 = DIRECTION ( 'NONE',  ( 1.000000000000000000, 1.269709231258142800E-016, -0.0000000000000000000 ) ) ;
#60 = CARTESIAN_POINT ( 'NONE',  ( 0.9999999999999993300, 1.592040838891558800E-016, 0.0000000000000000000 ) ) ;
#61 = ORIENTED_EDGE ( 'NONE', *, *, #255, .F. ) ;
#62 =( GEOMETRIC_REPRESENTATION_CONTEXT ( 3 ) GLOBAL_UNCERTAINTY_ASSIGNED_CONTEXT ( ( #311 ) ) GLOBAL_UNIT_ASSIGNED_CONTEXT ( ( #77, #34, #31 ) ) REPRESENTATION_CONTEXT ( 'NONE', 'WORKASPACE' ) );
#63 = LOCAL_TIME ( 13, 58, 27.00000000000000000, #125 ) ;
#64 = ORIENTED_EDGE ( 'NONE', *, *, #245, .T. ) ;
#65 = MANIFOLD_SOLID_BREP ( 'È¸Àü3', #15 ) ;
#66 = CONICAL_SURFACE ( 'NONE', #146, 6.350000000000000500, 0.7853981633974337400 ) ;
#67 = AXIS2_PLACEMENT_3D ( 'NONE', #308, #69, #303 ) ;
#68 = ORGANIZATION ( 'UNSPECIFIED', 'UNSPECIFIED', '' ) ;
#69 = DIRECTION ( 'NONE',  ( -1.000000000000000000, 0.0000000000000000000, -0.0000000000000000000 ) ) ;
#70 = DATE_TIME_ROLE ( 'creation_date' ) ;
#71 = CC_DESIGN_APPROVAL ( #53, ( #309 ) ) ;
#72 = CIRCLE ( 'NONE', #43, 6.349999999999999600 ) ;
#73 = AXIS2_PLACEMENT_3D ( 'NONE', #93, #195, #76 ) ;
#74 = AXIS2_PLACEMENT_3D ( 'NONE', #147, #129, #128 ) ;
#75 = CARTESIAN_POINT ( 'NONE',  ( 0.9999999999999985600, 6.349999999999999600, 0.0000000000000000000 ) ) ;
#76 = DIRECTION ( 'NONE',  ( 0.0000000000000000000, 0.0000000000000000000, 1.000000000000000000 ) ) ;
#77 =( LENGTH_UNIT ( ) NAMED_UNIT ( * ) SI_UNIT ( .MILLI., .METRE. ) );
#78 = CARTESIAN_POINT ( 'NONE',  ( -49.49999999999999300, 6.349999999999994300, 0.0000000000000000000 ) ) ;
#79 = FACE_OUTER_BOUND ( 'NONE', #101, .T. ) ;
#80 = APPROVAL_DATE_TIME ( #145, #53 ) ;
#81 = PLANE ( 'NONE',  #67 ) ;
#82 = DIRECTION ( 'NONE',  ( 0.0000000000000000000, 1.000000000000000000, 0.0000000000000000000 ) ) ;
#83 = ADVANCED_FACE ( 'NONE', ( #253 ), #192, .T. ) ;
#84 = VERTEX_POINT ( 'NONE', #135 ) ;
#85 = VERTEX_POINT ( 'NONE', #123 ) ;
#86 = CC_DESIGN_SECURITY_CLASSIFICATION ( #309, ( #235 ) ) ;
#87 = APPROVAL_PERSON_ORGANIZATION ( #151, #53, #2 ) ;
#88 = AXIS2_PLACEMENT_3D ( 'NONE', #283, #278, #276 ) ;
#89 = CLOSED_SHELL ( 'NONE', ( #83, #58, #30, #246, #200, #108 ) ) ;
#90 = VERTEX_POINT ( 'NONE', #75 ) ;
#91 = CIRCLE ( 'NONE', #20, 6.349999999999999600 ) ;
#92 = DIRECTION ( 'NONE',  ( 1.000000000000000000, 1.269709231258142800E-016, -0.0000000000000000000 ) ) ;
#93 = CARTESIAN_POINT ( 'NONE',  ( 0.0000000000000000000, 0.0000000000000000000, 0.0000000000000000000 ) ) ;
#94 = CARTESIAN_POINT ( 'NONE',  ( -49.80000000000000400, -6.290918810902210300E-015, 0.0000000000000000000 ) ) ;
#95 = ORIENTED_EDGE ( 'NONE', *, *, #236, .T. ) ;
#96 = COORDINATED_UNIVERSAL_TIME_OFFSET ( 9, 0, .AHEAD. ) ;
#97 = LINE ( 'NONE', #116, #216 ) ;
#98 = AXIS2_PLACEMENT_3D ( 'NONE', #52, #56, #312 ) ;
#99 = DIRECTION ( 'NONE',  ( -1.000000000000000000, -0.0000000000000000000, -0.0000000000000000000 ) ) ;
#100 = CARTESIAN_POINT ( 'NONE',  ( 0.0000000000000000000, 0.0000000000000000000, 0.0000000000000000000 ) ) ;
#101 = EDGE_LOOP ( 'NONE', ( #64, #223, #110, #260 ) ) ;
#102 = DATE_AND_TIME ( #168, #228 ) ;
#103 = PRODUCT_RELATED_PRODUCT_CATEGORY ( 'detail', '', ( #32 ) ) ;
#104 = DIRECTION ( 'NONE',  ( 0.0000000000000000000, 0.0000000000000000000, 1.000000000000000000 ) ) ;
#105 = EDGE_LOOP ( 'NONE', ( #306, #184 ) ) ;
#106 = DIRECTION ( 'NONE',  ( 0.0000000000000000000, 0.0000000000000000000, 1.000000000000000000 ) ) ;
#107 = CIRCLE ( 'NONE', #27, 6.350000000000000500 ) ;
#108 = ADVANCED_FACE ( 'NONE', ( #250 ), #66, .T. ) ;
#109 = DIRECTION ( 'NONE',  ( -1.000000000000000000, -0.0000000000000000000, -0.0000000000000000000 ) ) ;
#110 = ORIENTED_EDGE ( 'NONE', *, *, #261, .F. ) ;
#111 = CARTESIAN_POINT ( 'NONE',  ( 1.000000000000000000, 0.0000000000000000000, 0.0000000000000000000 ) ) ;
#112 = PERSON_AND_ORGANIZATION ( #25, #68 ) ;
#113 = ORIENTED_EDGE ( 'NONE', *, *, #296, .T. ) ;
#114 = CIRCLE ( 'NONE', #54, 6.050000000000000700 ) ;
#115 = PERSON_AND_ORGANIZATION_ROLE ( 'creator' ) ;
#116 = CARTESIAN_POINT ( 'NONE',  ( 0.9999999999999970000, 6.349999999999999600, 0.0000000000000000000 ) ) ;
#117 = ORIENTED_EDGE ( 'NONE', *, *, #291, .F. ) ;
#118 = PERSON_AND_ORGANIZATION ( #25, #68 ) ;
#119 = DESIGN_CONTEXT ( 'detailed design', #10, 'design' ) ;
#120 = MANIFOLD_SOLID_BREP ( 'È¸Àü4', #89 ) ;
#121 = AXIS2_PLACEMENT_3D ( 'NONE', #217, #257, #198 ) ;
#122 = VECTOR ( 'NONE', #269, 1000.000000000000000 ) ;
#123 = CARTESIAN_POINT ( 'NONE',  ( -49.49999999999999300, -6.350000000000005900, 7.776507174585696100E-016 ) ) ;
#124 = EDGE_LOOP ( 'NONE', ( #150, #113 ) ) ;
#125 = COORDINATED_UNIVERSAL_TIME_OFFSET ( 9, 0, .AHEAD. ) ;
#126 = AXIS2_PLACEMENT_3D ( 'NONE', #49, #21, #19 ) ;
#127 = VERTEX_POINT ( 'NONE', #48 ) ;
#128 = DIRECTION ( 'NONE',  ( 0.0000000000000000000, 0.0000000000000000000, -1.000000000000000000 ) ) ;
#129 = DIRECTION ( 'NONE',  ( 1.000000000000000000, 0.0000000000000000000, 0.0000000000000000000 ) ) ;
#130 = CIRCLE ( 'NONE', #88, 6.350000000000009400 ) ;
#131 = DIRECTION ( 'NONE',  ( -1.365923996832131600E-016, 1.000000000000000000, 0.0000000000000000000 ) ) ;
#132 = DIRECTION ( 'NONE',  ( 1.000000000000000000, 1.269709231258142800E-016, -0.0000000000000000000 ) ) ;
#133 = AXIS2_PLACEMENT_3D ( 'NONE', #285, #142, #152 ) ;
#134 = CARTESIAN_POINT ( 'NONE',  ( 0.9999999999999993300, 1.592040838891558800E-016, 0.0000000000000000000 ) ) ;
#135 = CARTESIAN_POINT ( 'NONE',  ( -49.80000000000000400, -6.050000000000006900, 7.592810154713591800E-016 ) ) ;
#136 = SHAPE_DEFINITION_REPRESENTATION ( #288, #254 ) ;
#137 = DIRECTION ( 'NONE',  ( 1.000000000000000000, 1.269709231258142800E-016, -0.0000000000000000000 ) ) ;
#138 = AXIS2_PLACEMENT_3D ( 'NONE', #111, #109, #106 ) ;
#139 = DIRECTION ( 'NONE',  ( 1.000000000000000000, 1.269709231258142800E-016, -0.0000000000000000000 ) ) ;
#140 = CYLINDRICAL_SURFACE ( 'NONE', #121, 6.349999999999999600 ) ;
#141 = AXIS2_PLACEMENT_3D ( 'NONE', #266, #230, #196 ) ;
#142 = DIRECTION ( 'NONE',  ( 1.000000000000000000, 1.269709231258142800E-016, -0.0000000000000000000 ) ) ;
#143 = CC_DESIGN_PERSON_AND_ORGANIZATION_ASSIGNMENT ( #307, #16, ( #32 ) ) ;
#144 = FACE_OUTER_BOUND ( 'NONE', #173, .T. ) ;
#145 = DATE_AND_TIME ( #208, #262 ) ;
#146 = AXIS2_PLACEMENT_3D ( 'NONE', #165, #139, #166 ) ;
#147 = CARTESIAN_POINT ( 'NONE',  ( 1.000000000000000900, 2.731847993664267700E-016, 0.0000000000000000000 ) ) ;
#148 = CARTESIAN_POINT ( 'NONE',  ( 1.000000000000000000, 7.776507174585695100E-016, -6.349999999999999600 ) ) ;
#149 = DIRECTION ( 'NONE',  ( 0.7071067811865577900, 0.7071067811865373600, 0.0000000000000000000 ) ) ;
#150 = ORIENTED_EDGE ( 'NONE', *, *, #261, .T. ) ;
#151 = PERSON_AND_ORGANIZATION ( #25, #68 ) ;
#152 = DIRECTION ( 'NONE',  ( 0.0000000000000000000, 1.000000000000000000, 0.0000000000000000000 ) ) ;
#153 = EDGE_CURVE ( 'NONE', #220, #127, #313, .T. ) ;
#154 = CARTESIAN_POINT ( 'NONE',  ( -49.49999999999999300, 6.349999999999994300, 0.0000000000000000000 ) ) ;
#155 = ORIENTED_EDGE ( 'NONE', *, *, #296, .F. ) ;
#156 = FACE_OUTER_BOUND ( 'NONE', #301, .T. ) ;
#157 = ADVANCED_FACE ( 'NONE', ( #197 ), #305, .T. ) ;
#158 = PLANE ( 'NONE',  #74 ) ;
#159 = PRODUCT_DEFINITION ( 'UNKNOWN', '', #235, #119 ) ;
#160 = ORIENTED_EDGE ( 'NONE', *, *, #199, .T. ) ;
#161 = PERSON_AND_ORGANIZATION ( #25, #68 ) ;
#162 = ORIENTED_EDGE ( 'NONE', *, *, #199, .F. ) ;
#163 = FACE_OUTER_BOUND ( 'NONE', #105, .T. ) ;
#164 = CARTESIAN_POINT ( 'NONE',  ( 0.9999999999999986700, -6.349999999999999600, 7.776507174585692200E-016 ) ) ;
#165 = CARTESIAN_POINT ( 'NONE',  ( -49.49999999999999300, -6.252827533964464600E-015, 0.0000000000000000000 ) ) ;
#166 = DIRECTION ( 'NONE',  ( 0.0000000000000000000, 1.000000000000000000, 0.0000000000000000000 ) ) ;
#167 = ORIENTED_EDGE ( 'NONE', *, *, #249, .F. ) ;
#168 = CALENDAR_DATE ( 2023, 13, 6 ) ;
#169 = ORIENTED_EDGE ( 'NONE', *, *, #245, .F. ) ;
#170 = LINE ( 'NONE', #164, #225 ) ;
#171 = DIRECTION ( 'NONE',  ( 1.000000000000000000, 1.269709231258142800E-016, -0.0000000000000000000 ) ) ;
#172 = DIRECTION ( 'NONE',  ( -1.269709231258142800E-016, 1.000000000000000000, 0.0000000000000000000 ) ) ;
#173 = EDGE_LOOP ( 'NONE', ( #212, #304 ) ) ;
#174 = APPROVAL ( #7, 'UNSPECIFIED' ) ;
#175 = DATE_AND_TIME ( #233, #294 ) ;
#176 = SECURITY_CLASSIFICATION_LEVEL ( 'unclassified' ) ;
#177 = DIRECTION ( 'NONE',  ( 1.000000000000000000, 1.269709231258142800E-016, -0.0000000000000000000 ) ) ;
#178 = DIRECTION ( 'NONE',  ( 0.0000000000000000000, 1.000000000000000000, 0.0000000000000000000 ) ) ;
#179 = CIRCLE ( 'NONE', #14, 6.349999999999999600 ) ;
#180 = DIRECTION ( 'NONE',  ( 1.000000000000000000, 1.269709231258142800E-016, -0.0000000000000000000 ) ) ;
#181 = ADVANCED_FACE ( 'NONE', ( #144 ), #81, .F. ) ;
#182 = APPROVAL_STATUS ( 'not_yet_approved' ) ;
#183 = CARTESIAN_POINT ( 'NONE',  ( -49.49999999999999300, -6.252827533964464600E-015, 0.0000000000000000000 ) ) ;
#184 = ORIENTED_EDGE ( 'NONE', *, *, #215, .T. ) ;
#185 = APPROVAL_DATE_TIME ( #241, #174 ) ;
#186 = ORIENTED_EDGE ( 'NONE', *, *, #249, .T. ) ;
#187 = VECTOR ( 'NONE', #289, 1000.000000000000000 ) ;
#188 = EDGE_CURVE ( 'NONE', #127, #220, #130, .T. ) ;
#189 = EDGE_LOOP ( 'NONE', ( #61, #22, #297, #155 ) ) ;
#190 = APPROVAL_PERSON_ORGANIZATION ( #247, #174, #3 ) ;
#191 = CC_DESIGN_APPROVAL ( #174, ( #159 ) ) ;
#192 = CONICAL_SURFACE ( 'NONE', #133, 6.350000000000000500, 0.7853981633974337400 ) ;
#193 = CARTESIAN_POINT ( 'NONE',  ( 0.9999999999999978900, 6.349999999999999600, 0.0000000000000000000 ) ) ;
#194 = CARTESIAN_POINT ( 'NONE',  ( 1.000000000000000200, -6.349999999999999600, 7.776507174585692200E-016 ) ) ;
#195 = DIRECTION ( 'NONE',  ( -1.000000000000000000, -0.0000000000000000000, -0.0000000000000000000 ) ) ;
#196 = DIRECTION ( 'NONE',  ( 1.269709231258142800E-016, -1.000000000000000000, 0.0000000000000000000 ) ) ;
#197 = FACE_OUTER_BOUND ( 'NONE', #286, .T. ) ;
#198 = DIRECTION ( 'NONE',  ( -1.365923996832131600E-016, 1.000000000000000000, 0.0000000000000000000 ) ) ;
#199 = EDGE_CURVE ( 'NONE', #127, #258, #244, .T. ) ;
#200 = ADVANCED_FACE ( 'NONE', ( #55 ), #237, .T. ) ;
#201 = PERSON_AND_ORGANIZATION_ROLE ( 'classification_officer' ) ;
#202 = DIRECTION ( 'NONE',  ( 0.0000000000000000000, 1.000000000000000000, 0.0000000000000000000 ) ) ;
#203 = ORIENTED_EDGE ( 'NONE', *, *, #291, .T. ) ;
#204 = CC_DESIGN_PERSON_AND_ORGANIZATION_ASSIGNMENT ( #118, #1, ( #159 ) ) ;
#205 = DIRECTION ( 'NONE',  ( 1.000000000000000000, 1.269709231258142800E-016, -0.0000000000000000000 ) ) ;
#206 = EDGE_CURVE ( 'NONE', #220, #238, #298, .T. ) ;
#207 = FACE_OUTER_BOUND ( 'NONE', #277, .T. ) ;
#208 = CALENDAR_DATE ( 2023, 13, 6 ) ;
#209 = CYLINDRICAL_SURFACE ( 'NONE', #40, 6.350000000000005000 ) ;
#210 = CARTESIAN_POINT ( 'NONE',  ( -49.80000000000000400, -6.290918810902210300E-015, 0.0000000000000000000 ) ) ;
#211 = PLANE ( 'NONE',  #6 ) ;
#212 = ORIENTED_EDGE ( 'NONE', *, *, #153, .F. ) ;
#213 = CARTESIAN_POINT ( 'NONE',  ( -49.80000000000000400, 6.049999999999994500, 0.0000000000000000000 ) ) ;
#214 = DATE_AND_TIME ( #271, #23 ) ;
#215 = EDGE_CURVE ( 'NONE', #258, #238, #72, .T. ) ;
#216 = VECTOR ( 'NONE', #137, 1000.000000000000000 ) ;
#217 = CARTESIAN_POINT ( 'NONE',  ( 0.9999999999999978900, 1.592040838891556900E-016, 0.0000000000000000000 ) ) ;
#218 = DIRECTION ( 'NONE',  ( 0.7071067811865579000, -0.7071067811865371400, 8.659560562354807100E-017 ) ) ;
#219 = CC_DESIGN_DATE_AND_TIME_ASSIGNMENT ( #175, #70, ( #159 ) ) ;
#220 = VERTEX_POINT ( 'NONE', #243 ) ;
#221 = PERSON_AND_ORGANIZATION ( #25, #68 ) ;
#222 = EDGE_CURVE ( 'NONE', #84, #85, #46, .T. ) ;
#223 = ORIENTED_EDGE ( 'NONE', *, *, #255, .T. ) ;
#224 = DIRECTION ( 'NONE',  ( 0.0000000000000000000, 0.0000000000000000000, 1.000000000000000000 ) ) ;
#225 = VECTOR ( 'NONE', #171, 1000.000000000000000 ) ;
#226 = DIRECTION ( 'NONE',  ( -1.000000000000000000, -0.0000000000000000000, -0.0000000000000000000 ) ) ;
#227 = ORIENTED_EDGE ( 'NONE', *, *, #206, .F. ) ;
#228 = LOCAL_TIME ( 13, 58, 27.00000000000000000, #287 ) ;
#229 = VECTOR ( 'NONE', #149, 999.9999999999998900 ) ;
#230 = DIRECTION ( 'NONE',  ( -1.000000000000000000, -1.269709231258142800E-016, 0.0000000000000000000 ) ) ;
#231 = CARTESIAN_POINT ( 'NONE',  ( 1.000000000000000000, 0.0000000000000000000, 0.0000000000000000000 ) ) ;
#232 = ORIENTED_EDGE ( 'NONE', *, *, #206, .T. ) ;
#233 = CALENDAR_DATE ( 2023, 13, 6 ) ;
#234 = CARTESIAN_POINT ( 'NONE',  ( -49.49999999999999300, -6.350000000000006800, 7.776507174585693100E-016 ) ) ;
#235 = PRODUCT_DEFINITION_FORMATION_WITH_SPECIFIED_SOURCE ( 'ANY', '', #32, .NOT_KNOWN. ) ;
#236 = EDGE_CURVE ( 'NONE', #240, #84, #114, .T. ) ;
#237 = CYLINDRICAL_SURFACE ( 'NONE', #37, 6.349999999999999600 ) ;
#238 = VERTEX_POINT ( 'NONE', #256 ) ;
#239 = PLANE ( 'NONE',  #141 ) ;
#240 = VERTEX_POINT ( 'NONE', #213 ) ;
#241 = DATE_AND_TIME ( #302, #63 ) ;
#242 = VERTEX_POINT ( 'NONE', #194 ) ;
#243 = CARTESIAN_POINT ( 'NONE',  ( 51.79999999999999700, 0.0000000000000000000, 6.350000000000009400 ) ) ;
#244 = LINE ( 'NONE', #284, #187 ) ;
#245 = EDGE_CURVE ( 'NONE', #293, #85, #107, .T. ) ;
#246 = ADVANCED_FACE ( 'NONE', ( #5 ), #211, .T. ) ;
#247 = PERSON_AND_ORGANIZATION ( #25, #68 ) ;
#248 = APPROVAL ( #39, 'UNSPECIFIED' ) ;
#249 = EDGE_CURVE ( 'NONE', #240, #293, #38, .T. ) ;
#250 = FACE_OUTER_BOUND ( 'NONE', #50, .T. ) ;
#251 = APPROVAL_ROLE ( '' ) ;
#252 = ORIENTED_EDGE ( 'NONE', *, *, #188, .T. ) ;
#253 = FACE_OUTER_BOUND ( 'NONE', #270, .T. ) ;
#254 = ADVANCED_BREP_SHAPE_REPRESENTATION ( '03-2091', ( #65, #120, #126 ), #62 ) ;
#255 = EDGE_CURVE ( 'NONE', #85, #242, #170, .T. ) ;
#256 = CARTESIAN_POINT ( 'NONE',  ( 1.000000000000000000, 0.0000000000000000000, 6.349999999999999600 ) ) ;
#257 = DIRECTION ( 'NONE',  ( 1.000000000000000000, 1.269709231258142800E-016, -0.0000000000000000000 ) ) ;
#258 = VERTEX_POINT ( 'NONE', #148 ) ;
#259 = CC_DESIGN_APPROVAL ( #248, ( #235 ) ) ;
#260 = ORIENTED_EDGE ( 'NONE', *, *, #281, .F. ) ;
#261 = EDGE_CURVE ( 'NONE', #90, #242, #179, .T. ) ;
#262 = LOCAL_TIME ( 13, 58, 27.00000000000000000, #13 ) ;
#263 = CARTESIAN_POINT ( 'NONE',  ( 0.0000000000000000000, 0.0000000000000000000, 6.350000000000005000 ) ) ;
#264 = DIRECTION ( 'NONE',  ( -1.365923996832131600E-016, 1.000000000000000000, 0.0000000000000000000 ) ) ;
#265 = ADVANCED_FACE ( 'NONE', ( #163 ), #158, .F. ) ;
#266 = CARTESIAN_POINT ( 'NONE',  ( -49.79999999999999700, -6.290918810902208700E-015, 0.0000000000000000000 ) ) ;
#267 = CARTESIAN_POINT ( 'NONE',  ( 0.9999999999999978900, 1.592040838891556900E-016, 0.0000000000000000000 ) ) ;
#268 = ORIENTED_EDGE ( 'NONE', *, *, #222, .T. ) ;
#269 = DIRECTION ( 'NONE',  ( -1.000000000000000000, -0.0000000000000000000, -0.0000000000000000000 ) ) ;
#270 = EDGE_LOOP ( 'NONE', ( #95, #268, #169, #167 ) ) ;
#271 = CALENDAR_DATE ( 2023, 13, 6 ) ;
#272 = EDGE_CURVE ( 'NONE', #238, #258, #28, .T. ) ;
#273 = CIRCLE ( 'NONE', #300, 6.050000000000000700 ) ;
#274 = PERSON_AND_ORGANIZATION_ROLE ( 'design_supplier' ) ;
#275 = ORIENTED_EDGE ( 'NONE', *, *, #153, .T. ) ;
#276 = DIRECTION ( 'NONE',  ( 0.0000000000000000000, 0.0000000000000000000, 1.000000000000000000 ) ) ;
#277 = EDGE_LOOP ( 'NONE', ( #282, #117 ) ) ;
#278 = DIRECTION ( 'NONE',  ( -1.000000000000000000, -0.0000000000000000000, -0.0000000000000000000 ) ) ;
#279 = CC_DESIGN_PERSON_AND_ORGANIZATION_ASSIGNMENT ( #280, #115, ( #235 ) ) ;
#280 = PERSON_AND_ORGANIZATION ( #25, #68 ) ;
#281 = EDGE_CURVE ( 'NONE', #293, #90, #97, .T. ) ;
#282 = ORIENTED_EDGE ( 'NONE', *, *, #236, .F. ) ;
#283 = CARTESIAN_POINT ( 'NONE',  ( 51.79999999999999700, 0.0000000000000000000, 0.0000000000000000000 ) ) ;
#284 = CARTESIAN_POINT ( 'NONE',  ( 0.0000000000000000000, 7.776507174585699100E-016, -6.350000000000005000 ) ) ;
#285 = CARTESIAN_POINT ( 'NONE',  ( -49.49999999999999300, -6.252827533964464600E-015, 0.0000000000000000000 ) ) ;
#286 = EDGE_LOOP ( 'NONE', ( #162, #252, #232, #12 ) ) ;
#287 = COORDINATED_UNIVERSAL_TIME_OFFSET ( 9, 0, .AHEAD. ) ;
#288 = PRODUCT_DEFINITION_SHAPE ( 'NONE', 'NONE',  #159 ) ;
#289 = DIRECTION ( 'NONE',  ( -1.000000000000000000, -0.0000000000000000000, -0.0000000000000000000 ) ) ;
#290 = VECTOR ( 'NONE', #218, 1000.000000000000000 ) ;
#291 = EDGE_CURVE ( 'NONE', #84, #240, #273, .T. ) ;
#292 = ADVANCED_FACE ( 'NONE', ( #156 ), #209, .T. ) ;
#293 = VERTEX_POINT ( 'NONE', #78 ) ;
#294 = LOCAL_TIME ( 13, 58, 27.00000000000000000, #51 ) ;
#295 = CC_DESIGN_PERSON_AND_ORGANIZATION_ASSIGNMENT ( #221, #274, ( #235 ) ) ;
#296 = EDGE_CURVE ( 'NONE', #242, #90, #91, .T. ) ;
#297 = ORIENTED_EDGE ( 'NONE', *, *, #281, .T. ) ;
#298 = LINE ( 'NONE', #263, #122 ) ;
#299 = DIRECTION ( 'NONE',  ( 1.000000000000000000, 1.269709231258142800E-016, -0.0000000000000000000 ) ) ;
#300 = AXIS2_PLACEMENT_3D ( 'NONE', #94, #92, #82 ) ;
#301 = EDGE_LOOP ( 'NONE', ( #275, #160, #9, #227 ) ) ;
#302 = CALENDAR_DATE ( 2023, 13, 6 ) ;
#303 = DIRECTION ( 'NONE',  ( -0.0000000000000000000, 0.0000000000000000000, 1.000000000000000000 ) ) ;
#304 = ORIENTED_EDGE ( 'NONE', *, *, #188, .F. ) ;
#305 = CYLINDRICAL_SURFACE ( 'NONE', #73, 6.350000000000005000 ) ;
#306 = ORIENTED_EDGE ( 'NONE', *, *, #272, .T. ) ;
#307 = PERSON_AND_ORGANIZATION ( #25, #68 ) ;
#308 = CARTESIAN_POINT ( 'NONE',  ( 51.79999999999999700, 0.0000000000000000000, 0.0000000000000000000 ) ) ;
#309 = SECURITY_CLASSIFICATION ( '', '', #176 ) ;
#310 = EDGE_CURVE ( 'NONE', #85, #293, #17, .T. ) ;
#311 = UNCERTAINTY_MEASURE_WITH_UNIT (LENGTH_MEASURE( 1.000000000000000100E-005 ), #77, 'distance_accuracy_value', 'NONE');
#312 = DIRECTION ( 'NONE',  ( 0.0000000000000000000, 0.0000000000000000000, 1.000000000000000000 ) ) ;
#313 = CIRCLE ( 'NONE', #98, 6.350000000000009400 ) ;
ENDSEC;
END-ISO-10303-21;
