ISO-10303-21;
HEADER;
FILE_DESCRIPTION (( 'STEP AP203' ),
    '1' );
FILE_NAME ('03-2093.STEP',
    '2023-06-13T04:57:53',
    ( 'USER' ),
    ( 'Hewlett-Packard Company' ),
    'SwSTEP 2.0',
    'SolidWorks 2014',
    '' );
FILE_SCHEMA (( 'CONFIG_CONTROL_DESIGN' ));
ENDSEC;

DATA;
#1 = VECTOR ( 'NONE', #55, 1000.000000000000100 ) ;
#2 = CARTESIAN_POINT ( 'NONE',  ( 0.9999999999999978900, 1.592040838891556900E-016, 0.0000000000000000000 ) ) ;
#3 =( NAMED_UNIT ( * ) PLANE_ANGLE_UNIT ( ) SI_UNIT ( $, .RADIAN. ) );
#4 = ORIENTED_EDGE ( 'NONE', *, *, #263, .F. ) ;
#5 = CC_DESIGN_APPROVAL ( #305, ( #291 ) ) ;
#6 = PERSON ( 'UNSPECIFIED', 'UNSPECIFIED', 'UNSPECIFIED', ('UNSPECIFIED'), ('UNSPECIFIED'), ('UNSPECIFIED') ) ;
#7 = AXIS2_PLACEMENT_3D ( 'NONE', #28, #125, #127 ) ;
#8 = APPROVAL_ROLE ( '' ) ;
#9 = APPROVAL_STATUS ( 'not_yet_approved' ) ;
#10 = ORIENTED_EDGE ( 'NONE', *, *, #198, .T. ) ;
#11 = DIRECTION ( 'NONE',  ( 0.0000000000000000000, 0.0000000000000000000, 1.000000000000000000 ) ) ;
#12 = COORDINATED_UNIVERSAL_TIME_OFFSET ( 9, 0, .AHEAD. ) ;
#13 = EDGE_CURVE ( 'NONE', #25, #135, #237, .T. ) ;
#14 = FACE_OUTER_BOUND ( 'NONE', #75, .T. ) ;
#15 = ORIENTED_EDGE ( 'NONE', *, *, #283, .F. ) ;
#16 = DIRECTION ( 'NONE',  ( -1.000000000000000000, -0.0000000000000000000, -0.0000000000000000000 ) ) ;
#17 = CARTESIAN_POINT ( 'NONE',  ( -55.84999999999998000, -6.904166391567879400E-015, 0.0000000000000000000 ) ) ;
#18 = DIRECTION ( 'NONE',  ( 1.000000000000000000, 1.242457427521026900E-016, -0.0000000000000000000 ) ) ;
#19 = VERTEX_POINT ( 'NONE', #214 ) ;
#20 = CARTESIAN_POINT ( 'NONE',  ( -55.84999999999998000, -6.904166391567879400E-015, 0.0000000000000000000 ) ) ;
#21 = CC_DESIGN_PERSON_AND_ORGANIZATION_ASSIGNMENT ( #113, #114, ( #291 ) ) ;
#22 = LOCAL_TIME ( 13, 57, 53.00000000000000000, #87 ) ;
#23 = FACE_OUTER_BOUND ( 'NONE', #77, .T. ) ;
#24 = DIRECTION ( 'NONE',  ( 0.0000000000000000000, 0.0000000000000000000, 1.000000000000000000 ) ) ;
#25 = VERTEX_POINT ( 'NONE', #96 ) ;
#26 = CARTESIAN_POINT ( 'NONE',  ( 1.000000000000000400, 0.0000000000000000000, 9.525000000000000400 ) ) ;
#27 = AXIS2_PLACEMENT_3D ( 'NONE', #152, #18, #220 ) ;
#28 = CARTESIAN_POINT ( 'NONE',  ( 0.0000000000000000000, 0.0000000000000000000, 0.0000000000000000000 ) ) ;
#29 = EDGE_LOOP ( 'NONE', ( #204, #247 ) ) ;
#30 = DIRECTION ( 'NONE',  ( 1.000000000000000000, 0.0000000000000000000, 0.0000000000000000000 ) ) ;
#31 = APPROVAL_DATE_TIME ( #97, #69 ) ;
#32 = FACE_OUTER_BOUND ( 'NONE', #29, .T. ) ;
#33 = EDGE_CURVE ( 'NONE', #203, #221, #115, .T. ) ;
#34 = ORIENTED_EDGE ( 'NONE', *, *, #33, .T. ) ;
#35 = PERSON_AND_ORGANIZATION_ROLE ( 'design_supplier' ) ;
#36 = MECHANICAL_CONTEXT ( 'NONE', #154, 'mechanical' ) ;
#37 = APPROVAL_PERSON_ORGANIZATION ( #107, #69, #304 ) ;
#38 = CARTESIAN_POINT ( 'NONE',  ( -55.84999999999998000, -9.525000000000009200, 1.166476076187854800E-015 ) ) ;
#39 = CC_DESIGN_DATE_AND_TIME_ASSIGNMENT ( #169, #281, ( #291 ) ) ;
#40 = CONICAL_SURFACE ( 'NONE', #167, 9.525000000000002100, 0.7853981633974251900 ) ;
#41 = ADVANCED_FACE ( 'NONE', ( #46 ), #40, .T. ) ;
#42 = AXIS2_PLACEMENT_3D ( 'NONE', #242, #103, #267 ) ;
#43 = CARTESIAN_POINT ( 'NONE',  ( 1.000000000000000400, 0.0000000000000000000, 0.0000000000000000000 ) ) ;
#44 = CARTESIAN_POINT ( 'NONE',  ( 0.0000000000000000000, 0.0000000000000000000, 9.525000000000007500 ) ) ;
#45 = COORDINATED_UNIVERSAL_TIME_OFFSET ( 9, 0, .AHEAD. ) ;
#46 = FACE_OUTER_BOUND ( 'NONE', #285, .T. ) ;
#47 = EDGE_CURVE ( 'NONE', #84, #135, #108, .T. ) ;
#48 = DIRECTION ( 'NONE',  ( 1.000000000000000000, 1.242457427521026900E-016, -0.0000000000000000000 ) ) ;
#49 = DIRECTION ( 'NONE',  ( -1.000000000000000000, -0.0000000000000000000, -0.0000000000000000000 ) ) ;
#50 = CARTESIAN_POINT ( 'NONE',  ( 0.9999999999999967800, 9.525000000000002100, 0.0000000000000000000 ) ) ;
#51 = PRODUCT_DEFINITION_SHAPE ( 'NONE', 'NONE',  #291 ) ;
#52 = DIRECTION ( 'NONE',  ( -1.138269997360109700E-016, 1.000000000000000000, 0.0000000000000000000 ) ) ;
#53 = LOCAL_TIME ( 13, 57, 53.00000000000000000, #120 ) ;
#54 = FACE_OUTER_BOUND ( 'NONE', #310, .T. ) ;
#55 = DIRECTION ( 'NONE',  ( 0.7071067811865637800, 0.7071067811865312500, 0.0000000000000000000 ) ) ;
#56 = PRODUCT_DEFINITION_FORMATION_WITH_SPECIFIED_SOURCE ( 'ANY', '', #76, .NOT_KNOWN. ) ;
#57 = CIRCLE ( 'NONE', #163, 9.525000000000000400 ) ;
#58 = AXIS2_PLACEMENT_3D ( 'NONE', #193, #48, #71 ) ;
#59 = ORGANIZATION ( 'UNSPECIFIED', 'UNSPECIFIED', '' ) ;
#60 = ORIENTED_EDGE ( 'NONE', *, *, #299, .F. ) ;
#61 = APPLICATION_CONTEXT ( 'configuration controlled 3d designs of mechanical parts and assemblies' ) ;
#62 = ORIENTED_EDGE ( 'NONE', *, *, #230, .F. ) ;
#63 = DIRECTION ( 'NONE',  ( 0.0000000000000000000, 1.000000000000000000, 0.0000000000000000000 ) ) ;
#64 = EDGE_CURVE ( 'NONE', #272, #25, #298, .T. ) ;
#65 = LINE ( 'NONE', #265, #1 ) ;
#66 = ADVANCED_FACE ( 'NONE', ( #170 ), #99, .T. ) ;
#67 = DIRECTION ( 'NONE',  ( 1.000000000000000000, 1.242457427521026900E-016, -0.0000000000000000000 ) ) ;
#68 = VERTEX_POINT ( 'NONE', #143 ) ;
#69 = APPROVAL ( #136, 'UNSPECIFIED' ) ;
#70 = APPROVAL_DATE_TIME ( #138, #184 ) ;
#71 = DIRECTION ( 'NONE',  ( -1.138269997360109400E-016, 1.000000000000000000, 0.0000000000000000000 ) ) ;
#72 = VECTOR ( 'NONE', #217, 1000.000000000000000 ) ;
#73 = CARTESIAN_POINT ( 'NONE',  ( 77.20000000000000300, 0.0000000000000000000, 9.525000000000014600 ) ) ;
#74 = AXIS2_PLACEMENT_3D ( 'NONE', #313, #172, #24 ) ;
#75 = EDGE_LOOP ( 'NONE', ( #306, #10, #239, #233 ) ) ;
#76 = PRODUCT ( '03-2093', '03-2093', '', ( #36 ) ) ;
#77 = EDGE_LOOP ( 'NONE', ( #60, #240, #95, #251 ) ) ;
#78 = APPROVAL_PERSON_ORGANIZATION ( #147, #184, #8 ) ;
#79 = EDGE_CURVE ( 'NONE', #188, #213, #165, .T. ) ;
#80 = CYLINDRICAL_SURFACE ( 'NONE', #58, 9.525000000000002100 ) ;
#81 = ORIENTED_EDGE ( 'NONE', *, *, #13, .F. ) ;
#82 = DIRECTION ( 'NONE',  ( 0.0000000000000000000, 0.0000000000000000000, -1.000000000000000000 ) ) ;
#83 = DIRECTION ( 'NONE',  ( 1.000000000000000000, 1.242457427521026900E-016, -0.0000000000000000000 ) ) ;
#84 = VERTEX_POINT ( 'NONE', #117 ) ;
#85 = DIRECTION ( 'NONE',  ( 1.242457427521026900E-016, -1.000000000000000000, 0.0000000000000000000 ) ) ;
#86 = APPROVAL_STATUS ( 'not_yet_approved' ) ;
#87 = COORDINATED_UNIVERSAL_TIME_OFFSET ( 9, 0, .AHEAD. ) ;
#88 = CC_DESIGN_APPROVAL ( #69, ( #56 ) ) ;
#89 = FACE_OUTER_BOUND ( 'NONE', #121, .T. ) ;
#90 = ADVANCED_BREP_SHAPE_REPRESENTATION ( '03-2093', ( #255, #201, #254 ), #189 ) ;
#91 = ORIENTED_EDGE ( 'NONE', *, *, #64, .F. ) ;
#92 = ADVANCED_FACE ( 'NONE', ( #54 ), #288, .F. ) ;
#93 = AXIS2_PLACEMENT_3D ( 'NONE', #2, #244, #173 ) ;
#94 = DIRECTION ( 'NONE',  ( -1.000000000000000000, -0.0000000000000000000, -0.0000000000000000000 ) ) ;
#95 = ORIENTED_EDGE ( 'NONE', *, *, #13, .T. ) ;
#96 = CARTESIAN_POINT ( 'NONE',  ( -55.84999999999998000, 9.524999999999995000, 0.0000000000000000000 ) ) ;
#97 = DATE_AND_TIME ( #164, #224 ) ;
#98 = DIRECTION ( 'NONE',  ( 0.0000000000000000000, 1.000000000000000000, 0.0000000000000000000 ) ) ;
#99 = CONICAL_SURFACE ( 'NONE', #211, 9.525000000000002100, 0.7853981633974251900 ) ;
#100 = DIRECTION ( 'NONE',  ( 0.0000000000000000000, 0.0000000000000000000, 1.000000000000000000 ) ) ;
#101 = EDGE_CURVE ( 'NONE', #213, #19, #229, .T. ) ;
#102 = ORIENTED_EDGE ( 'NONE', *, *, #312, .T. ) ;
#103 = DIRECTION ( 'NONE',  ( -1.000000000000000000, -0.0000000000000000000, -0.0000000000000000000 ) ) ;
#104 = DIRECTION ( 'NONE',  ( -1.000000000000000000, -0.0000000000000000000, -0.0000000000000000000 ) ) ;
#105 = DIRECTION ( 'NONE',  ( -1.138269997360109700E-016, 1.000000000000000000, 0.0000000000000000000 ) ) ;
#106 = CARTESIAN_POINT ( 'NONE',  ( -56.14999999999999100, -6.941440114393511300E-015, 0.0000000000000000000 ) ) ;
#107 = PERSON_AND_ORGANIZATION ( #6, #59 ) ;
#108 = CIRCLE ( 'NONE', #179, 9.525000000000000400 ) ;
#109 = CC_DESIGN_PERSON_AND_ORGANIZATION_ASSIGNMENT ( #282, #180, ( #56 ) ) ;
#110 = ORIENTED_EDGE ( 'NONE', *, *, #79, .F. ) ;
#111 = PLANE ( 'NONE',  #176 ) ;
#112 =( LENGTH_UNIT ( ) NAMED_UNIT ( * ) SI_UNIT ( .MILLI., .METRE. ) );
#113 = PERSON_AND_ORGANIZATION ( #6, #59 ) ;
#114 = PERSON_AND_ORGANIZATION_ROLE ( 'creator' ) ;
#115 = CIRCLE ( 'NONE', #151, 9.225000000000001400 ) ;
#116 = EDGE_CURVE ( 'NONE', #68, #19, #303, .T. ) ;
#117 = CARTESIAN_POINT ( 'NONE',  ( 1.000000000000000200, -9.525000000000000400, 1.166476076187854000E-015 ) ) ;
#118 = DIRECTION ( 'NONE',  ( 0.0000000000000000000, 1.000000000000000000, 0.0000000000000000000 ) ) ;
#119 = DIRECTION ( 'NONE',  ( -1.000000000000000000, 0.0000000000000000000, -0.0000000000000000000 ) ) ;
#120 = COORDINATED_UNIVERSAL_TIME_OFFSET ( 9, 0, .AHEAD. ) ;
#121 = EDGE_LOOP ( 'NONE', ( #178, #260, #159, #81 ) ) ;
#122 = CC_DESIGN_PERSON_AND_ORGANIZATION_ASSIGNMENT ( #215, #35, ( #56 ) ) ;
#123 = CARTESIAN_POINT ( 'NONE',  ( -56.14999999999999900, -6.941440114393512900E-015, 0.0000000000000000000 ) ) ;
#124 = PLANE ( 'NONE',  #27 ) ;
#125 = DIRECTION ( 'NONE',  ( -1.000000000000000000, -0.0000000000000000000, -0.0000000000000000000 ) ) ;
#126 = AXIS2_PLACEMENT_3D ( 'NONE', #274, #132, #297 ) ;
#127 = DIRECTION ( 'NONE',  ( 0.0000000000000000000, 0.0000000000000000000, 1.000000000000000000 ) ) ;
#128 = APPLICATION_PROTOCOL_DEFINITION ( 'international standard', 'config_control_design', 1994, #154 ) ;
#129 = SHAPE_DEFINITION_REPRESENTATION ( #51, #90 ) ;
#130 = DIRECTION ( 'NONE',  ( 1.000000000000000000, 1.242457427521026900E-016, -0.0000000000000000000 ) ) ;
#131 = CLOSED_SHELL ( 'NONE', ( #141, #258, #286, #92 ) ) ;
#132 = DIRECTION ( 'NONE',  ( 1.000000000000000000, 1.242457427521026900E-016, -0.0000000000000000000 ) ) ;
#133 = EDGE_CURVE ( 'NONE', #188, #68, #292, .T. ) ;
#134 = CYLINDRICAL_SURFACE ( 'NONE', #142, 9.525000000000007500 ) ;
#135 = VERTEX_POINT ( 'NONE', #222 ) ;
#136 = APPROVAL_STATUS ( 'not_yet_approved' ) ;
#137 = SECURITY_CLASSIFICATION ( '', '', #205 ) ;
#138 = DATE_AND_TIME ( #199, #264 ) ;
#139 = LINE ( 'NONE', #148, #72 ) ;
#140 = ORIENTED_EDGE ( 'NONE', *, *, #116, .T. ) ;
#141 = ADVANCED_FACE ( 'NONE', ( #218 ), #277, .T. ) ;
#142 = AXIS2_PLACEMENT_3D ( 'NONE', #241, #190, #100 ) ;
#143 = CARTESIAN_POINT ( 'NONE',  ( 77.20000000000000300, 1.166476076187855600E-015, -9.525000000000014600 ) ) ;
#144 = ORIENTED_EDGE ( 'NONE', *, *, #248, .F. ) ;
#145 = AXIS2_PLACEMENT_3D ( 'NONE', #197, #30, #82 ) ;
#146 = DIRECTION ( 'NONE',  ( 0.0000000000000000000, 1.000000000000000000, 0.0000000000000000000 ) ) ;
#147 = PERSON_AND_ORGANIZATION ( #6, #59 ) ;
#148 = CARTESIAN_POINT ( 'NONE',  ( -55.84999999999998000, -9.525000000000009200, 1.166476076187854200E-015 ) ) ;
#149 = UNCERTAINTY_MEASURE_WITH_UNIT (LENGTH_MEASURE( 1.000000000000000100E-005 ), #112, 'distance_accuracy_value', 'NONE');
#150 = CIRCLE ( 'NONE', #74, 9.525000000000000400 ) ;
#151 = AXIS2_PLACEMENT_3D ( 'NONE', #311, #238, #98 ) ;
#152 = CARTESIAN_POINT ( 'NONE',  ( 0.9999999999999972200, 9.525000000000000400, 0.0000000000000000000 ) ) ;
#153 = EDGE_LOOP ( 'NONE', ( #144, #183 ) ) ;
#154 = APPLICATION_CONTEXT ( 'configuration controlled 3d designs of mechanical parts and assemblies' ) ;
#155 = ORIENTED_EDGE ( 'NONE', *, *, #47, .T. ) ;
#156 = PERSON_AND_ORGANIZATION ( #6, #59 ) ;
#157 = CC_DESIGN_PERSON_AND_ORGANIZATION_ASSIGNMENT ( #156, #300, ( #137 ) ) ;
#158 = FACE_OUTER_BOUND ( 'NONE', #287, .T. ) ;
#159 = ORIENTED_EDGE ( 'NONE', *, *, #312, .F. ) ;
#160 = ORIENTED_EDGE ( 'NONE', *, *, #230, .T. ) ;
#161 = DATE_TIME_ROLE ( 'classification_date' ) ;
#162 = CARTESIAN_POINT ( 'NONE',  ( 0.9999999999999991100, 1.592040838891558600E-016, 0.0000000000000000000 ) ) ;
#163 = AXIS2_PLACEMENT_3D ( 'NONE', #162, #195, #52 ) ;
#164 = CALENDAR_DATE ( 2023, 13, 6 ) ;
#165 = LINE ( 'NONE', #44, #225 ) ;
#166 = ORIENTED_EDGE ( 'NONE', *, *, #133, .F. ) ;
#167 = AXIS2_PLACEMENT_3D ( 'NONE', #212, #67, #146 ) ;
#168 = ADVANCED_FACE ( 'NONE', ( #158 ), #124, .T. ) ;
#169 = DATE_AND_TIME ( #227, #296 ) ;
#170 = FACE_OUTER_BOUND ( 'NONE', #278, .T. ) ;
#171 = CC_DESIGN_DATE_AND_TIME_ASSIGNMENT ( #207, #161, ( #137 ) ) ;
#172 = DIRECTION ( 'NONE',  ( -1.000000000000000000, -0.0000000000000000000, -0.0000000000000000000 ) ) ;
#173 = DIRECTION ( 'NONE',  ( -1.138269997360109400E-016, 1.000000000000000000, 0.0000000000000000000 ) ) ;
#174 =( NAMED_UNIT ( * ) SI_UNIT ( $, .STERADIAN. ) SOLID_ANGLE_UNIT ( ) );
#175 = APPROVAL_DATE_TIME ( #235, #305 ) ;
#176 = AXIS2_PLACEMENT_3D ( 'NONE', #106, #226, #85 ) ;
#177 = VECTOR ( 'NONE', #234, 1000.000000000000000 ) ;
#178 = ORIENTED_EDGE ( 'NONE', *, *, #263, .T. ) ;
#179 = AXIS2_PLACEMENT_3D ( 'NONE', #236, #245, #105 ) ;
#180 = PERSON_AND_ORGANIZATION_ROLE ( 'creator' ) ;
#181 = APPROVAL_PERSON_ORGANIZATION ( #246, #305, #253 ) ;
#182 = DIRECTION ( 'NONE',  ( 1.000000000000000000, 0.0000000000000000000, 0.0000000000000000000 ) ) ;
#183 = ORIENTED_EDGE ( 'NONE', *, *, #33, .F. ) ;
#184 = APPROVAL ( #9, 'UNSPECIFIED' ) ;
#185 = ADVANCED_FACE ( 'NONE', ( #89 ), #80, .T. ) ;
#186 = LINE ( 'NONE', #250, #249 ) ;
#187 = DESIGN_CONTEXT ( 'detailed design', #61, 'design' ) ;
#188 = VERTEX_POINT ( 'NONE', #73 ) ;
#189 =( GEOMETRIC_REPRESENTATION_CONTEXT ( 3 ) GLOBAL_UNCERTAINTY_ASSIGNED_CONTEXT ( ( #149 ) ) GLOBAL_UNIT_ASSIGNED_CONTEXT ( ( #112, #3, #174 ) ) REPRESENTATION_CONTEXT ( 'NONE', 'WORKASPACE' ) );
#190 = DIRECTION ( 'NONE',  ( -1.000000000000000000, -0.0000000000000000000, -0.0000000000000000000 ) ) ;
#191 = AXIS2_PLACEMENT_3D ( 'NONE', #17, #232, #118 ) ;
#192 = CIRCLE ( 'NONE', #126, 9.525000000000002100 ) ;
#193 = CARTESIAN_POINT ( 'NONE',  ( 0.9999999999999978900, 1.592040838891556900E-016, 0.0000000000000000000 ) ) ;
#194 = CARTESIAN_POINT ( 'NONE',  ( 77.20000000000000300, 0.0000000000000000000, 0.0000000000000000000 ) ) ;
#195 = DIRECTION ( 'NONE',  ( 1.000000000000000000, 1.242457427521026900E-016, -0.0000000000000000000 ) ) ;
#196 = ORIENTED_EDGE ( 'NONE', *, *, #283, .T. ) ;
#197 = CARTESIAN_POINT ( 'NONE',  ( 1.000000000000000900, 1.138269997360111400E-016, 0.0000000000000000000 ) ) ;
#198 = EDGE_CURVE ( 'NONE', #68, #188, #208, .T. ) ;
#199 = CALENDAR_DATE ( 2023, 13, 6 ) ;
#200 = CC_DESIGN_APPROVAL ( #184, ( #137 ) ) ;
#201 = MANIFOLD_SOLID_BREP ( 'È¸Àü4', #209 ) ;
#202 = CYLINDRICAL_SURFACE ( 'NONE', #93, 9.525000000000002100 ) ;
#203 = VERTEX_POINT ( 'NONE', #294 ) ;
#204 = ORIENTED_EDGE ( 'NONE', *, *, #101, .T. ) ;
#205 = SECURITY_CLASSIFICATION_LEVEL ( 'unclassified' ) ;
#206 = PERSON_AND_ORGANIZATION_ROLE ( 'design_owner' ) ;
#207 = DATE_AND_TIME ( #276, #22 ) ;
#208 = CIRCLE ( 'NONE', #42, 9.525000000000014600 ) ;
#209 = CLOSED_SHELL ( 'NONE', ( #66, #185, #307, #168, #210, #41 ) ) ;
#210 = ADVANCED_FACE ( 'NONE', ( #23 ), #202, .T. ) ;
#211 = AXIS2_PLACEMENT_3D ( 'NONE', #20, #271, #262 ) ;
#212 = CARTESIAN_POINT ( 'NONE',  ( -55.84999999999998000, -6.904166391567879400E-015, 0.0000000000000000000 ) ) ;
#213 = VERTEX_POINT ( 'NONE', #26 ) ;
#214 = CARTESIAN_POINT ( 'NONE',  ( 1.000000000000000400, 1.166476076187854400E-015, -9.525000000000000400 ) ) ;
#215 = PERSON_AND_ORGANIZATION ( #6, #59 ) ;
#216 = EDGE_CURVE ( 'NONE', #19, #213, #150, .T. ) ;
#217 = DIRECTION ( 'NONE',  ( 0.7071067811865640000, -0.7071067811865310300, 8.659560562354731900E-017 ) ) ;
#218 = FACE_OUTER_BOUND ( 'NONE', #261, .T. ) ;
#219 = CC_DESIGN_SECURITY_CLASSIFICATION ( #137, ( #56 ) ) ;
#220 = DIRECTION ( 'NONE',  ( -1.242457427521026900E-016, 1.000000000000000000, 0.0000000000000000000 ) ) ;
#221 = VERTEX_POINT ( 'NONE', #293 ) ;
#222 = CARTESIAN_POINT ( 'NONE',  ( 0.9999999999999981100, 9.525000000000000400, 0.0000000000000000000 ) ) ;
#223 = ORIENTED_EDGE ( 'NONE', *, *, #133, .T. ) ;
#224 = LOCAL_TIME ( 13, 57, 53.00000000000000000, #290 ) ;
#225 = VECTOR ( 'NONE', #94, 1000.000000000000000 ) ;
#226 = DIRECTION ( 'NONE',  ( -1.000000000000000000, -1.242457427521026900E-016, 0.0000000000000000000 ) ) ;
#227 = CALENDAR_DATE ( 2023, 13, 6 ) ;
#228 = APPLICATION_PROTOCOL_DEFINITION ( 'international standard', 'config_control_design', 1994, #61 ) ;
#229 = CIRCLE ( 'NONE', #243, 9.525000000000000400 ) ;
#230 = EDGE_CURVE ( 'NONE', #203, #272, #139, .T. ) ;
#231 = PRODUCT_RELATED_PRODUCT_CATEGORY ( 'detail', '', ( #76 ) ) ;
#232 = DIRECTION ( 'NONE',  ( 1.000000000000000000, 1.242457427521026900E-016, -0.0000000000000000000 ) ) ;
#233 = ORIENTED_EDGE ( 'NONE', *, *, #216, .F. ) ;
#234 = DIRECTION ( 'NONE',  ( 1.000000000000000000, 1.242457427521026900E-016, -0.0000000000000000000 ) ) ;
#235 = DATE_AND_TIME ( #301, #53 ) ;
#236 = CARTESIAN_POINT ( 'NONE',  ( 0.9999999999999991100, 1.592040838891558600E-016, 0.0000000000000000000 ) ) ;
#237 = LINE ( 'NONE', #50, #177 ) ;
#238 = DIRECTION ( 'NONE',  ( 1.000000000000000000, 1.242457427521026900E-016, -0.0000000000000000000 ) ) ;
#239 = ORIENTED_EDGE ( 'NONE', *, *, #79, .T. ) ;
#240 = ORIENTED_EDGE ( 'NONE', *, *, #64, .T. ) ;
#241 = CARTESIAN_POINT ( 'NONE',  ( 0.0000000000000000000, 0.0000000000000000000, 0.0000000000000000000 ) ) ;
#242 = CARTESIAN_POINT ( 'NONE',  ( 77.20000000000000300, 0.0000000000000000000, 0.0000000000000000000 ) ) ;
#243 = AXIS2_PLACEMENT_3D ( 'NONE', #43, #104, #270 ) ;
#244 = DIRECTION ( 'NONE',  ( 1.000000000000000000, 1.242457427521026900E-016, -0.0000000000000000000 ) ) ;
#245 = DIRECTION ( 'NONE',  ( 1.000000000000000000, 1.242457427521026900E-016, -0.0000000000000000000 ) ) ;
#246 = PERSON_AND_ORGANIZATION ( #6, #59 ) ;
#247 = ORIENTED_EDGE ( 'NONE', *, *, #216, .T. ) ;
#248 = EDGE_CURVE ( 'NONE', #221, #203, #266, .T. ) ;
#249 = VECTOR ( 'NONE', #83, 1000.000000000000000 ) ;
#250 = CARTESIAN_POINT ( 'NONE',  ( 0.9999999999999988900, -9.525000000000002100, 1.166476076187854200E-015 ) ) ;
#251 = ORIENTED_EDGE ( 'NONE', *, *, #47, .F. ) ;
#252 = ORIENTED_EDGE ( 'NONE', *, *, #248, .T. ) ;
#253 = APPROVAL_ROLE ( '' ) ;
#254 = AXIS2_PLACEMENT_3D ( 'NONE', #302, #11, #182 ) ;
#255 = MANIFOLD_SOLID_BREP ( 'È¸Àü3', #131 ) ;
#256 = FACE_OUTER_BOUND ( 'NONE', #153, .T. ) ;
#257 = AXIS2_PLACEMENT_3D ( 'NONE', #308, #119, #289 ) ;
#258 = ADVANCED_FACE ( 'NONE', ( #14 ), #134, .T. ) ;
#259 = CARTESIAN_POINT ( 'NONE',  ( 0.0000000000000000000, 1.166476076187854800E-015, -9.525000000000007500 ) ) ;
#260 = ORIENTED_EDGE ( 'NONE', *, *, #299, .T. ) ;
#261 = EDGE_LOOP ( 'NONE', ( #223, #140, #268, #110 ) ) ;
#262 = DIRECTION ( 'NONE',  ( 0.0000000000000000000, 1.000000000000000000, 0.0000000000000000000 ) ) ;
#263 = EDGE_CURVE ( 'NONE', #25, #272, #192, .T. ) ;
#264 = LOCAL_TIME ( 13, 57, 53.00000000000000000, #12 ) ;
#265 = CARTESIAN_POINT ( 'NONE',  ( -55.84999999999998000, 9.524999999999995000, 0.0000000000000000000 ) ) ;
#266 = CIRCLE ( 'NONE', #295, 9.225000000000001400 ) ;
#267 = DIRECTION ( 'NONE',  ( 0.0000000000000000000, 0.0000000000000000000, 1.000000000000000000 ) ) ;
#268 = ORIENTED_EDGE ( 'NONE', *, *, #101, .F. ) ;
#269 = DIRECTION ( 'NONE',  ( 0.0000000000000000000, 0.0000000000000000000, 1.000000000000000000 ) ) ;
#270 = DIRECTION ( 'NONE',  ( 0.0000000000000000000, 0.0000000000000000000, 1.000000000000000000 ) ) ;
#271 = DIRECTION ( 'NONE',  ( 1.000000000000000000, 1.242457427521026900E-016, -0.0000000000000000000 ) ) ;
#272 = VERTEX_POINT ( 'NONE', #38 ) ;
#273 = PLANE ( 'NONE',  #145 ) ;
#274 = CARTESIAN_POINT ( 'NONE',  ( -55.84999999999998000, -6.904166391567879400E-015, 0.0000000000000000000 ) ) ;
#275 = CC_DESIGN_PERSON_AND_ORGANIZATION_ASSIGNMENT ( #309, #206, ( #76 ) ) ;
#276 = CALENDAR_DATE ( 2023, 13, 6 ) ;
#277 = CYLINDRICAL_SURFACE ( 'NONE', #7, 9.525000000000007500 ) ;
#278 = EDGE_LOOP ( 'NONE', ( #252, #160, #4, #15 ) ) ;
#279 = AXIS2_PLACEMENT_3D ( 'NONE', #194, #49, #269 ) ;
#280 = ORIENTED_EDGE ( 'NONE', *, *, #198, .F. ) ;
#281 = DATE_TIME_ROLE ( 'creation_date' ) ;
#282 = PERSON_AND_ORGANIZATION ( #6, #59 ) ;
#283 = EDGE_CURVE ( 'NONE', #221, #25, #65, .T. ) ;
#284 = VECTOR ( 'NONE', #16, 1000.000000000000000 ) ;
#285 = EDGE_LOOP ( 'NONE', ( #62, #34, #196, #91 ) ) ;
#286 = ADVANCED_FACE ( 'NONE', ( #32 ), #273, .F. ) ;
#287 = EDGE_LOOP ( 'NONE', ( #102, #155 ) ) ;
#288 = PLANE ( 'NONE',  #257 ) ;
#289 = DIRECTION ( 'NONE',  ( -0.0000000000000000000, 0.0000000000000000000, 1.000000000000000000 ) ) ;
#290 = COORDINATED_UNIVERSAL_TIME_OFFSET ( 9, 0, .AHEAD. ) ;
#291 = PRODUCT_DEFINITION ( 'UNKNOWN', '', #56, #187 ) ;
#292 = CIRCLE ( 'NONE', #279, 9.525000000000014600 ) ;
#293 = CARTESIAN_POINT ( 'NONE',  ( -56.14999999999999900, 9.224999999999994300, 0.0000000000000000000 ) ) ;
#294 = CARTESIAN_POINT ( 'NONE',  ( -56.14999999999999900, -9.225000000000006800, 1.148106374200644200E-015 ) ) ;
#295 = AXIS2_PLACEMENT_3D ( 'NONE', #123, #130, #63 ) ;
#296 = LOCAL_TIME ( 13, 57, 53.00000000000000000, #45 ) ;
#297 = DIRECTION ( 'NONE',  ( 0.0000000000000000000, 1.000000000000000000, 0.0000000000000000000 ) ) ;
#298 = CIRCLE ( 'NONE', #191, 9.525000000000002100 ) ;
#299 = EDGE_CURVE ( 'NONE', #272, #84, #186, .T. ) ;
#300 = PERSON_AND_ORGANIZATION_ROLE ( 'classification_officer' ) ;
#301 = CALENDAR_DATE ( 2023, 13, 6 ) ;
#302 = CARTESIAN_POINT ( 'NONE',  ( 0.0000000000000000000, 0.0000000000000000000, 0.0000000000000000000 ) ) ;
#303 = LINE ( 'NONE', #259, #284 ) ;
#304 = APPROVAL_ROLE ( '' ) ;
#305 = APPROVAL ( #86, 'UNSPECIFIED' ) ;
#306 = ORIENTED_EDGE ( 'NONE', *, *, #116, .F. ) ;
#307 = ADVANCED_FACE ( 'NONE', ( #256 ), #111, .T. ) ;
#308 = CARTESIAN_POINT ( 'NONE',  ( 77.20000000000000300, 0.0000000000000000000, 0.0000000000000000000 ) ) ;
#309 = PERSON_AND_ORGANIZATION ( #6, #59 ) ;
#310 = EDGE_LOOP ( 'NONE', ( #166, #280 ) ) ;
#311 = CARTESIAN_POINT ( 'NONE',  ( -56.14999999999999900, -6.941440114393512900E-015, 0.0000000000000000000 ) ) ;
#312 = EDGE_CURVE ( 'NONE', #135, #84, #57, .T. ) ;
#313 = CARTESIAN_POINT ( 'NONE',  ( 1.000000000000000400, 0.0000000000000000000, 0.0000000000000000000 ) ) ;
ENDSEC;
END-ISO-10303-21;
