ISO-10303-21;
HEADER;
FILE_DESCRIPTION (( 'STEP AP203' ),
    '1' );
FILE_NAME ('03-2094.STEP',
    '2023-06-13T04:57:34',
    ( 'USER' ),
    ( 'Hewlett-Packard Company' ),
    'SwSTEP 2.0',
    'SolidWorks 2014',
    '' );
FILE_SCHEMA (( 'CONFIG_CONTROL_DESIGN' ));
ENDSEC;

DATA;
#1 = DIRECTION ( 'NONE',  ( -1.000000000000000000, -0.0000000000000000000, -0.0000000000000000000 ) ) ;
#2 = CARTESIAN_POINT ( 'NONE',  ( 0.9999999999999988900, -12.69999999999999900, 1.555301434917138400E-015 ) ) ;
#3 = VECTOR ( 'NONE', #204, 1000.000000000000000 ) ;
#4 = ORIENTED_EDGE ( 'NONE', *, *, #96, .T. ) ;
#5 = AXIS2_PLACEMENT_3D ( 'NONE', #215, #36, #188 ) ;
#6 = DIRECTION ( 'NONE',  ( 1.000000000000000000, 1.237769630959559300E-016, -0.0000000000000000000 ) ) ;
#7 = ADVANCED_FACE ( 'NONE', ( #117 ), #48, .T. ) ;
#8 = CALENDAR_DATE ( 2023, 13, 6 ) ;
#9 = APPROVAL_STATUS ( 'not_yet_approved' ) ;
#10 = APPROVAL_STATUS ( 'not_yet_approved' ) ;
#11 = APPLICATION_CONTEXT ( 'configuration controlled 3d designs of mechanical parts and assemblies' ) ;
#12 = EDGE_CURVE ( 'NONE', #73, #163, #47, .T. ) ;
#13 = FACE_OUTER_BOUND ( 'NONE', #266, .T. ) ;
#14 = VERTEX_POINT ( 'NONE', #56 ) ;
#15 = DIRECTION ( 'NONE',  ( -1.195183497228115300E-016, 1.000000000000000000, 0.0000000000000000000 ) ) ;
#16 = PERSON_AND_ORGANIZATION ( #25, #85 ) ;
#17 = PRODUCT_DEFINITION_FORMATION_WITH_SPECIFIED_SOURCE ( 'ANY', '', #100, .NOT_KNOWN. ) ;
#18 = CIRCLE ( 'NONE', #176, 12.69999999999999900 ) ;
#19 = ADVANCED_BREP_SHAPE_REPRESENTATION ( '03-2094', ( #140, #79, #221 ), #108 ) ;
#20 = ORIENTED_EDGE ( 'NONE', *, *, #44, .F. ) ;
#21 = CIRCLE ( 'NONE', #81, 12.69999999999999900 ) ;
#22 = AXIS2_PLACEMENT_3D ( 'NONE', #246, #50, #222 ) ;
#23 = CARTESIAN_POINT ( 'NONE',  ( 0.9999999999999974500, 1.592040838891556400E-016, 0.0000000000000000000 ) ) ;
#24 = DIRECTION ( 'NONE',  ( 0.7071067811865230400, -0.7071067811865721100, 8.659560562355234800E-017 ) ) ;
#25 = PERSON ( 'UNSPECIFIED', 'UNSPECIFIED', 'UNSPECIFIED', ('UNSPECIFIED'), ('UNSPECIFIED'), ('UNSPECIFIED') ) ;
#26 = ORIENTED_EDGE ( 'NONE', *, *, #115, .F. ) ;
#27 = PLANE ( 'NONE',  #22 ) ;
#28 = CARTESIAN_POINT ( 'NONE',  ( -87.89999999999999100, -1.084456793534132700E-014, 0.0000000000000000000 ) ) ;
#29 = EDGE_CURVE ( 'NONE', #304, #163, #281, .T. ) ;
#30 = ORIENTED_EDGE ( 'NONE', *, *, #228, .T. ) ;
#31 = DIRECTION ( 'NONE',  ( 0.0000000000000000000, 1.000000000000000000, 0.0000000000000000000 ) ) ;
#32 = APPROVAL ( #10, 'UNSPECIFIED' ) ;
#33 = PERSON_AND_ORGANIZATION_ROLE ( 'creator' ) ;
#34 = COORDINATED_UNIVERSAL_TIME_OFFSET ( 9, 0, .AHEAD. ) ;
#35 = DIRECTION ( 'NONE',  ( 1.000000000000000000, 0.0000000000000000000, 0.0000000000000000000 ) ) ;
#36 = DIRECTION ( 'NONE',  ( 1.000000000000000000, 1.237769630959559300E-016, -0.0000000000000000000 ) ) ;
#37 = ORIENTED_EDGE ( 'NONE', *, *, #82, .T. ) ;
#38 = VECTOR ( 'NONE', #153, 1000.000000000000000 ) ;
#39 = CYLINDRICAL_SURFACE ( 'NONE', #125, 12.69999999999999900 ) ;
#40 = EDGE_LOOP ( 'NONE', ( #83, #179, #296, #20 ) ) ;
#41 = LOCAL_TIME ( 13, 57, 34.00000000000000000, #111 ) ;
#42 = EDGE_LOOP ( 'NONE', ( #174, #306, #158, #310 ) ) ;
#43 = EDGE_CURVE ( 'NONE', #128, #304, #146, .T. ) ;
#44 = EDGE_CURVE ( 'NONE', #163, #304, #21, .T. ) ;
#45 = DIRECTION ( 'NONE',  ( -1.000000000000000000, -0.0000000000000000000, -0.0000000000000000000 ) ) ;
#46 = DIRECTION ( 'NONE',  ( -1.195183497228115300E-016, 1.000000000000000000, 0.0000000000000000000 ) ) ;
#47 = LINE ( 'NONE', #198, #38 ) ;
#48 = CYLINDRICAL_SURFACE ( 'NONE', #114, 12.70000000000000600 ) ;
#49 = CC_DESIGN_APPROVAL ( #32, ( #17 ) ) ;
#50 = DIRECTION ( 'NONE',  ( -1.000000000000000000, 0.0000000000000000000, -0.0000000000000000000 ) ) ;
#51 = CARTESIAN_POINT ( 'NONE',  ( -87.60000000000000900, 12.69999999999998900, 0.0000000000000000000 ) ) ;
#52 = APPROVAL_DATE_TIME ( #119, #32 ) ;
#53 = CARTESIAN_POINT ( 'NONE',  ( -87.60000000000000900, -1.080743484641254300E-014, 0.0000000000000000000 ) ) ;
#54 = ORIENTED_EDGE ( 'NONE', *, *, #65, .T. ) ;
#55 = CARTESIAN_POINT ( 'NONE',  ( 0.0000000000000000000, 0.0000000000000000000, 12.70000000000000600 ) ) ;
#56 = CARTESIAN_POINT ( 'NONE',  ( 0.9999999999999988900, 1.555301434917138800E-015, -12.69999999999999900 ) ) ;
#57 = CONICAL_SURFACE ( 'NONE', #260, 12.69999999999999900, 0.7853981633974831400 ) ;
#58 = CARTESIAN_POINT ( 'NONE',  ( 0.0000000000000000000, 0.0000000000000000000, 0.0000000000000000000 ) ) ;
#59 = AXIS2_PLACEMENT_3D ( 'NONE', #208, #6, #31 ) ;
#60 = EDGE_LOOP ( 'NONE', ( #191, #54, #30, #133 ) ) ;
#61 = DIRECTION ( 'NONE',  ( -1.195183497228115300E-016, 1.000000000000000000, 0.0000000000000000000 ) ) ;
#62 = ADVANCED_FACE ( 'NONE', ( #248 ), #80, .T. ) ;
#63 = APPROVAL_PERSON_ORGANIZATION ( #127, #32, #185 ) ;
#64 = PERSON_AND_ORGANIZATION_ROLE ( 'design_owner' ) ;
#65 = EDGE_CURVE ( 'NONE', #216, #261, #272, .T. ) ;
#66 = EDGE_CURVE ( 'NONE', #73, #128, #139, .T. ) ;
#67 = CIRCLE ( 'NONE', #197, 12.70000000000001400 ) ;
#68 = EDGE_LOOP ( 'NONE', ( #232, #94, #200, #194 ) ) ;
#69 = DIRECTION ( 'NONE',  ( -1.195183497228115300E-016, 1.000000000000000000, 0.0000000000000000000 ) ) ;
#70 = CC_DESIGN_PERSON_AND_ORGANIZATION_ASSIGNMENT ( #302, #33, ( #17 ) ) ;
#71 = COORDINATED_UNIVERSAL_TIME_OFFSET ( 9, 0, .AHEAD. ) ;
#72 = CYLINDRICAL_SURFACE ( 'NONE', #227, 12.69999999999999900 ) ;
#73 = VERTEX_POINT ( 'NONE', #121 ) ;
#74 = AXIS2_PLACEMENT_3D ( 'NONE', #278, #106, #251 ) ;
#75 = DIRECTION ( 'NONE',  ( 1.000000000000000000, 1.237769630959559300E-016, -0.0000000000000000000 ) ) ;
#76 = LOCAL_TIME ( 13, 57, 34.00000000000000000, #145 ) ;
#77 = CARTESIAN_POINT ( 'NONE',  ( -87.60000000000000900, -12.70000000000001000, 1.555301434917138400E-015 ) ) ;
#78 = DIRECTION ( 'NONE',  ( -1.000000000000000000, -0.0000000000000000000, -0.0000000000000000000 ) ) ;
#79 = MANIFOLD_SOLID_BREP ( 'È¸Àü4', #187 ) ;
#80 = CONICAL_SURFACE ( 'NONE', #130, 12.69999999999999900, 0.7853981633974831400 ) ;
#81 = AXIS2_PLACEMENT_3D ( 'NONE', #308, #169, #69 ) ;
#82 = EDGE_CURVE ( 'NONE', #124, #14, #18, .T. ) ;
#83 = ORIENTED_EDGE ( 'NONE', *, *, #12, .F. ) ;
#84 = DIRECTION ( 'NONE',  ( 1.000000000000000000, 1.237769630959559300E-016, -0.0000000000000000000 ) ) ;
#85 = ORGANIZATION ( 'UNSPECIFIED', 'UNSPECIFIED', '' ) ;
#86 = ADVANCED_FACE ( 'NONE', ( #213 ), #72, .T. ) ;
#87 = CC_DESIGN_PERSON_AND_ORGANIZATION_ASSIGNMENT ( #240, #137, ( #17 ) ) ;
#88 = CARTESIAN_POINT ( 'NONE',  ( -87.89999999999999100, 12.39999999999998800, 0.0000000000000000000 ) ) ;
#89 = CARTESIAN_POINT ( 'NONE',  ( 77.20000000000000300, 1.555301434917140000E-015, -12.70000000000001200 ) ) ;
#90 = APPLICATION_PROTOCOL_DEFINITION ( 'international standard', 'config_control_design', 1994, #236 ) ;
#91 = ORIENTED_EDGE ( 'NONE', *, *, #217, .F. ) ;
#92 = EDGE_LOOP ( 'NONE', ( #161, #237 ) ) ;
#93 = DIRECTION ( 'NONE',  ( 1.000000000000000000, 1.237769630959559300E-016, -0.0000000000000000000 ) ) ;
#94 = ORIENTED_EDGE ( 'NONE', *, *, #12, .T. ) ;
#95 = AXIS2_PLACEMENT_3D ( 'NONE', #23, #201, #46 ) ;
#96 = EDGE_CURVE ( 'NONE', #241, #124, #205, .T. ) ;
#97 = DIRECTION ( 'NONE',  ( 1.000000000000000000, 1.237769630959559300E-016, -0.0000000000000000000 ) ) ;
#98 = CARTESIAN_POINT ( 'NONE',  ( 0.9999999999999963400, 12.69999999999999900, 0.0000000000000000000 ) ) ;
#99 = SECURITY_CLASSIFICATION ( '', '', #301 ) ;
#100 = PRODUCT ( '03-2094', '03-2094', '', ( #214 ) ) ;
#101 = APPROVAL_PERSON_ORGANIZATION ( #167, #154, #182 ) ;
#102 = DIRECTION ( 'NONE',  ( -1.000000000000000000, -1.237769630959559300E-016, 0.0000000000000000000 ) ) ;
#103 = DIRECTION ( 'NONE',  ( 0.0000000000000000000, 0.0000000000000000000, 1.000000000000000000 ) ) ;
#104 = EDGE_LOOP ( 'NONE', ( #211, #168 ) ) ;
#105 = CARTESIAN_POINT ( 'NONE',  ( -87.60000000000000900, -1.080743484641254300E-014, 0.0000000000000000000 ) ) ;
#106 = DIRECTION ( 'NONE',  ( 1.000000000000000000, 1.237769630959559300E-016, -0.0000000000000000000 ) ) ;
#107 = FACE_OUTER_BOUND ( 'NONE', #219, .T. ) ;
#108 =( GEOMETRIC_REPRESENTATION_CONTEXT ( 3 ) GLOBAL_UNCERTAINTY_ASSIGNED_CONTEXT ( ( #195 ) ) GLOBAL_UNIT_ASSIGNED_CONTEXT ( ( #206, #177, #275 ) ) REPRESENTATION_CONTEXT ( 'NONE', 'WORKASPACE' ) );
#109 = DIRECTION ( 'NONE',  ( 0.7071067811865228100, 0.7071067811865723300, 0.0000000000000000000 ) ) ;
#110 = ADVANCED_FACE ( 'NONE', ( #13 ), #173, .T. ) ;
#111 = COORDINATED_UNIVERSAL_TIME_OFFSET ( 9, 0, .AHEAD. ) ;
#112 = APPROVAL_ROLE ( '' ) ;
#113 = ORIENTED_EDGE ( 'NONE', *, *, #178, .T. ) ;
#114 = AXIS2_PLACEMENT_3D ( 'NONE', #291, #45, #218 ) ;
#115 = EDGE_CURVE ( 'NONE', #284, #14, #259, .T. ) ;
#116 = LINE ( 'NONE', #280, #298 ) ;
#117 = FACE_OUTER_BOUND ( 'NONE', #42, .T. ) ;
#118 = CC_DESIGN_PERSON_AND_ORGANIZATION_ASSIGNMENT ( #171, #162, ( #99 ) ) ;
#119 = DATE_AND_TIME ( #184, #245 ) ;
#120 = CLOSED_SHELL ( 'NONE', ( #7, #279, #300, #181 ) ) ;
#121 = CARTESIAN_POINT ( 'NONE',  ( -87.60000000000000900, -12.70000000000001000, 1.555301434917139200E-015 ) ) ;
#122 = CIRCLE ( 'NONE', #288, 12.69999999999999900 ) ;
#123 = CARTESIAN_POINT ( 'NONE',  ( -87.60000000000000900, -1.080743484641254300E-014, 0.0000000000000000000 ) ) ;
#124 = VERTEX_POINT ( 'NONE', #293 ) ;
#125 = AXIS2_PLACEMENT_3D ( 'NONE', #231, #84, #61 ) ;
#126 = CARTESIAN_POINT ( 'NONE',  ( 0.9999999999999988900, 0.0000000000000000000, 0.0000000000000000000 ) ) ;
#127 = PERSON_AND_ORGANIZATION ( #25, #85 ) ;
#128 = VERTEX_POINT ( 'NONE', #51 ) ;
#129 = CARTESIAN_POINT ( 'NONE',  ( 0.0000000000000000000, 1.555301434917139200E-015, -12.70000000000000600 ) ) ;
#130 = AXIS2_PLACEMENT_3D ( 'NONE', #105, #75, #220 ) ;
#131 = FACE_OUTER_BOUND ( 'NONE', #60, .T. ) ;
#132 = EDGE_CURVE ( 'NONE', #241, #284, #67, .T. ) ;
#133 = ORIENTED_EDGE ( 'NONE', *, *, #66, .F. ) ;
#134 = ADVANCED_FACE ( 'NONE', ( #131 ), #57, .T. ) ;
#135 = PERSON_AND_ORGANIZATION ( #25, #85 ) ;
#136 = CC_DESIGN_DATE_AND_TIME_ASSIGNMENT ( #235, #160, ( #99 ) ) ;
#137 = PERSON_AND_ORGANIZATION_ROLE ( 'design_supplier' ) ;
#138 = DIRECTION ( 'NONE',  ( 1.000000000000000000, 0.0000000000000000000, 0.0000000000000000000 ) ) ;
#139 = CIRCLE ( 'NONE', #164, 12.69999999999999900 ) ;
#140 = MANIFOLD_SOLID_BREP ( 'È¸Àü3', #120 ) ;
#141 = DATE_TIME_ROLE ( 'creation_date' ) ;
#142 = FACE_OUTER_BOUND ( 'NONE', #92, .T. ) ;
#143 = ORIENTED_EDGE ( 'NONE', *, *, #65, .F. ) ;
#144 = AXIS2_PLACEMENT_3D ( 'NONE', #180, #255, #212 ) ;
#145 = COORDINATED_UNIVERSAL_TIME_OFFSET ( 9, 0, .AHEAD. ) ;
#146 = LINE ( 'NONE', #98, #156 ) ;
#147 = AXIS2_PLACEMENT_3D ( 'NONE', #238, #93, #264 ) ;
#148 = CARTESIAN_POINT ( 'NONE',  ( 0.9999999999999978900, 1.592040838891556900E-016, 0.0000000000000000000 ) ) ;
#149 = EDGE_LOOP ( 'NONE', ( #244, #113, #91, #252 ) ) ;
#150 = EDGE_CURVE ( 'NONE', #284, #241, #190, .T. ) ;
#151 = DIRECTION ( 'NONE',  ( 0.0000000000000000000, 1.000000000000000000, 0.0000000000000000000 ) ) ;
#152 = SHAPE_DEFINITION_REPRESENTATION ( #189, #19 ) ;
#153 = DIRECTION ( 'NONE',  ( 1.000000000000000000, 1.237769630959559300E-016, -0.0000000000000000000 ) ) ;
#154 = APPROVAL ( #9, 'UNSPECIFIED' ) ;
#155 = DIRECTION ( 'NONE',  ( 0.0000000000000000000, 0.0000000000000000000, 1.000000000000000000 ) ) ;
#156 = VECTOR ( 'NONE', #268, 1000.000000000000000 ) ;
#157 = CARTESIAN_POINT ( 'NONE',  ( 77.20000000000000300, 0.0000000000000000000, 0.0000000000000000000 ) ) ;
#158 = ORIENTED_EDGE ( 'NONE', *, *, #82, .F. ) ;
#159 = AXIS2_PLACEMENT_3D ( 'NONE', #234, #138, #303 ) ;
#160 = DATE_TIME_ROLE ( 'classification_date' ) ;
#161 = ORIENTED_EDGE ( 'NONE', *, *, #132, .F. ) ;
#162 = PERSON_AND_ORGANIZATION_ROLE ( 'classification_officer' ) ;
#163 = VERTEX_POINT ( 'NONE', #2 ) ;
#164 = AXIS2_PLACEMENT_3D ( 'NONE', #123, #289, #151 ) ;
#165 = EDGE_CURVE ( 'NONE', #14, #124, #122, .T. ) ;
#166 = CC_DESIGN_APPROVAL ( #154, ( #99 ) ) ;
#167 = PERSON_AND_ORGANIZATION ( #25, #85 ) ;
#168 = ORIENTED_EDGE ( 'NONE', *, *, #44, .T. ) ;
#169 = DIRECTION ( 'NONE',  ( 1.000000000000000000, 1.237769630959559300E-016, -0.0000000000000000000 ) ) ;
#170 = FACE_OUTER_BOUND ( 'NONE', #68, .T. ) ;
#171 = PERSON_AND_ORGANIZATION ( #25, #85 ) ;
#172 = DIRECTION ( 'NONE',  ( 0.0000000000000000000, 0.0000000000000000000, 1.000000000000000000 ) ) ;
#173 = PLANE ( 'NONE',  #242 ) ;
#174 = ORIENTED_EDGE ( 'NONE', *, *, #132, .T. ) ;
#175 = APPROVAL_DATE_TIME ( #311, #154 ) ;
#176 = AXIS2_PLACEMENT_3D ( 'NONE', #192, #249, #103 ) ;
#177 =( NAMED_UNIT ( * ) PLANE_ANGLE_UNIT ( ) SI_UNIT ( $, .RADIAN. ) );
#178 = EDGE_CURVE ( 'NONE', #216, #73, #250, .T. ) ;
#179 = ORIENTED_EDGE ( 'NONE', *, *, #66, .T. ) ;
#180 = CARTESIAN_POINT ( 'NONE',  ( 0.0000000000000000000, 0.0000000000000000000, 0.0000000000000000000 ) ) ;
#181 = ADVANCED_FACE ( 'NONE', ( #142 ), #27, .F. ) ;
#182 = APPROVAL_ROLE ( '' ) ;
#183 = CC_DESIGN_SECURITY_CLASSIFICATION ( #99, ( #17 ) ) ;
#184 = CALENDAR_DATE ( 2023, 13, 6 ) ;
#185 = APPROVAL_ROLE ( '' ) ;
#186 = DIRECTION ( 'NONE',  ( 0.0000000000000000000, 0.0000000000000000000, 1.000000000000000000 ) ) ;
#187 = CLOSED_SHELL ( 'NONE', ( #62, #230, #110, #210, #86, #134 ) ) ;
#188 = DIRECTION ( 'NONE',  ( 0.0000000000000000000, 1.000000000000000000, 0.0000000000000000000 ) ) ;
#189 = PRODUCT_DEFINITION_SHAPE ( 'NONE', 'NONE',  #253 ) ;
#190 = CIRCLE ( 'NONE', #277, 12.70000000000001400 ) ;
#191 = ORIENTED_EDGE ( 'NONE', *, *, #178, .F. ) ;
#192 = CARTESIAN_POINT ( 'NONE',  ( 0.9999999999999988900, 0.0000000000000000000, 0.0000000000000000000 ) ) ;
#193 = DATE_AND_TIME ( #254, #313 ) ;
#194 = ORIENTED_EDGE ( 'NONE', *, *, #43, .F. ) ;
#195 = UNCERTAINTY_MEASURE_WITH_UNIT (LENGTH_MEASURE( 1.000000000000000100E-005 ), #206, 'distance_accuracy_value', 'NONE');
#196 = VECTOR ( 'NONE', #24, 999.9999999999998900 ) ;
#197 = AXIS2_PLACEMENT_3D ( 'NONE', #224, #78, #247 ) ;
#198 = CARTESIAN_POINT ( 'NONE',  ( 0.9999999999999993300, -12.69999999999999900, 1.555301434917138400E-015 ) ) ;
#199 = EDGE_CURVE ( 'NONE', #261, #216, #309, .T. ) ;
#200 = ORIENTED_EDGE ( 'NONE', *, *, #29, .F. ) ;
#201 = DIRECTION ( 'NONE',  ( 1.000000000000000000, 1.237769630959559300E-016, -0.0000000000000000000 ) ) ;
#202 = APPROVAL_DATE_TIME ( #262, #267 ) ;
#203 = PRODUCT_RELATED_PRODUCT_CATEGORY ( 'detail', '', ( #100 ) ) ;
#204 = DIRECTION ( 'NONE',  ( -1.000000000000000000, -0.0000000000000000000, -0.0000000000000000000 ) ) ;
#205 = LINE ( 'NONE', #55, #265 ) ;
#206 =( LENGTH_UNIT ( ) NAMED_UNIT ( * ) SI_UNIT ( .MILLI., .METRE. ) );
#207 = ORIENTED_EDGE ( 'NONE', *, *, #165, .T. ) ;
#208 = CARTESIAN_POINT ( 'NONE',  ( -87.60000000000000900, -1.080743484641254300E-014, 0.0000000000000000000 ) ) ;
#209 = APPROVAL_PERSON_ORGANIZATION ( #269, #267, #112 ) ;
#210 = ADVANCED_FACE ( 'NONE', ( #243 ), #295, .T. ) ;
#211 = ORIENTED_EDGE ( 'NONE', *, *, #29, .T. ) ;
#212 = DIRECTION ( 'NONE',  ( 0.0000000000000000000, 0.0000000000000000000, 1.000000000000000000 ) ) ;
#213 = FACE_OUTER_BOUND ( 'NONE', #40, .T. ) ;
#214 = MECHANICAL_CONTEXT ( 'NONE', #11, 'mechanical' ) ;
#215 = CARTESIAN_POINT ( 'NONE',  ( -87.89999999999999100, -1.084456793534132600E-014, 0.0000000000000000000 ) ) ;
#216 = VERTEX_POINT ( 'NONE', #270 ) ;
#217 = EDGE_CURVE ( 'NONE', #128, #73, #305, .T. ) ;
#218 = DIRECTION ( 'NONE',  ( 0.0000000000000000000, 0.0000000000000000000, 1.000000000000000000 ) ) ;
#219 = EDGE_LOOP ( 'NONE', ( #26, #226, #4, #257 ) ) ;
#220 = DIRECTION ( 'NONE',  ( 0.0000000000000000000, 1.000000000000000000, 0.0000000000000000000 ) ) ;
#221 = AXIS2_PLACEMENT_3D ( 'NONE', #58, #186, #35 ) ;
#222 = DIRECTION ( 'NONE',  ( -0.0000000000000000000, 0.0000000000000000000, 1.000000000000000000 ) ) ;
#223 = DIRECTION ( 'NONE',  ( 0.0000000000000000000, 1.000000000000000000, 0.0000000000000000000 ) ) ;
#224 = CARTESIAN_POINT ( 'NONE',  ( 77.20000000000000300, 0.0000000000000000000, 0.0000000000000000000 ) ) ;
#225 = CALENDAR_DATE ( 2023, 13, 6 ) ;
#226 = ORIENTED_EDGE ( 'NONE', *, *, #150, .T. ) ;
#227 = AXIS2_PLACEMENT_3D ( 'NONE', #148, #97, #15 ) ;
#228 = EDGE_CURVE ( 'NONE', #261, #128, #116, .T. ) ;
#229 = CYLINDRICAL_SURFACE ( 'NONE', #144, 12.70000000000000600 ) ;
#230 = ADVANCED_FACE ( 'NONE', ( #170 ), #39, .T. ) ;
#231 = CARTESIAN_POINT ( 'NONE',  ( 0.9999999999999978900, 1.592040838891556900E-016, 0.0000000000000000000 ) ) ;
#232 = ORIENTED_EDGE ( 'NONE', *, *, #217, .T. ) ;
#233 = CARTESIAN_POINT ( 'NONE',  ( 77.20000000000000300, 0.0000000000000000000, 12.70000000000001400 ) ) ;
#234 = CARTESIAN_POINT ( 'NONE',  ( 1.000000000000000200, 2.048885995248200400E-016, 0.0000000000000000000 ) ) ;
#235 = DATE_AND_TIME ( #294, #41 ) ;
#236 = APPLICATION_CONTEXT ( 'configuration controlled 3d designs of mechanical parts and assemblies' ) ;
#237 = ORIENTED_EDGE ( 'NONE', *, *, #150, .F. ) ;
#238 = CARTESIAN_POINT ( 'NONE',  ( -87.89999999999999100, -1.084456793534132600E-014, 0.0000000000000000000 ) ) ;
#239 = CC_DESIGN_PERSON_AND_ORGANIZATION_ASSIGNMENT ( #16, #64, ( #100 ) ) ;
#240 = PERSON_AND_ORGANIZATION ( #25, #85 ) ;
#241 = VERTEX_POINT ( 'NONE', #233 ) ;
#242 = AXIS2_PLACEMENT_3D ( 'NONE', #28, #102, #273 ) ;
#243 = FACE_OUTER_BOUND ( 'NONE', #104, .T. ) ;
#244 = ORIENTED_EDGE ( 'NONE', *, *, #199, .T. ) ;
#245 = LOCAL_TIME ( 13, 57, 34.00000000000000000, #307 ) ;
#246 = CARTESIAN_POINT ( 'NONE',  ( 77.20000000000000300, 0.0000000000000000000, 0.0000000000000000000 ) ) ;
#247 = DIRECTION ( 'NONE',  ( 0.0000000000000000000, 0.0000000000000000000, 1.000000000000000000 ) ) ;
#248 = FACE_OUTER_BOUND ( 'NONE', #149, .T. ) ;
#249 = DIRECTION ( 'NONE',  ( -1.000000000000000000, -0.0000000000000000000, -0.0000000000000000000 ) ) ;
#250 = LINE ( 'NONE', #77, #196 ) ;
#251 = DIRECTION ( 'NONE',  ( -1.237769630959559300E-016, 1.000000000000000000, 0.0000000000000000000 ) ) ;
#252 = ORIENTED_EDGE ( 'NONE', *, *, #228, .F. ) ;
#253 = PRODUCT_DEFINITION ( 'UNKNOWN', '', #17, #263 ) ;
#254 = CALENDAR_DATE ( 2023, 13, 6 ) ;
#255 = DIRECTION ( 'NONE',  ( -1.000000000000000000, -0.0000000000000000000, -0.0000000000000000000 ) ) ;
#256 = CARTESIAN_POINT ( 'NONE',  ( 0.9999999999999958900, 12.69999999999999900, 0.0000000000000000000 ) ) ;
#257 = ORIENTED_EDGE ( 'NONE', *, *, #165, .F. ) ;
#258 = APPROVAL_STATUS ( 'not_yet_approved' ) ;
#259 = LINE ( 'NONE', #129, #3 ) ;
#260 = AXIS2_PLACEMENT_3D ( 'NONE', #53, #271, #223 ) ;
#261 = VERTEX_POINT ( 'NONE', #88 ) ;
#262 = DATE_AND_TIME ( #8, #76 ) ;
#263 = DESIGN_CONTEXT ( 'detailed design', #236, 'design' ) ;
#264 = DIRECTION ( 'NONE',  ( 0.0000000000000000000, 1.000000000000000000, 0.0000000000000000000 ) ) ;
#265 = VECTOR ( 'NONE', #274, 1000.000000000000000 ) ;
#266 = EDGE_LOOP ( 'NONE', ( #287, #143 ) ) ;
#267 = APPROVAL ( #258, 'UNSPECIFIED' ) ;
#268 = DIRECTION ( 'NONE',  ( 1.000000000000000000, 1.237769630959559300E-016, -0.0000000000000000000 ) ) ;
#269 = PERSON_AND_ORGANIZATION ( #25, #85 ) ;
#270 = CARTESIAN_POINT ( 'NONE',  ( -87.89999999999999100, -12.40000000000000700, 1.536931732929928000E-015 ) ) ;
#271 = DIRECTION ( 'NONE',  ( 1.000000000000000000, 1.237769630959559300E-016, -0.0000000000000000000 ) ) ;
#272 = CIRCLE ( 'NONE', #147, 12.39999999999999900 ) ;
#273 = DIRECTION ( 'NONE',  ( 1.237769630959559300E-016, -1.000000000000000000, 0.0000000000000000000 ) ) ;
#274 = DIRECTION ( 'NONE',  ( -1.000000000000000000, -0.0000000000000000000, -0.0000000000000000000 ) ) ;
#275 =( NAMED_UNIT ( * ) SI_UNIT ( $, .STERADIAN. ) SOLID_ANGLE_UNIT ( ) );
#276 = EDGE_LOOP ( 'NONE', ( #37, #207 ) ) ;
#277 = AXIS2_PLACEMENT_3D ( 'NONE', #157, #1, #172 ) ;
#278 = CARTESIAN_POINT ( 'NONE',  ( 0.9999999999999961100, 12.69999999999999900, 0.0000000000000000000 ) ) ;
#279 = ADVANCED_FACE ( 'NONE', ( #107 ), #229, .T. ) ;
#280 = CARTESIAN_POINT ( 'NONE',  ( -87.60000000000000900, 12.69999999999998900, 0.0000000000000000000 ) ) ;
#281 = CIRCLE ( 'NONE', #95, 12.69999999999999900 ) ;
#282 = PLANE ( 'NONE',  #159 ) ;
#283 = PERSON_AND_ORGANIZATION_ROLE ( 'creator' ) ;
#284 = VERTEX_POINT ( 'NONE', #89 ) ;
#285 = CC_DESIGN_APPROVAL ( #267, ( #253 ) ) ;
#286 = LOCAL_TIME ( 13, 57, 34.00000000000000000, #34 ) ;
#287 = ORIENTED_EDGE ( 'NONE', *, *, #199, .F. ) ;
#288 = AXIS2_PLACEMENT_3D ( 'NONE', #126, #292, #155 ) ;
#289 = DIRECTION ( 'NONE',  ( 1.000000000000000000, 1.237769630959559300E-016, -0.0000000000000000000 ) ) ;
#290 = FACE_OUTER_BOUND ( 'NONE', #276, .T. ) ;
#291 = CARTESIAN_POINT ( 'NONE',  ( 0.0000000000000000000, 0.0000000000000000000, 0.0000000000000000000 ) ) ;
#292 = DIRECTION ( 'NONE',  ( -1.000000000000000000, -0.0000000000000000000, -0.0000000000000000000 ) ) ;
#293 = CARTESIAN_POINT ( 'NONE',  ( 0.9999999999999988900, 0.0000000000000000000, 12.69999999999999900 ) ) ;
#294 = CALENDAR_DATE ( 2023, 13, 6 ) ;
#295 = PLANE ( 'NONE',  #74 ) ;
#296 = ORIENTED_EDGE ( 'NONE', *, *, #43, .T. ) ;
#297 = APPLICATION_PROTOCOL_DEFINITION ( 'international standard', 'config_control_design', 1994, #11 ) ;
#298 = VECTOR ( 'NONE', #109, 999.9999999999998900 ) ;
#299 = CC_DESIGN_PERSON_AND_ORGANIZATION_ASSIGNMENT ( #135, #283, ( #253 ) ) ;
#300 = ADVANCED_FACE ( 'NONE', ( #290 ), #282, .F. ) ;
#301 = SECURITY_CLASSIFICATION_LEVEL ( 'unclassified' ) ;
#302 = PERSON_AND_ORGANIZATION ( #25, #85 ) ;
#303 = DIRECTION ( 'NONE',  ( 0.0000000000000000000, 0.0000000000000000000, -1.000000000000000000 ) ) ;
#304 = VERTEX_POINT ( 'NONE', #256 ) ;
#305 = CIRCLE ( 'NONE', #59, 12.69999999999999900 ) ;
#306 = ORIENTED_EDGE ( 'NONE', *, *, #115, .T. ) ;
#307 = COORDINATED_UNIVERSAL_TIME_OFFSET ( 9, 0, .AHEAD. ) ;
#308 = CARTESIAN_POINT ( 'NONE',  ( 0.9999999999999974500, 1.592040838891556400E-016, 0.0000000000000000000 ) ) ;
#309 = CIRCLE ( 'NONE', #5, 12.39999999999999900 ) ;
#310 = ORIENTED_EDGE ( 'NONE', *, *, #96, .F. ) ;
#311 = DATE_AND_TIME ( #225, #286 ) ;
#312 = CC_DESIGN_DATE_AND_TIME_ASSIGNMENT ( #193, #141, ( #253 ) ) ;
#313 = LOCAL_TIME ( 13, 57, 34.00000000000000000, #71 ) ;
ENDSEC;
END-ISO-10303-21;
