ISO-10303-21;
HEADER;
FILE_DESCRIPTION (( 'STEP AP214' ),
    '1' );
FILE_NAME ('03-2267.STEP',
    '2022-06-20T08:15:35',
    ( 'USER' ),
    ( '' ),
    'SwSTEP 2.0',
    'SolidWorks 2018',
    '' );
FILE_SCHEMA (( 'AUTOMOTIVE_DESIGN' ));
ENDSEC;

DATA;
#1 = DIRECTION ( 'NONE',  ( 0.0000000000000000000, 1.000000000000000000, 0.0000000000000000000 ) ) ;
#2 = DIRECTION ( 'NONE',  ( 1.000000000000000000, -2.721437331438564086E-17, -0.0000000000000000000 ) ) ;
#3 =( NAMED_UNIT ( * ) SI_UNIT ( $, .STERADIAN. ) SOLID_ANGLE_UNIT ( ) );
#4 = PRESENTATION_LAYER_ASSIGNMENT (  '', '', ( #213 ) ) ;
#5 = FACE_BOUND ( 'NONE', #166, .T. ) ;
#6 = EDGE_LOOP ( 'NONE', ( #158 ) ) ;
#7 = AXIS2_PLACEMENT_3D ( 'NONE', #138, #2, #21 ) ;
#8 = EDGE_LOOP ( 'NONE', ( #66 ) ) ;
#9 = EDGE_CURVE ( 'NONE', #49, #49, #90, .T. ) ;
#10 = CARTESIAN_POINT ( 'NONE',  ( 0.0000000000000000000, 1.925929944387235853E-31, 0.0000000000000000000 ) ) ;
#11 = PLANE ( 'NONE',  #106 ) ;
#12 = CARTESIAN_POINT ( 'NONE',  ( 45.00000000000000000, -1.224646799147353651E-15, 0.0000000000000000000 ) ) ;
#13 = EDGE_LOOP ( 'NONE', ( #153 ) ) ;
#14 =( NAMED_UNIT ( * ) SI_UNIT ( $, .STERADIAN. ) SOLID_ANGLE_UNIT ( ) );
#15 = MECHANICAL_DESIGN_GEOMETRIC_PRESENTATION_REPRESENTATION (  '', ( #213 ), #26 ) ;
#16 = DIRECTION ( 'NONE',  ( 1.000000000000000000, -2.721437331438564086E-17, -0.0000000000000000000 ) ) ;
#17 = PRODUCT_DEFINITION_CONTEXT ( 'detailed design', #76, 'design' ) ;
#18 = AXIS2_PLACEMENT_3D ( 'NONE', #174, #192, #209 ) ;
#19 = DIRECTION ( 'NONE',  ( 2.104674681149008263E-17, -1.000000000000000000, 0.0000000000000000000 ) ) ;
#20 =( LENGTH_UNIT ( ) NAMED_UNIT ( * ) SI_UNIT ( .MILLI., .METRE. ) );
#21 = DIRECTION ( 'NONE',  ( 3.614007241618347908E-17, 1.000000000000000000, 0.0000000000000000000 ) ) ;
#22 = CARTESIAN_POINT ( 'NONE',  ( 45.00000000000000000, 1.999999999999998224, 0.0000000000000000000 ) ) ;
#23 = PRESENTATION_STYLE_ASSIGNMENT (( #77 ) ) ;
#24 = CYLINDRICAL_SURFACE ( 'NONE', #91, 1.999999999999999112 ) ;
#25 = CARTESIAN_POINT ( 'NONE',  ( 45.00000000000000000, -1.224646799147353651E-15, 0.0000000000000000000 ) ) ;
#26 =( GEOMETRIC_REPRESENTATION_CONTEXT ( 3 ) GLOBAL_UNCERTAINTY_ASSIGNED_CONTEXT ( ( #37 ) ) GLOBAL_UNIT_ASSIGNED_CONTEXT ( ( #197, #105, #3 ) ) REPRESENTATION_CONTEXT ( 'NONE', 'WORKASPACE' ) );
#27 = ORIENTED_EDGE ( 'NONE', *, *, #149, .F. ) ;
#28 = ADVANCED_FACE ( 'NONE', ( #139 ), #147, .T. ) ;
#29 = FACE_OUTER_BOUND ( 'NONE', #36, .T. ) ;
#30 = DIRECTION ( 'NONE',  ( 2.721437331438563778E-17, 1.000000000000000000, 0.0000000000000000000 ) ) ;
#31 = AXIS2_PLACEMENT_3D ( 'NONE', #168, #50, #67 ) ;
#32 = PRESENTATION_STYLE_ASSIGNMENT (( #99 ) ) ;
#33 = FILL_AREA_STYLE ('',( #81 ) ) ;
#34 =( NAMED_UNIT ( * ) SI_UNIT ( $, .STERADIAN. ) SOLID_ANGLE_UNIT ( ) );
#35 = DIRECTION ( 'NONE',  ( 0.0000000000000000000, 0.0000000000000000000, 1.000000000000000000 ) ) ;
#36 = EDGE_LOOP ( 'NONE', ( #107 ) ) ;
#37 = UNCERTAINTY_MEASURE_WITH_UNIT (LENGTH_MEASURE( 1.000000000000000082E-05 ), #197, 'distance_accuracy_value', 'NONE');
#38 = CIRCLE ( 'NONE', #64, 3.000000000000000000 ) ;
#39 = FILL_AREA_STYLE ('',( #215 ) ) ;
#40 = VERTEX_POINT ( 'NONE', #70 ) ;
#41 = CARTESIAN_POINT ( 'NONE',  ( 36.00000000000000000, 3.000000000000000000, 0.0000000000000000000 ) ) ;
#42 = DIRECTION ( 'NONE',  ( 1.000000000000000000, -2.721437331438564086E-17, -0.0000000000000000000 ) ) ;
#43 = CONICAL_SURFACE ( 'NONE', #7, 3.000000000000000000, 0.7853981633974476129 ) ;
#44 = EDGE_CURVE ( 'NONE', #47, #47, #52, .T. ) ;
#45 = AXIS2_PLACEMENT_3D ( 'NONE', #115, #16, #131 ) ;
#46 = DIRECTION ( 'NONE',  ( -1.000000000000000000, 2.721437331438564086E-17, 0.0000000000000000000 ) ) ;
#47 = VERTEX_POINT ( 'NONE', #120 ) ;
#48 = FACE_OUTER_BOUND ( 'NONE', #6, .T. ) ;
#49 = VERTEX_POINT ( 'NONE', #137 ) ;
#50 = DIRECTION ( 'NONE',  ( 1.000000000000000000, -2.721437331438564086E-17, -0.0000000000000000000 ) ) ;
#51 = APPLICATION_PROTOCOL_DEFINITION ( 'draft international standard', 'automotive_design', 1998, #65 ) ;
#52 = CIRCLE ( 'NONE', #195, 2.399999999999997691 ) ;
#53 = AXIS2_PLACEMENT_3D ( 'NONE', #79, #202, #96 ) ;
#54 = DIRECTION ( 'NONE',  ( 1.000000000000000000, -2.721437331438564086E-17, -0.0000000000000000000 ) ) ;
#55 = AXIS2_PLACEMENT_3D ( 'NONE', #156, #54, #186 ) ;
#56 = SURFACE_STYLE_USAGE ( .BOTH. , #160 ) ;
#57 = CARTESIAN_POINT ( 'NONE',  ( 0.6000000000000034195, 3.000000000000000000, 0.0000000000000000000 ) ) ;
#58 = DIRECTION ( 'NONE',  ( -1.000000000000000000, -2.104674681149008263E-17, 0.0000000000000000000 ) ) ;
#59 = ADVANCED_BREP_SHAPE_REPRESENTATION ( '03-2267', ( #157, #194, #187 ), #89 ) ;
#60 = DIRECTION ( 'NONE',  ( 0.0000000000000000000, 1.000000000000000000, 0.0000000000000000000 ) ) ;
#61 = ORIENTED_EDGE ( 'NONE', *, *, #163, .F. ) ;
#62 = AXIS2_PLACEMENT_3D ( 'NONE', #22, #42, #161 ) ;
#63 = EDGE_LOOP ( 'NONE', ( #117 ) ) ;
#64 = AXIS2_PLACEMENT_3D ( 'NONE', #97, #217, #113 ) ;
#65 = APPLICATION_CONTEXT ( 'automotive_design' ) ;
#66 = ORIENTED_EDGE ( 'NONE', *, *, #118, .T. ) ;
#67 = DIRECTION ( 'NONE',  ( 0.0000000000000000000, 1.000000000000000000, 0.0000000000000000000 ) ) ;
#68 = ADVANCED_FACE ( 'NONE', ( #182, #5 ), #221, .T. ) ;
#69 =( NAMED_UNIT ( * ) PLANE_ANGLE_UNIT ( ) SI_UNIT ( $, .RADIAN. ) );
#70 = CARTESIAN_POINT ( 'NONE',  ( 73.27205953146756201, 1.999999999999998224, 0.0000000000000000000 ) ) ;
#71 = CARTESIAN_POINT ( 'NONE',  ( 45.00000000000000000, -1.224646799147353651E-15, 0.0000000000000000000 ) ) ;
#72 = STYLED_ITEM ( 'NONE', ( #184 ), #194 ) ;
#73 = EDGE_LOOP ( 'NONE', ( #146 ) ) ;
#74 = CIRCLE ( 'NONE', #53, 1.999999999999998668 ) ;
#75 = SURFACE_STYLE_FILL_AREA ( #83 ) ;
#76 = APPLICATION_CONTEXT ( 'automotive_design' ) ;
#77 = SURFACE_STYLE_USAGE ( .BOTH. , #180 ) ;
#78 = CIRCLE ( 'NONE', #45, 3.000000000000000888 ) ;
#79 = CARTESIAN_POINT ( 'NONE',  ( 73.27205953146756201, -6.296119203491807390E-16, 0.0000000000000000000 ) ) ;
#80 = FACE_OUTER_BOUND ( 'NONE', #102, .T. ) ;
#81 = FILL_AREA_STYLE_COLOUR ( '', #84 ) ;
#82 = VERTEX_POINT ( 'NONE', #175 ) ;
#83 = FILL_AREA_STYLE ('',( #188 ) ) ;
#84 = COLOUR_RGB ( '',0.5019607843137254832, 0.5019607843137254832, 0.5019607843137254832 ) ;
#85 = ADVANCED_FACE ( 'NONE', ( #189, #87 ), #177, .T. ) ;
#86 = COLOUR_RGB ( '',0.7921568627450980005, 0.8196078431372548767, 0.9333333333333333481 ) ;
#87 = FACE_OUTER_BOUND ( 'NONE', #63, .T. ) ;
#88 = SURFACE_STYLE_FILL_AREA ( #39 ) ;
#89 =( GEOMETRIC_REPRESENTATION_CONTEXT ( 3 ) GLOBAL_UNCERTAINTY_ASSIGNED_CONTEXT ( ( #93 ) ) GLOBAL_UNIT_ASSIGNED_CONTEXT ( ( #20, #129, #34 ) ) REPRESENTATION_CONTEXT ( 'NONE', 'WORKASPACE' ) );
#90 = CIRCLE ( 'NONE', #170, 1.999999999999999112 ) ;
#91 = AXIS2_PLACEMENT_3D ( 'NONE', #71, #176, #185 ) ;
#92 = ADVANCED_FACE ( 'NONE', ( #48 ), #122, .T. ) ;
#93 = UNCERTAINTY_MEASURE_WITH_UNIT (LENGTH_MEASURE( 1.000000000000000082E-05 ), #20, 'distance_accuracy_value', 'NONE');
#94 = EDGE_LOOP ( 'NONE', ( #104 ) ) ;
#95 = DIRECTION ( 'NONE',  ( -1.000000000000000000, 2.721437331438564086E-17, 0.0000000000000000000 ) ) ;
#96 = DIRECTION ( 'NONE',  ( 0.0000000000000000000, 1.000000000000000000, 0.0000000000000000000 ) ) ;
#97 = CARTESIAN_POINT ( 'NONE',  ( 0.6000000000000033085, -1.632862398863135432E-17, 0.0000000000000000000 ) ) ;
#98 = CLOSED_SHELL ( 'NONE', ( #28, #108, #85, #68, #167, #159 ) ) ;
#99 = SURFACE_STYLE_USAGE ( .BOTH. , #203 ) ;
#100 = ORIENTED_EDGE ( 'NONE', *, *, #44, .F. ) ;
#101 = AXIS2_PLACEMENT_3D ( 'NONE', #128, #208, #1 ) ;
#102 = EDGE_LOOP ( 'NONE', ( #200 ) ) ;
#103 = CARTESIAN_POINT ( 'NONE',  ( 37.00000000000000000, 1.999999999999998224, 0.0000000000000000000 ) ) ;
#104 = ORIENTED_EDGE ( 'NONE', *, *, #149, .T. ) ;
#105 =( NAMED_UNIT ( * ) PLANE_ANGLE_UNIT ( ) SI_UNIT ( $, .RADIAN. ) );
#106 = AXIS2_PLACEMENT_3D ( 'NONE', #12, #58, #19 ) ;
#107 = ORIENTED_EDGE ( 'NONE', *, *, #9, .F. ) ;
#108 = ADVANCED_FACE ( 'NONE', ( #130, #171 ), #43, .T. ) ;
#109 = EDGE_LOOP ( 'NONE', ( #61 ) ) ;
#110 = CARTESIAN_POINT ( 'NONE',  ( 37.00000000000000000, -1.006931812632268351E-15, 0.0000000000000000000 ) ) ;
#111 = FACE_OUTER_BOUND ( 'NONE', #109, .T. ) ;
#112 = STYLED_ITEM ( 'NONE', ( #32 ), #59 ) ;
#113 = DIRECTION ( 'NONE',  ( 3.614007241618347908E-17, 1.000000000000000000, 0.0000000000000000000 ) ) ;
#114 =( NAMED_UNIT ( * ) PLANE_ANGLE_UNIT ( ) SI_UNIT ( $, .RADIAN. ) );
#115 = CARTESIAN_POINT ( 'NONE',  ( 36.00000000000000000, -9.797174393178827630E-16, 0.0000000000000000000 ) ) ;
#116 = PRESENTATION_LAYER_ASSIGNMENT (  '', '', ( #72 ) ) ;
#117 = ORIENTED_EDGE ( 'NONE', *, *, #118, .F. ) ;
#118 = EDGE_CURVE ( 'NONE', #216, #216, #78, .T. ) ;
#119 = SURFACE_STYLE_FILL_AREA ( #33 ) ;
#120 = CARTESIAN_POINT ( 'NONE',  ( 6.531449595452546658E-17, 2.399999999999997691, 0.0000000000000000000 ) ) ;
#121 = EDGE_CURVE ( 'NONE', #172, #172, #212, .T. ) ;
#122 = CONICAL_SURFACE ( 'NONE', #18, 2747.477419454572100, 1.221730476396024834 ) ;
#123 = DIRECTION ( 'NONE',  ( 1.000000000000000000, 2.104674681149008263E-17, -0.0000000000000000000 ) ) ;
#124 = PRESENTATION_LAYER_ASSIGNMENT (  '', '', ( #112 ) ) ;
#125 = VERTEX_POINT ( 'NONE', #57 ) ;
#126 = MECHANICAL_DESIGN_GEOMETRIC_PRESENTATION_REPRESENTATION (  '', ( #72 ), #141 ) ;
#127 = DIRECTION ( 'NONE',  ( 1.000000000000000000, -2.721437331438564086E-17, -0.0000000000000000000 ) ) ;
#128 = CARTESIAN_POINT ( 'NONE',  ( 73.99999999999998579, -6.142911416141415075E-16, 0.0000000000000000000 ) ) ;
#129 =( NAMED_UNIT ( * ) PLANE_ANGLE_UNIT ( ) SI_UNIT ( $, .RADIAN. ) );
#130 = FACE_BOUND ( 'NONE', #162, .T. ) ;
#131 = DIRECTION ( 'NONE',  ( 0.0000000000000000000, 1.000000000000000000, 0.0000000000000000000 ) ) ;
#132 = CIRCLE ( 'NONE', #204, 1.999999999999999556 ) ;
#133 = UNCERTAINTY_MEASURE_WITH_UNIT (LENGTH_MEASURE( 1.000000000000000082E-05 ), #173, 'distance_accuracy_value', 'NONE');
#134 = EDGE_CURVE ( 'NONE', #125, #125, #38, .T. ) ;
#135 = DIRECTION ( 'NONE',  ( 1.000000000000000000, -2.721437331438564086E-17, -0.0000000000000000000 ) ) ;
#136 = MECHANICAL_DESIGN_GEOMETRIC_PRESENTATION_REPRESENTATION (  '', ( #112 ), #152 ) ;
#137 = CARTESIAN_POINT ( 'NONE',  ( 45.00000000000000000, 1.999999999999997780, 0.0000000000000000000 ) ) ;
#138 = CARTESIAN_POINT ( 'NONE',  ( 0.6000000000000033085, -1.632862398863135432E-17, 0.0000000000000000000 ) ) ;
#139 = FACE_OUTER_BOUND ( 'NONE', #151, .T. ) ;
#140 = PLANE ( 'NONE',  #62 ) ;
#141 =( GEOMETRIC_REPRESENTATION_CONTEXT ( 3 ) GLOBAL_UNCERTAINTY_ASSIGNED_CONTEXT ( ( #133 ) ) GLOBAL_UNIT_ASSIGNED_CONTEXT ( ( #173, #69, #191 ) ) REPRESENTATION_CONTEXT ( 'NONE', 'WORKASPACE' ) );
#142 = ORIENTED_EDGE ( 'NONE', *, *, #9, .T. ) ;
#143 = PRODUCT ( '03-2267', '03-2267', '', ( #179 ) ) ;
#144 = PRODUCT_DEFINITION_SHAPE ( 'NONE', 'NONE',  #199 ) ;
#145 = CARTESIAN_POINT ( 'NONE',  ( -1.676943938292123753E-17, 4.563697836397793113E-34, 0.0000000000000000000 ) ) ;
#146 = ORIENTED_EDGE ( 'NONE', *, *, #134, .F. ) ;
#147 = PLANE ( 'NONE',  #206 ) ;
#148 = ORIENTED_EDGE ( 'NONE', *, *, #44, .T. ) ;
#149 = EDGE_CURVE ( 'NONE', #82, #82, #132, .T. ) ;
#150 = DIRECTION ( 'NONE',  ( 0.0000000000000000000, -1.000000000000000000, 0.0000000000000000000 ) ) ;
#151 = EDGE_LOOP ( 'NONE', ( #100 ) ) ;
#152 =( GEOMETRIC_REPRESENTATION_CONTEXT ( 3 ) GLOBAL_UNCERTAINTY_ASSIGNED_CONTEXT ( ( #211 ) ) GLOBAL_UNIT_ASSIGNED_CONTEXT ( ( #220, #114, #14 ) ) REPRESENTATION_CONTEXT ( 'NONE', 'WORKASPACE' ) );
#153 = ORIENTED_EDGE ( 'NONE', *, *, #134, .T. ) ;
#154 = CARTESIAN_POINT ( 'NONE',  ( 45.00000000000000000, -1.224646799147353651E-15, 0.0000000000000000000 ) ) ;
#155 = DIRECTION ( 'NONE',  ( 1.000000000000000000, 0.0000000000000000000, 0.0000000000000000000 ) ) ;
#156 = CARTESIAN_POINT ( 'NONE',  ( 37.00000000000000000, -1.006931812632268351E-15, 0.0000000000000000000 ) ) ;
#157 = MANIFOLD_SOLID_BREP ( 'È¸Àü1', #98 ) ;
#158 = ORIENTED_EDGE ( 'NONE', *, *, #163, .T. ) ;
#159 = ADVANCED_FACE ( 'NONE', ( #169 ), #140, .T. ) ;
#160 = SURFACE_SIDE_STYLE ('',( #88 ) ) ;
#161 = DIRECTION ( 'NONE',  ( 2.721437331438564086E-17, 1.000000000000000000, 0.0000000000000000000 ) ) ;
#162 = EDGE_LOOP ( 'NONE', ( #148 ) ) ;
#163 = EDGE_CURVE ( 'NONE', #40, #40, #74, .T. ) ;
#164 = FACE_OUTER_BOUND ( 'NONE', #190, .T. ) ;
#165 = DIRECTION ( 'NONE',  ( 0.0000000000000000000, 1.000000000000000000, 0.0000000000000000000 ) ) ;
#166 = EDGE_LOOP ( 'NONE', ( #198 ) ) ;
#167 = ADVANCED_FACE ( 'NONE', ( #80, #164 ), #24, .T. ) ;
#168 = CARTESIAN_POINT ( 'NONE',  ( 45.00000000000000000, -1.224646799147353651E-15, 0.0000000000000000000 ) ) ;
#169 = FACE_OUTER_BOUND ( 'NONE', #94, .T. ) ;
#170 = AXIS2_PLACEMENT_3D ( 'NONE', #25, #123, #165 ) ;
#171 = FACE_OUTER_BOUND ( 'NONE', #73, .T. ) ;
#172 = VERTEX_POINT ( 'NONE', #103 ) ;
#173 =( LENGTH_UNIT ( ) NAMED_UNIT ( * ) SI_UNIT ( .MILLI., .METRE. ) );
#174 = CARTESIAN_POINT ( 'NONE',  ( -926.0000000000000000, -2.166103795310422468E-14, 0.0000000000000000000 ) ) ;
#175 = CARTESIAN_POINT ( 'NONE',  ( 45.00000000000000000, 1.999999999999998224, 0.0000000000000000000 ) ) ;
#176 = DIRECTION ( 'NONE',  ( 1.000000000000000000, -2.721437331438564086E-17, -0.0000000000000000000 ) ) ;
#177 = CYLINDRICAL_SURFACE ( 'NONE', #31, 3.000000000000000444 ) ;
#178 = CYLINDRICAL_SURFACE ( 'NONE', #101, 1.999999999999999112 ) ;
#179 = PRODUCT_CONTEXT ( 'NONE', #65, 'mechanical' ) ;
#180 = SURFACE_SIDE_STYLE ('',( #119 ) ) ;
#181 = DIRECTION ( 'NONE',  ( -2.721437331438564086E-17, -1.000000000000000000, 0.0000000000000000000 ) ) ;
#182 = FACE_OUTER_BOUND ( 'NONE', #8, .T. ) ;
#183 = ADVANCED_FACE ( 'NONE', ( #29 ), #11, .T. ) ;
#184 = PRESENTATION_STYLE_ASSIGNMENT (( #56 ) ) ;
#185 = DIRECTION ( 'NONE',  ( 0.0000000000000000000, 1.000000000000000000, 0.0000000000000000000 ) ) ;
#186 = DIRECTION ( 'NONE',  ( 0.0000000000000000000, 1.000000000000000000, 0.0000000000000000000 ) ) ;
#187 = AXIS2_PLACEMENT_3D ( 'NONE', #218, #35, #155 ) ;
#188 = FILL_AREA_STYLE_COLOUR ( '', #86 ) ;
#189 = FACE_OUTER_BOUND ( 'NONE', #13, .T. ) ;
#190 = EDGE_LOOP ( 'NONE', ( #27 ) ) ;
#191 =( NAMED_UNIT ( * ) SI_UNIT ( $, .STERADIAN. ) SOLID_ANGLE_UNIT ( ) );
#192 = DIRECTION ( 'NONE',  ( -1.000000000000000000, -2.104674681149008263E-17, 0.0000000000000000000 ) ) ;
#193 = EDGE_LOOP ( 'NONE', ( #142 ) ) ;
#194 = MANIFOLD_SOLID_BREP ( 'È¸Àü3', #205 ) ;
#195 = AXIS2_PLACEMENT_3D ( 'NONE', #10, #127, #30 ) ;
#196 = APPLICATION_PROTOCOL_DEFINITION ( 'draft international standard', 'automotive_design', 1998, #76 ) ;
#197 =( LENGTH_UNIT ( ) NAMED_UNIT ( * ) SI_UNIT ( .MILLI., .METRE. ) );
#198 = ORIENTED_EDGE ( 'NONE', *, *, #121, .F. ) ;
#199 = PRODUCT_DEFINITION ( 'UNKNOWN', '', #210, #17 ) ;
#200 = ORIENTED_EDGE ( 'NONE', *, *, #121, .T. ) ;
#201 = FACE_OUTER_BOUND ( 'NONE', #193, .T. ) ;
#202 = DIRECTION ( 'NONE',  ( 1.000000000000000000, 2.104674681149008263E-17, -0.0000000000000000000 ) ) ;
#203 = SURFACE_SIDE_STYLE ('',( #75 ) ) ;
#204 = AXIS2_PLACEMENT_3D ( 'NONE', #154, #135, #60 ) ;
#205 = CLOSED_SHELL ( 'NONE', ( #183, #223, #92 ) ) ;
#206 = AXIS2_PLACEMENT_3D ( 'NONE', #145, #46, #181 ) ;
#207 = COLOUR_RGB ( '',1.000000000000000000, 1.000000000000000000, 0.0000000000000000000 ) ;
#208 = DIRECTION ( 'NONE',  ( 1.000000000000000000, 2.104674681149008263E-17, -0.0000000000000000000 ) ) ;
#209 = DIRECTION ( 'NONE',  ( 4.040881343605573527E-17, -1.000000000000000000, 0.0000000000000000000 ) ) ;
#210 = PRODUCT_DEFINITION_FORMATION_WITH_SPECIFIED_SOURCE ( 'ANY', '', #143, .NOT_KNOWN. ) ;
#211 = UNCERTAINTY_MEASURE_WITH_UNIT (LENGTH_MEASURE( 1.000000000000000082E-05 ), #220, 'distance_accuracy_value', 'NONE');
#212 = CIRCLE ( 'NONE', #55, 1.999999999999999112 ) ;
#213 = STYLED_ITEM ( 'NONE', ( #23 ), #157 ) ;
#214 = AXIS2_PLACEMENT_3D ( 'NONE', #110, #95, #150 ) ;
#215 = FILL_AREA_STYLE_COLOUR ( '', #207 ) ;
#216 = VERTEX_POINT ( 'NONE', #41 ) ;
#217 = DIRECTION ( 'NONE',  ( 1.000000000000000000, -2.721437331438564086E-17, -0.0000000000000000000 ) ) ;
#218 = CARTESIAN_POINT ( 'NONE',  ( 0.0000000000000000000, 0.0000000000000000000, 0.0000000000000000000 ) ) ;
#219 = PRODUCT_RELATED_PRODUCT_CATEGORY ( 'part', '', ( #143 ) ) ;
#220 =( LENGTH_UNIT ( ) NAMED_UNIT ( * ) SI_UNIT ( .MILLI., .METRE. ) );
#221 = CONICAL_SURFACE ( 'NONE', #214, 1.999999999999999112, 0.7853981633974487231 ) ;
#222 = SHAPE_DEFINITION_REPRESENTATION ( #144, #59 ) ;
#223 = ADVANCED_FACE ( 'NONE', ( #201, #111 ), #178, .T. ) ;
ENDSEC;
END-ISO-10303-21;
