ISO-10303-21;
HEADER;
FILE_DESCRIPTION (( 'STEP AP214' ),
    '1' );
FILE_NAME ('03-2268.STEP',
    '2022-06-20T08:15:41',
    ( 'USER' ),
    ( '' ),
    'SwSTEP 2.0',
    'SolidWorks 2018',
    '' );
FILE_SCHEMA (( 'AUTOMOTIVE_DESIGN' ));
ENDSEC;

DATA;
#1 = DIRECTION ( 'NONE',  ( 1.000000000000000000, -2.721437331438564086E-17, -0.0000000000000000000 ) ) ;
#2 = DIRECTION ( 'NONE',  ( 4.040881343605481698E-17, -1.000000000000000000, 0.0000000000000000000 ) ) ;
#3 =( GEOMETRIC_REPRESENTATION_CONTEXT ( 3 ) GLOBAL_UNCERTAINTY_ASSIGNED_CONTEXT ( ( #40 ) ) GLOBAL_UNIT_ASSIGNED_CONTEXT ( ( #25, #120, #169 ) ) REPRESENTATION_CONTEXT ( 'NONE', 'WORKASPACE' ) );
#4 = AXIS2_PLACEMENT_3D ( 'NONE', #90, #212, #72 ) ;
#5 = DIRECTION ( 'NONE',  ( 1.000000000000000000, -2.721437331438564086E-17, -0.0000000000000000000 ) ) ;
#6 = VERTEX_POINT ( 'NONE', #100 ) ;
#7 = DIRECTION ( 'NONE',  ( 1.000000000000000000, -2.721437331438564086E-17, -0.0000000000000000000 ) ) ;
#8 = ADVANCED_FACE ( 'NONE', ( #113 ), #10, .T. ) ;
#9 = CARTESIAN_POINT ( 'NONE',  ( -1.676943938292123753E-17, 4.563697836397793113E-34, 0.0000000000000000000 ) ) ;
#10 = CONICAL_SURFACE ( 'NONE', #111, 2747.477419454634401, 1.221730476396032161 ) ;
#11 = SURFACE_SIDE_STYLE ('',( #116 ) ) ;
#12 = FACE_OUTER_BOUND ( 'NONE', #27, .T. ) ;
#13 = EDGE_LOOP ( 'NONE', ( #118 ) ) ;
#14 = STYLED_ITEM ( 'NONE', ( #138 ), #163 ) ;
#15 = FACE_OUTER_BOUND ( 'NONE', #82, .T. ) ;
#16 = ORIENTED_EDGE ( 'NONE', *, *, #95, .F. ) ;
#17 =( NAMED_UNIT ( * ) PLANE_ANGLE_UNIT ( ) SI_UNIT ( $, .RADIAN. ) );
#18 = FILL_AREA_STYLE_COLOUR ( '', #30 ) ;
#19 = DIRECTION ( 'NONE',  ( 3.614007241618347908E-17, 1.000000000000000000, 0.0000000000000000000 ) ) ;
#20 = APPLICATION_CONTEXT ( 'automotive_design' ) ;
#21 = SURFACE_SIDE_STYLE ('',( #132 ) ) ;
#22 = ADVANCED_FACE ( 'NONE', ( #140, #74 ), #125, .T. ) ;
#23 = PRODUCT_DEFINITION_SHAPE ( 'NONE', 'NONE',  #44 ) ;
#24 = CARTESIAN_POINT ( 'NONE',  ( 0.0000000000000000000, 0.0000000000000000000, 0.0000000000000000000 ) ) ;
#25 =( LENGTH_UNIT ( ) NAMED_UNIT ( * ) SI_UNIT ( .MILLI., .METRE. ) );
#26 = CIRCLE ( 'NONE', #4, 3.000000000000000888 ) ;
#27 = EDGE_LOOP ( 'NONE', ( #42 ) ) ;
#28 = DIRECTION ( 'NONE',  ( 2.104674681149008263E-17, -1.000000000000000000, 0.0000000000000000000 ) ) ;
#29 = SURFACE_STYLE_USAGE ( .BOTH. , #143 ) ;
#30 = COLOUR_RGB ( '',1.000000000000000000, 1.000000000000000000, 0.0000000000000000000 ) ;
#31 = DIRECTION ( 'NONE',  ( 1.000000000000000000, -2.721437331438564086E-17, -0.0000000000000000000 ) ) ;
#32 = FACE_OUTER_BOUND ( 'NONE', #213, .T. ) ;
#33 = CARTESIAN_POINT ( 'NONE',  ( -926.0000000000000000, -2.166103795310422468E-14, 0.0000000000000000000 ) ) ;
#34 = AXIS2_PLACEMENT_3D ( 'NONE', #24, #156, #56 ) ;
#35 = AXIS2_PLACEMENT_3D ( 'NONE', #136, #107, #38 ) ;
#36 = DIRECTION ( 'NONE',  ( 1.000000000000000000, 2.104674681149008263E-17, -0.0000000000000000000 ) ) ;
#37 = ORIENTED_EDGE ( 'NONE', *, *, #48, .T. ) ;
#38 = DIRECTION ( 'NONE',  ( 0.0000000000000000000, 1.000000000000000000, 0.0000000000000000000 ) ) ;
#39 = FACE_OUTER_BOUND ( 'NONE', #171, .T. ) ;
#40 = UNCERTAINTY_MEASURE_WITH_UNIT (LENGTH_MEASURE( 1.000000000000000082E-05 ), #25, 'distance_accuracy_value', 'NONE');
#41 = ORIENTED_EDGE ( 'NONE', *, *, #61, .T. ) ;
#42 = ORIENTED_EDGE ( 'NONE', *, *, #81, .F. ) ;
#43 = CIRCLE ( 'NONE', #146, 2.044700000000000184 ) ;
#44 = PRODUCT_DEFINITION ( 'UNKNOWN', '', #58, #177 ) ;
#45 = AXIS2_PLACEMENT_3D ( 'NONE', #9, #153, #133 ) ;
#46 = VERTEX_POINT ( 'NONE', #208 ) ;
#47 = ORIENTED_EDGE ( 'NONE', *, *, #71, .T. ) ;
#48 = EDGE_CURVE ( 'NONE', #218, #218, #155, .T. ) ;
#49 = DIRECTION ( 'NONE',  ( 3.614007241618347908E-17, 1.000000000000000000, 0.0000000000000000000 ) ) ;
#50 = DIRECTION ( 'NONE',  ( 0.0000000000000000000, 1.000000000000000000, 0.0000000000000000000 ) ) ;
#51 = CARTESIAN_POINT ( 'NONE',  ( 0.0000000000000000000, 1.925929944387235853E-31, 0.0000000000000000000 ) ) ;
#52 = CARTESIAN_POINT ( 'NONE',  ( 36.95529999999999404, 2.044699999999999740, 0.0000000000000000000 ) ) ;
#53 = ORIENTED_EDGE ( 'NONE', *, *, #81, .T. ) ;
#54 = CARTESIAN_POINT ( 'NONE',  ( 73.99999999999998579, -6.142911416141415075E-16, 0.0000000000000000000 ) ) ;
#55 = APPLICATION_PROTOCOL_DEFINITION ( 'draft international standard', 'automotive_design', 1998, #20 ) ;
#56 = DIRECTION ( 'NONE',  ( 1.000000000000000000, 0.0000000000000000000, 0.0000000000000000000 ) ) ;
#57 =( NAMED_UNIT ( * ) SI_UNIT ( $, .STERADIAN. ) SOLID_ANGLE_UNIT ( ) );
#58 = PRODUCT_DEFINITION_FORMATION_WITH_SPECIFIED_SOURCE ( 'ANY', '', #207, .NOT_KNOWN. ) ;
#59 = PRESENTATION_LAYER_ASSIGNMENT (  '', '', ( #14 ) ) ;
#60 = EDGE_LOOP ( 'NONE', ( #193 ) ) ;
#61 = EDGE_CURVE ( 'NONE', #184, #184, #119, .T. ) ;
#62 = MANIFOLD_SOLID_BREP ( 'È¸Àü3', #86 ) ;
#63 = CARTESIAN_POINT ( 'NONE',  ( 0.6000000000000033085, -1.632862398863135432E-17, 0.0000000000000000000 ) ) ;
#64 = CARTESIAN_POINT ( 'NONE',  ( 45.00000000000000000, -1.224646799147353651E-15, 0.0000000000000000000 ) ) ;
#65 = DIRECTION ( 'NONE',  ( 0.0000000000000000000, -1.000000000000000000, 0.0000000000000000000 ) ) ;
#66 = SHAPE_DEFINITION_REPRESENTATION ( #23, #139 ) ;
#67 = PRODUCT_RELATED_PRODUCT_CATEGORY ( 'part', '', ( #207 ) ) ;
#68 = MECHANICAL_DESIGN_GEOMETRIC_PRESENTATION_REPRESENTATION (  '', ( #14 ), #78 ) ;
#69 = DIRECTION ( 'NONE',  ( 0.0000000000000000000, 1.000000000000000000, 0.0000000000000000000 ) ) ;
#70 = CARTESIAN_POINT ( 'NONE',  ( 45.00000000000000000, 2.044699999999999740, 0.0000000000000000000 ) ) ;
#71 = EDGE_CURVE ( 'NONE', #131, #131, #183, .T. ) ;
#72 = DIRECTION ( 'NONE',  ( 0.0000000000000000000, 1.000000000000000000, 0.0000000000000000000 ) ) ;
#73 = ADVANCED_FACE ( 'NONE', ( #167 ), #144, .T. ) ;
#74 = FACE_BOUND ( 'NONE', #102, .T. ) ;
#75 = PRESENTATION_STYLE_ASSIGNMENT (( #109 ) ) ;
#76 = EDGE_LOOP ( 'NONE', ( #182 ) ) ;
#77 = COLOUR_RGB ( '',0.5019607843137254832, 0.5019607843137254832, 0.5019607843137254832 ) ;
#78 =( GEOMETRIC_REPRESENTATION_CONTEXT ( 3 ) GLOBAL_UNCERTAINTY_ASSIGNED_CONTEXT ( ( #101 ) ) GLOBAL_UNIT_ASSIGNED_CONTEXT ( ( #104, #194, #87 ) ) REPRESENTATION_CONTEXT ( 'NONE', 'WORKASPACE' ) );
#79 = CLOSED_SHELL ( 'NONE', ( #154, #105, #135, #22, #214, #89 ) ) ;
#80 = DIRECTION ( 'NONE',  ( 1.000000000000000000, 2.104674681149008263E-17, -0.0000000000000000000 ) ) ;
#81 = EDGE_CURVE ( 'NONE', #92, #92, #43, .T. ) ;
#82 = EDGE_LOOP ( 'NONE', ( #37 ) ) ;
#83 = CARTESIAN_POINT ( 'NONE',  ( 36.95529999999999404, -1.005715330145115454E-15, 0.0000000000000000000 ) ) ;
#84 = PRESENTATION_STYLE_ASSIGNMENT (( #29 ) ) ;
#85 = CYLINDRICAL_SURFACE ( 'NONE', #145, 2.044700000000000628 ) ;
#86 = CLOSED_SHELL ( 'NONE', ( #73, #173, #8 ) ) ;
#87 =( NAMED_UNIT ( * ) SI_UNIT ( $, .STERADIAN. ) SOLID_ANGLE_UNIT ( ) );
#88 = EDGE_LOOP ( 'NONE', ( #221 ) ) ;
#89 = ADVANCED_FACE ( 'NONE', ( #150 ), #222, .T. ) ;
#90 = CARTESIAN_POINT ( 'NONE',  ( 36.00000000000000000, -9.797174393178827630E-16, 0.0000000000000000000 ) ) ;
#91 = FILL_AREA_STYLE ('',( #217 ) ) ;
#92 = VERTEX_POINT ( 'NONE', #115 ) ;
#93 = CYLINDRICAL_SURFACE ( 'NONE', #35, 3.000000000000000444 ) ;
#94 = EDGE_LOOP ( 'NONE', ( #53 ) ) ;
#95 = EDGE_CURVE ( 'NONE', #46, #46, #206, .T. ) ;
#96 = EDGE_LOOP ( 'NONE', ( #205 ) ) ;
#97 = CARTESIAN_POINT ( 'NONE',  ( 45.00000000000000000, -1.224646799147353651E-15, 0.0000000000000000000 ) ) ;
#98 = DIRECTION ( 'NONE',  ( 0.0000000000000000000, 1.000000000000000000, 0.0000000000000000000 ) ) ;
#99 = FACE_OUTER_BOUND ( 'NONE', #88, .T. ) ;
#100 = CARTESIAN_POINT ( 'NONE',  ( 36.00000000000000000, 3.000000000000000000, 0.0000000000000000000 ) ) ;
#101 = UNCERTAINTY_MEASURE_WITH_UNIT (LENGTH_MEASURE( 1.000000000000000082E-05 ), #104, 'distance_accuracy_value', 'NONE');
#102 = EDGE_LOOP ( 'NONE', ( #123 ) ) ;
#103 = CARTESIAN_POINT ( 'NONE',  ( 45.00000000000000000, -1.224646799147353651E-15, 0.0000000000000000000 ) ) ;
#104 =( LENGTH_UNIT ( ) NAMED_UNIT ( * ) SI_UNIT ( .MILLI., .METRE. ) );
#105 = ADVANCED_FACE ( 'NONE', ( #130, #99 ), #110, .T. ) ;
#106 = EDGE_CURVE ( 'NONE', #6, #6, #26, .T. ) ;
#107 = DIRECTION ( 'NONE',  ( 1.000000000000000000, -2.721437331438564086E-17, -0.0000000000000000000 ) ) ;
#108 = APPLICATION_PROTOCOL_DEFINITION ( 'draft international standard', 'automotive_design', 1998, #178 ) ;
#109 = SURFACE_STYLE_USAGE ( .BOTH. , #11 ) ;
#110 = CONICAL_SURFACE ( 'NONE', #220, 3.000000000000000000, 0.7853981633974476129 ) ;
#111 = AXIS2_PLACEMENT_3D ( 'NONE', #33, #204, #2 ) ;
#112 =( NAMED_UNIT ( * ) SI_UNIT ( $, .STERADIAN. ) SOLID_ANGLE_UNIT ( ) );
#113 = FACE_OUTER_BOUND ( 'NONE', #94, .T. ) ;
#114 = CARTESIAN_POINT ( 'NONE',  ( 36.95529999999999404, -1.005715330145115454E-15, 0.0000000000000000000 ) ) ;
#115 = CARTESIAN_POINT ( 'NONE',  ( 73.25579006199588150, 2.044699999999999740, 0.0000000000000000000 ) ) ;
#116 = SURFACE_STYLE_FILL_AREA ( #91 ) ;
#117 = FILL_AREA_STYLE ('',( #195 ) ) ;
#118 = ORIENTED_EDGE ( 'NONE', *, *, #176, .T. ) ;
#119 = CIRCLE ( 'NONE', #142, 2.044700000000001072 ) ;
#120 =( NAMED_UNIT ( * ) PLANE_ANGLE_UNIT ( ) SI_UNIT ( $, .RADIAN. ) );
#121 = CYLINDRICAL_SURFACE ( 'NONE', #179, 2.044700000000001072 ) ;
#122 = EDGE_LOOP ( 'NONE', ( #16 ) ) ;
#123 = ORIENTED_EDGE ( 'NONE', *, *, #48, .F. ) ;
#124 = AXIS2_PLACEMENT_3D ( 'NONE', #83, #197, #65 ) ;
#125 = CONICAL_SURFACE ( 'NONE', #124, 2.044700000000000628, 0.7853981633974489451 ) ;
#126 = CARTESIAN_POINT ( 'NONE',  ( 45.00000000000000000, 2.044699999999999740, 0.0000000000000000000 ) ) ;
#127 = ORIENTED_EDGE ( 'NONE', *, *, #176, .F. ) ;
#128 =( LENGTH_UNIT ( ) NAMED_UNIT ( * ) SI_UNIT ( .MILLI., .METRE. ) );
#129 = CARTESIAN_POINT ( 'NONE',  ( 0.6000000000000033085, -1.632862398863135432E-17, 0.0000000000000000000 ) ) ;
#130 = FACE_BOUND ( 'NONE', #13, .T. ) ;
#131 = VERTEX_POINT ( 'NONE', #170 ) ;
#132 = SURFACE_STYLE_FILL_AREA ( #117 ) ;
#133 = DIRECTION ( 'NONE',  ( -2.721437331438564086E-17, -1.000000000000000000, 0.0000000000000000000 ) ) ;
#134 = AXIS2_PLACEMENT_3D ( 'NONE', #114, #1, #98 ) ;
#135 = ADVANCED_FACE ( 'NONE', ( #32, #148 ), #93, .T. ) ;
#136 = CARTESIAN_POINT ( 'NONE',  ( 45.00000000000000000, -1.224646799147353651E-15, 0.0000000000000000000 ) ) ;
#137 = AXIS2_PLACEMENT_3D ( 'NONE', #51, #192, #209 ) ;
#138 = PRESENTATION_STYLE_ASSIGNMENT (( #211 ) ) ;
#139 = ADVANCED_BREP_SHAPE_REPRESENTATION ( '03-2268', ( #163, #62, #34 ), #161 ) ;
#140 = FACE_OUTER_BOUND ( 'NONE', #60, .T. ) ;
#141 = DIRECTION ( 'NONE',  ( -1.000000000000000000, -2.104674681149008263E-17, 0.0000000000000000000 ) ) ;
#142 = AXIS2_PLACEMENT_3D ( 'NONE', #64, #166, #50 ) ;
#143 = SURFACE_SIDE_STYLE ('',( #223 ) ) ;
#144 = PLANE ( 'NONE',  #162 ) ;
#145 = AXIS2_PLACEMENT_3D ( 'NONE', #54, #36, #152 ) ;
#146 = AXIS2_PLACEMENT_3D ( 'NONE', #203, #80, #186 ) ;
#147 = PRODUCT_CONTEXT ( 'NONE', #178, 'mechanical' ) ;
#148 = FACE_OUTER_BOUND ( 'NONE', #76, .T. ) ;
#149 = DIRECTION ( 'NONE',  ( 2.721437331438564086E-17, 1.000000000000000000, 0.0000000000000000000 ) ) ;
#150 = FACE_OUTER_BOUND ( 'NONE', #172, .T. ) ;
#151 =( LENGTH_UNIT ( ) NAMED_UNIT ( * ) SI_UNIT ( .MILLI., .METRE. ) );
#152 = DIRECTION ( 'NONE',  ( 0.0000000000000000000, 1.000000000000000000, 0.0000000000000000000 ) ) ;
#153 = DIRECTION ( 'NONE',  ( -1.000000000000000000, 2.721437331438564086E-17, 0.0000000000000000000 ) ) ;
#154 = ADVANCED_FACE ( 'NONE', ( #158 ), #174, .T. ) ;
#155 = CIRCLE ( 'NONE', #134, 2.044700000000000628 ) ;
#156 = DIRECTION ( 'NONE',  ( 0.0000000000000000000, 0.0000000000000000000, 1.000000000000000000 ) ) ;
#157 =( NAMED_UNIT ( * ) PLANE_ANGLE_UNIT ( ) SI_UNIT ( $, .RADIAN. ) );
#158 = FACE_OUTER_BOUND ( 'NONE', #160, .T. ) ;
#159 = STYLED_ITEM ( 'NONE', ( #84 ), #62 ) ;
#160 = EDGE_LOOP ( 'NONE', ( #127 ) ) ;
#161 =( GEOMETRIC_REPRESENTATION_CONTEXT ( 3 ) GLOBAL_UNCERTAINTY_ASSIGNED_CONTEXT ( ( #185 ) ) GLOBAL_UNIT_ASSIGNED_CONTEXT ( ( #151, #157, #57 ) ) REPRESENTATION_CONTEXT ( 'NONE', 'WORKASPACE' ) );
#162 = AXIS2_PLACEMENT_3D ( 'NONE', #97, #141, #28 ) ;
#163 = MANIFOLD_SOLID_BREP ( 'È¸Àü1', #79 ) ;
#164 = DIRECTION ( 'NONE',  ( 1.000000000000000000, -2.721437331438564086E-17, -0.0000000000000000000 ) ) ;
#165 = ORIENTED_EDGE ( 'NONE', *, *, #61, .F. ) ;
#166 = DIRECTION ( 'NONE',  ( 1.000000000000000000, -2.721437331438564086E-17, -0.0000000000000000000 ) ) ;
#167 = FACE_OUTER_BOUND ( 'NONE', #122, .T. ) ;
#168 = FACE_OUTER_BOUND ( 'NONE', #96, .T. ) ;
#169 =( NAMED_UNIT ( * ) SI_UNIT ( $, .STERADIAN. ) SOLID_ANGLE_UNIT ( ) );
#170 = CARTESIAN_POINT ( 'NONE',  ( 0.6000000000000034195, 3.000000000000000000, 0.0000000000000000000 ) ) ;
#171 = EDGE_LOOP ( 'NONE', ( #165 ) ) ;
#172 = EDGE_LOOP ( 'NONE', ( #41 ) ) ;
#173 = ADVANCED_FACE ( 'NONE', ( #168, #12 ), #85, .T. ) ;
#174 = PLANE ( 'NONE',  #45 ) ;
#175 = PRESENTATION_LAYER_ASSIGNMENT (  '', '', ( #159 ) ) ;
#176 = EDGE_CURVE ( 'NONE', #181, #181, #198, .T. ) ;
#177 = PRODUCT_DEFINITION_CONTEXT ( 'detailed design', #20, 'design' ) ;
#178 = APPLICATION_CONTEXT ( 'automotive_design' ) ;
#179 = AXIS2_PLACEMENT_3D ( 'NONE', #103, #7, #191 ) ;
#180 = CARTESIAN_POINT ( 'NONE',  ( 45.00000000000000000, -1.224646799147353651E-15, 0.0000000000000000000 ) ) ;
#181 = VERTEX_POINT ( 'NONE', #216 ) ;
#182 = ORIENTED_EDGE ( 'NONE', *, *, #106, .F. ) ;
#183 = CIRCLE ( 'NONE', #215, 3.000000000000000000 ) ;
#184 = VERTEX_POINT ( 'NONE', #70 ) ;
#185 = UNCERTAINTY_MEASURE_WITH_UNIT (LENGTH_MEASURE( 1.000000000000000082E-05 ), #151, 'distance_accuracy_value', 'NONE');
#186 = DIRECTION ( 'NONE',  ( 0.0000000000000000000, 1.000000000000000000, 0.0000000000000000000 ) ) ;
#187 = MECHANICAL_DESIGN_GEOMETRIC_PRESENTATION_REPRESENTATION (  '', ( #159 ), #199 ) ;
#188 = FILL_AREA_STYLE ('',( #18 ) ) ;
#189 = STYLED_ITEM ( 'NONE', ( #75 ), #139 ) ;
#190 = AXIS2_PLACEMENT_3D ( 'NONE', #180, #196, #69 ) ;
#191 = DIRECTION ( 'NONE',  ( 0.0000000000000000000, 1.000000000000000000, 0.0000000000000000000 ) ) ;
#192 = DIRECTION ( 'NONE',  ( 1.000000000000000000, -2.721437331438564086E-17, -0.0000000000000000000 ) ) ;
#193 = ORIENTED_EDGE ( 'NONE', *, *, #106, .T. ) ;
#194 =( NAMED_UNIT ( * ) PLANE_ANGLE_UNIT ( ) SI_UNIT ( $, .RADIAN. ) );
#195 = FILL_AREA_STYLE_COLOUR ( '', #77 ) ;
#196 = DIRECTION ( 'NONE',  ( 1.000000000000000000, 2.104674681149008263E-17, -0.0000000000000000000 ) ) ;
#197 = DIRECTION ( 'NONE',  ( -1.000000000000000000, 2.721437331438564086E-17, 0.0000000000000000000 ) ) ;
#198 = CIRCLE ( 'NONE', #137, 2.399999999999997691 ) ;
#199 =( GEOMETRIC_REPRESENTATION_CONTEXT ( 3 ) GLOBAL_UNCERTAINTY_ASSIGNED_CONTEXT ( ( #210 ) ) GLOBAL_UNIT_ASSIGNED_CONTEXT ( ( #128, #17, #112 ) ) REPRESENTATION_CONTEXT ( 'NONE', 'WORKASPACE' ) );
#200 = PRESENTATION_LAYER_ASSIGNMENT (  '', '', ( #189 ) ) ;
#201 = COLOUR_RGB ( '',0.7921568627450980005, 0.8196078431372548767, 0.9333333333333333481 ) ;
#202 = AXIS2_PLACEMENT_3D ( 'NONE', #126, #31, #149 ) ;
#203 = CARTESIAN_POINT ( 'NONE',  ( 73.25579006199588150, -6.299543397539085479E-16, 0.0000000000000000000 ) ) ;
#204 = DIRECTION ( 'NONE',  ( -1.000000000000000000, -2.104674681149008263E-17, 0.0000000000000000000 ) ) ;
#205 = ORIENTED_EDGE ( 'NONE', *, *, #95, .T. ) ;
#206 = CIRCLE ( 'NONE', #190, 2.044700000000000628 ) ;
#207 = PRODUCT ( '03-2268', '03-2268', '', ( #147 ) ) ;
#208 = CARTESIAN_POINT ( 'NONE',  ( 45.00000000000000000, 2.044699999999999296, 0.0000000000000000000 ) ) ;
#209 = DIRECTION ( 'NONE',  ( 2.721437331438563778E-17, 1.000000000000000000, 0.0000000000000000000 ) ) ;
#210 = UNCERTAINTY_MEASURE_WITH_UNIT (LENGTH_MEASURE( 1.000000000000000082E-05 ), #128, 'distance_accuracy_value', 'NONE');
#211 = SURFACE_STYLE_USAGE ( .BOTH. , #21 ) ;
#212 = DIRECTION ( 'NONE',  ( 1.000000000000000000, -2.721437331438564086E-17, -0.0000000000000000000 ) ) ;
#213 = EDGE_LOOP ( 'NONE', ( #47 ) ) ;
#214 = ADVANCED_FACE ( 'NONE', ( #15, #39 ), #121, .T. ) ;
#215 = AXIS2_PLACEMENT_3D ( 'NONE', #63, #164, #49 ) ;
#216 = CARTESIAN_POINT ( 'NONE',  ( 6.531449595452546658E-17, 2.399999999999997691, 0.0000000000000000000 ) ) ;
#217 = FILL_AREA_STYLE_COLOUR ( '', #201 ) ;
#218 = VERTEX_POINT ( 'NONE', #52 ) ;
#219 = MECHANICAL_DESIGN_GEOMETRIC_PRESENTATION_REPRESENTATION (  '', ( #189 ), #3 ) ;
#220 = AXIS2_PLACEMENT_3D ( 'NONE', #129, #5, #19 ) ;
#221 = ORIENTED_EDGE ( 'NONE', *, *, #71, .F. ) ;
#222 = PLANE ( 'NONE',  #202 ) ;
#223 = SURFACE_STYLE_FILL_AREA ( #188 ) ;
ENDSEC;
END-ISO-10303-21;
