ISO-10303-21;
HEADER;
FILE_DESCRIPTION (( 'STEP AP214' ),
    '1' );
FILE_NAME ('03-2269.STEP',
    '2022-06-20T08:15:46',
    ( 'USER' ),
    ( '' ),
    'SwSTEP 2.0',
    'SolidWorks 2018',
    '' );
FILE_SCHEMA (( 'AUTOMOTIVE_DESIGN' ));
ENDSEC;

DATA;
#1 = SURFACE_STYLE_FILL_AREA ( #129 ) ;
#2 = PRODUCT_DEFINITION_SHAPE ( 'NONE', 'NONE',  #146 ) ;
#3 = PLANE ( 'NONE',  #95 ) ;
#4 = DIRECTION ( 'NONE',  ( 0.0000000000000000000, 1.000000000000000000, 0.0000000000000000000 ) ) ;
#5 = DIRECTION ( 'NONE',  ( -1.000000000000000000, 2.721437331438564086E-17, 0.0000000000000000000 ) ) ;
#6 = ORIENTED_EDGE ( 'NONE', *, *, #216, .F. ) ;
#7 = COLOUR_RGB ( '',0.7921568627450980005, 0.8196078431372548767, 0.9333333333333333481 ) ;
#8 = EDGE_CURVE ( 'NONE', #148, #148, #103, .T. ) ;
#9 = FACE_OUTER_BOUND ( 'NONE', #201, .T. ) ;
#10 = APPLICATION_PROTOCOL_DEFINITION ( 'draft international standard', 'automotive_design', 1998, #109 ) ;
#11 = CARTESIAN_POINT ( 'NONE',  ( 0.6000000000000034195, 3.000000000000000000, 0.0000000000000000000 ) ) ;
#12 = ADVANCED_FACE ( 'NONE', ( #70 ), #3, .T. ) ;
#13 = PRESENTATION_LAYER_ASSIGNMENT (  '', '', ( #200 ) ) ;
#14 = PRODUCT_DEFINITION_CONTEXT ( 'detailed design', #109, 'design' ) ;
#15 = EDGE_CURVE ( 'NONE', #110, #110, #209, .T. ) ;
#16 = FACE_BOUND ( 'NONE', #157, .T. ) ;
#17 = PLANE ( 'NONE',  #138 ) ;
#18 = UNCERTAINTY_MEASURE_WITH_UNIT (LENGTH_MEASURE( 1.000000000000000082E-05 ), #42, 'distance_accuracy_value', 'NONE');
#19 = CLOSED_SHELL ( 'NONE', ( #125, #144, #81, #60, #45, #12 ) ) ;
#20 = DIRECTION ( 'NONE',  ( 0.0000000000000000000, 1.000000000000000000, 0.0000000000000000000 ) ) ;
#21 = DIRECTION ( 'NONE',  ( 0.0000000000000000000, 1.000000000000000000, 0.0000000000000000000 ) ) ;
#22 = CARTESIAN_POINT ( 'NONE',  ( 73.23267795211997111, -6.304407744787460593E-16, 0.0000000000000000000 ) ) ;
#23 = CARTESIAN_POINT ( 'NONE',  ( 0.0000000000000000000, 1.925929944387235853E-31, 0.0000000000000000000 ) ) ;
#24 = CONICAL_SURFACE ( 'NONE', #178, 2.108200000000000962, 0.7853981633974492782 ) ;
#25 = MECHANICAL_DESIGN_GEOMETRIC_PRESENTATION_REPRESENTATION (  '', ( #200 ), #33 ) ;
#26 = EDGE_LOOP ( 'NONE', ( #217 ) ) ;
#27 = SURFACE_STYLE_USAGE ( .BOTH. , #123 ) ;
#28 = VERTEX_POINT ( 'NONE', #86 ) ;
#29 = EDGE_CURVE ( 'NONE', #155, #155, #118, .T. ) ;
#30 = ORIENTED_EDGE ( 'NONE', *, *, #15, .F. ) ;
#31 = CIRCLE ( 'NONE', #189, 2.108200000000000962 ) ;
#32 = DIRECTION ( 'NONE',  ( 1.000000000000000000, -2.721437331438564086E-17, -0.0000000000000000000 ) ) ;
#33 =( GEOMETRIC_REPRESENTATION_CONTEXT ( 3 ) GLOBAL_UNCERTAINTY_ASSIGNED_CONTEXT ( ( #133 ) ) GLOBAL_UNIT_ASSIGNED_CONTEXT ( ( #108, #99, #142 ) ) REPRESENTATION_CONTEXT ( 'NONE', 'WORKASPACE' ) );
#34 = EDGE_LOOP ( 'NONE', ( #212 ) ) ;
#35 = MANIFOLD_SOLID_BREP ( 'È¸Àü3', #106 ) ;
#36 = DIRECTION ( 'NONE',  ( 1.000000000000000000, -2.721437331438564086E-17, -0.0000000000000000000 ) ) ;
#37 = DIRECTION ( 'NONE',  ( 2.721437331438563778E-17, 1.000000000000000000, 0.0000000000000000000 ) ) ;
#38 = DIRECTION ( 'NONE',  ( 1.000000000000000000, 2.104674681149008263E-17, -0.0000000000000000000 ) ) ;
#39 = DIRECTION ( 'NONE',  ( -2.721437331438564086E-17, -1.000000000000000000, 0.0000000000000000000 ) ) ;
#40 = EDGE_LOOP ( 'NONE', ( #113 ) ) ;
#41 = EDGE_CURVE ( 'NONE', #28, #28, #61, .T. ) ;
#42 =( LENGTH_UNIT ( ) NAMED_UNIT ( * ) SI_UNIT ( .MILLI., .METRE. ) );
#43 = FACE_BOUND ( 'NONE', #183, .T. ) ;
#44 = DIRECTION ( 'NONE',  ( 1.000000000000000000, 0.0000000000000000000, 0.0000000000000000000 ) ) ;
#45 = ADVANCED_FACE ( 'NONE', ( #162, #91 ), #140, .T. ) ;
#46 = ORIENTED_EDGE ( 'NONE', *, *, #29, .F. ) ;
#47 =( GEOMETRIC_REPRESENTATION_CONTEXT ( 3 ) GLOBAL_UNCERTAINTY_ASSIGNED_CONTEXT ( ( #96 ) ) GLOBAL_UNIT_ASSIGNED_CONTEXT ( ( #124, #143, #192 ) ) REPRESENTATION_CONTEXT ( 'NONE', 'WORKASPACE' ) );
#48 = CARTESIAN_POINT ( 'NONE',  ( 36.00000000000000000, -9.797174393178827630E-16, 0.0000000000000000000 ) ) ;
#49 = ORIENTED_EDGE ( 'NONE', *, *, #206, .F. ) ;
#50 = EDGE_CURVE ( 'NONE', #204, #204, #31, .T. ) ;
#51 = PRESENTATION_STYLE_ASSIGNMENT (( #195 ) ) ;
#52 = CARTESIAN_POINT ( 'NONE',  ( 45.00000000000000000, 2.108199999999999630, 0.0000000000000000000 ) ) ;
#53 = DIRECTION ( 'NONE',  ( 1.000000000000000000, -2.721437331438564086E-17, -0.0000000000000000000 ) ) ;
#54 = CARTESIAN_POINT ( 'NONE',  ( 73.99999999999998579, -6.142911416141415075E-16, 0.0000000000000000000 ) ) ;
#55 = DIRECTION ( 'NONE',  ( 1.000000000000000000, -2.721437331438564086E-17, -0.0000000000000000000 ) ) ;
#56 = DIRECTION ( 'NONE',  ( -1.000000000000000000, -2.104674681149008263E-17, 0.0000000000000000000 ) ) ;
#57 = ADVANCED_BREP_SHAPE_REPRESENTATION ( '03-2269', ( #218, #35, #134 ), #47 ) ;
#58 = SURFACE_SIDE_STYLE ('',( #219 ) ) ;
#59 = PRESENTATION_STYLE_ASSIGNMENT (( #27 ) ) ;
#60 = ADVANCED_FACE ( 'NONE', ( #179, #16 ), #24, .T. ) ;
#61 = CIRCLE ( 'NONE', #165, 2.108200000000000518 ) ;
#62 = AXIS2_PLACEMENT_3D ( 'NONE', #72, #153, #97 ) ;
#63 = DIRECTION ( 'NONE',  ( 0.0000000000000000000, 1.000000000000000000, 0.0000000000000000000 ) ) ;
#64 = EDGE_LOOP ( 'NONE', ( #147 ) ) ;
#65 = SHAPE_DEFINITION_REPRESENTATION ( #2, #57 ) ;
#66 = SURFACE_STYLE_FILL_AREA ( #85 ) ;
#67 = FACE_OUTER_BOUND ( 'NONE', #83, .T. ) ;
#68 = DIRECTION ( 'NONE',  ( 2.721437331438564086E-17, 1.000000000000000000, 0.0000000000000000000 ) ) ;
#69 = STYLED_ITEM ( 'NONE', ( #122 ), #57 ) ;
#70 = FACE_OUTER_BOUND ( 'NONE', #88, .T. ) ;
#71 = CARTESIAN_POINT ( 'NONE',  ( 36.89179999999999637, 2.108200000000000074, 0.0000000000000000000 ) ) ;
#72 = CARTESIAN_POINT ( 'NONE',  ( 0.6000000000000033085, -1.632862398863135432E-17, 0.0000000000000000000 ) ) ;
#73 = DIRECTION ( 'NONE',  ( 0.0000000000000000000, 1.000000000000000000, 0.0000000000000000000 ) ) ;
#74 = VERTEX_POINT ( 'NONE', #71 ) ;
#75 = CARTESIAN_POINT ( 'NONE',  ( 45.00000000000000000, -1.224646799147353651E-15, 0.0000000000000000000 ) ) ;
#76 = DIRECTION ( 'NONE',  ( 0.0000000000000000000, 1.000000000000000000, 0.0000000000000000000 ) ) ;
#77 = DIRECTION ( 'NONE',  ( 4.040881343605489094E-17, -1.000000000000000000, 0.0000000000000000000 ) ) ;
#78 =( LENGTH_UNIT ( ) NAMED_UNIT ( * ) SI_UNIT ( .MILLI., .METRE. ) );
#79 = FILL_AREA_STYLE_COLOUR ( '', #7 ) ;
#80 = FACE_OUTER_BOUND ( 'NONE', #120, .T. ) ;
#81 = ADVANCED_FACE ( 'NONE', ( #67, #9 ), #150, .T. ) ;
#82 = PRESENTATION_LAYER_ASSIGNMENT (  '', '', ( #69 ) ) ;
#83 = EDGE_LOOP ( 'NONE', ( #220 ) ) ;
#84 = AXIS2_PLACEMENT_3D ( 'NONE', #23, #172, #37 ) ;
#85 = FILL_AREA_STYLE ('',( #152 ) ) ;
#86 = CARTESIAN_POINT ( 'NONE',  ( 73.23267795211997111, 2.108200000000000074, 0.0000000000000000000 ) ) ;
#87 = CARTESIAN_POINT ( 'NONE',  ( 45.00000000000000000, -1.224646799147353651E-15, 0.0000000000000000000 ) ) ;
#88 = EDGE_LOOP ( 'NONE', ( #115 ) ) ;
#89 = COLOUR_RGB ( '',0.5019607843137254832, 0.5019607843137254832, 0.5019607843137254832 ) ;
#90 = MECHANICAL_DESIGN_GEOMETRIC_PRESENTATION_REPRESENTATION (  '', ( #69 ), #98 ) ;
#91 = FACE_OUTER_BOUND ( 'NONE', #164, .T. ) ;
#92 =( NAMED_UNIT ( * ) PLANE_ANGLE_UNIT ( ) SI_UNIT ( $, .RADIAN. ) );
#93 = ORIENTED_EDGE ( 'NONE', *, *, #15, .T. ) ;
#94 = CONICAL_SURFACE ( 'NONE', #173, 2747.477419454629398, 1.221730476396031495 ) ;
#95 = AXIS2_PLACEMENT_3D ( 'NONE', #191, #207, #68 ) ;
#96 = UNCERTAINTY_MEASURE_WITH_UNIT (LENGTH_MEASURE( 1.000000000000000082E-05 ), #124, 'distance_accuracy_value', 'NONE');
#97 = DIRECTION ( 'NONE',  ( 3.614007241618347908E-17, 1.000000000000000000, 0.0000000000000000000 ) ) ;
#98 =( GEOMETRIC_REPRESENTATION_CONTEXT ( 3 ) GLOBAL_UNCERTAINTY_ASSIGNED_CONTEXT ( ( #18 ) ) GLOBAL_UNIT_ASSIGNED_CONTEXT ( ( #42, #92, #196 ) ) REPRESENTATION_CONTEXT ( 'NONE', 'WORKASPACE' ) );
#99 =( NAMED_UNIT ( * ) PLANE_ANGLE_UNIT ( ) SI_UNIT ( $, .RADIAN. ) );
#100 = PRODUCT ( '03-2269', '03-2269', '', ( #161 ) ) ;
#101 = CARTESIAN_POINT ( 'NONE',  ( 36.89179999999999637, -1.003987217439651824E-15, 0.0000000000000000000 ) ) ;
#102 = DIRECTION ( 'NONE',  ( 2.104674681149008263E-17, -1.000000000000000000, 0.0000000000000000000 ) ) ;
#103 = CIRCLE ( 'NONE', #62, 3.000000000000000000 ) ;
#104 = AXIS2_PLACEMENT_3D ( 'NONE', #48, #166, #63 ) ;
#105 = CARTESIAN_POINT ( 'NONE',  ( 45.00000000000000000, -1.224646799147353651E-15, 0.0000000000000000000 ) ) ;
#106 = CLOSED_SHELL ( 'NONE', ( #112, #215, #198 ) ) ;
#107 = SURFACE_SIDE_STYLE ('',( #1 ) ) ;
#108 =( LENGTH_UNIT ( ) NAMED_UNIT ( * ) SI_UNIT ( .MILLI., .METRE. ) );
#109 = APPLICATION_CONTEXT ( 'automotive_design' ) ;
#110 = VERTEX_POINT ( 'NONE', #136 ) ;
#111 = CARTESIAN_POINT ( 'NONE',  ( 0.0000000000000000000, 0.0000000000000000000, 0.0000000000000000000 ) ) ;
#112 = ADVANCED_FACE ( 'NONE', ( #80 ), #17, .T. ) ;
#113 = ORIENTED_EDGE ( 'NONE', *, *, #41, .T. ) ;
#114 = VERTEX_POINT ( 'NONE', #171 ) ;
#115 = ORIENTED_EDGE ( 'NONE', *, *, #206, .T. ) ;
#116 = STYLED_ITEM ( 'NONE', ( #51 ), #35 ) ;
#117 = DIRECTION ( 'NONE',  ( 1.000000000000000000, 2.104674681149008263E-17, -0.0000000000000000000 ) ) ;
#118 = CIRCLE ( 'NONE', #104, 3.000000000000000888 ) ;
#119 = CARTESIAN_POINT ( 'NONE',  ( -1.676943938292123753E-17, 4.563697836397793113E-34, 0.0000000000000000000 ) ) ;
#120 = EDGE_LOOP ( 'NONE', ( #130 ) ) ;
#121 = CIRCLE ( 'NONE', #187, 2.108200000000001406 ) ;
#122 = PRESENTATION_STYLE_ASSIGNMENT (( #160 ) ) ;
#123 = SURFACE_SIDE_STYLE ('',( #66 ) ) ;
#124 =( LENGTH_UNIT ( ) NAMED_UNIT ( * ) SI_UNIT ( .MILLI., .METRE. ) );
#125 = ADVANCED_FACE ( 'NONE', ( #199 ), #139, .T. ) ;
#126 = AXIS2_PLACEMENT_3D ( 'NONE', #193, #222, #76 ) ;
#127 = EDGE_LOOP ( 'NONE', ( #167 ) ) ;
#128 = PRESENTATION_LAYER_ASSIGNMENT (  '', '', ( #116 ) ) ;
#129 = FILL_AREA_STYLE ('',( #188 ) ) ;
#130 = ORIENTED_EDGE ( 'NONE', *, *, #50, .F. ) ;
#131 = DIRECTION ( 'NONE',  ( -1.000000000000000000, -2.104674681149008263E-17, 0.0000000000000000000 ) ) ;
#132 = CARTESIAN_POINT ( 'NONE',  ( 0.6000000000000033085, -1.632862398863135432E-17, 0.0000000000000000000 ) ) ;
#133 = UNCERTAINTY_MEASURE_WITH_UNIT (LENGTH_MEASURE( 1.000000000000000082E-05 ), #108, 'distance_accuracy_value', 'NONE');
#134 = AXIS2_PLACEMENT_3D ( 'NONE', #111, #182, #44 ) ;
#135 = CARTESIAN_POINT ( 'NONE',  ( 36.89179999999999637, -1.003987217439651824E-15, 0.0000000000000000000 ) ) ;
#136 = CARTESIAN_POINT ( 'NONE',  ( 6.531449595452546658E-17, 2.399999999999997691, 0.0000000000000000000 ) ) ;
#137 = CARTESIAN_POINT ( 'NONE',  ( 45.00000000000000000, -1.224646799147353651E-15, 0.0000000000000000000 ) ) ;
#138 = AXIS2_PLACEMENT_3D ( 'NONE', #87, #56, #102 ) ;
#139 = PLANE ( 'NONE',  #163 ) ;
#140 = CYLINDRICAL_SURFACE ( 'NONE', #202, 2.108200000000000962 ) ;
#141 = MECHANICAL_DESIGN_GEOMETRIC_PRESENTATION_REPRESENTATION (  '', ( #116 ), #151 ) ;
#142 =( NAMED_UNIT ( * ) SI_UNIT ( $, .STERADIAN. ) SOLID_ANGLE_UNIT ( ) );
#143 =( NAMED_UNIT ( * ) PLANE_ANGLE_UNIT ( ) SI_UNIT ( $, .RADIAN. ) );
#144 = ADVANCED_FACE ( 'NONE', ( #43, #214 ), #176, .T. ) ;
#145 = FACE_OUTER_BOUND ( 'NONE', #127, .T. ) ;
#146 = PRODUCT_DEFINITION ( 'UNKNOWN', '', #158, #14 ) ;
#147 = ORIENTED_EDGE ( 'NONE', *, *, #29, .T. ) ;
#148 = VERTEX_POINT ( 'NONE', #11 ) ;
#149 = AXIS2_PLACEMENT_3D ( 'NONE', #132, #32, #168 ) ;
#150 = CYLINDRICAL_SURFACE ( 'NONE', #126, 3.000000000000000444 ) ;
#151 =( GEOMETRIC_REPRESENTATION_CONTEXT ( 3 ) GLOBAL_UNCERTAINTY_ASSIGNED_CONTEXT ( ( #177 ) ) GLOBAL_UNIT_ASSIGNED_CONTEXT ( ( #78, #180, #159 ) ) REPRESENTATION_CONTEXT ( 'NONE', 'WORKASPACE' ) );
#152 = FILL_AREA_STYLE_COLOUR ( '', #89 ) ;
#153 = DIRECTION ( 'NONE',  ( 1.000000000000000000, -2.721437331438564086E-17, -0.0000000000000000000 ) ) ;
#154 = DIRECTION ( 'NONE',  ( 1.000000000000000000, 2.104674681149008263E-17, -0.0000000000000000000 ) ) ;
#155 = VERTEX_POINT ( 'NONE', #190 ) ;
#156 = DIRECTION ( 'NONE',  ( 0.0000000000000000000, 1.000000000000000000, 0.0000000000000000000 ) ) ;
#157 = EDGE_LOOP ( 'NONE', ( #6 ) ) ;
#158 = PRODUCT_DEFINITION_FORMATION_WITH_SPECIFIED_SOURCE ( 'ANY', '', #100, .NOT_KNOWN. ) ;
#159 =( NAMED_UNIT ( * ) SI_UNIT ( $, .STERADIAN. ) SOLID_ANGLE_UNIT ( ) );
#160 = SURFACE_STYLE_USAGE ( .BOTH. , #58 ) ;
#161 = PRODUCT_CONTEXT ( 'NONE', #197, 'mechanical' ) ;
#162 = FACE_OUTER_BOUND ( 'NONE', #185, .T. ) ;
#163 = AXIS2_PLACEMENT_3D ( 'NONE', #119, #210, #39 ) ;
#164 = EDGE_LOOP ( 'NONE', ( #49 ) ) ;
#165 = AXIS2_PLACEMENT_3D ( 'NONE', #22, #117, #4 ) ;
#166 = DIRECTION ( 'NONE',  ( 1.000000000000000000, -2.721437331438564086E-17, -0.0000000000000000000 ) ) ;
#167 = ORIENTED_EDGE ( 'NONE', *, *, #41, .F. ) ;
#168 = DIRECTION ( 'NONE',  ( 3.614007241618347908E-17, 1.000000000000000000, 0.0000000000000000000 ) ) ;
#169 = FACE_OUTER_BOUND ( 'NONE', #34, .T. ) ;
#170 = PRODUCT_RELATED_PRODUCT_CATEGORY ( 'part', '', ( #100 ) ) ;
#171 = CARTESIAN_POINT ( 'NONE',  ( 45.00000000000000000, 2.108200000000000074, 0.0000000000000000000 ) ) ;
#172 = DIRECTION ( 'NONE',  ( 1.000000000000000000, -2.721437331438564086E-17, -0.0000000000000000000 ) ) ;
#173 = AXIS2_PLACEMENT_3D ( 'NONE', #175, #131, #77 ) ;
#174 = EDGE_LOOP ( 'NONE', ( #30 ) ) ;
#175 = CARTESIAN_POINT ( 'NONE',  ( -926.0000000000000000, -2.166103795310422468E-14, 0.0000000000000000000 ) ) ;
#176 = CONICAL_SURFACE ( 'NONE', #149, 3.000000000000000000, 0.7853981633974476129 ) ;
#177 = UNCERTAINTY_MEASURE_WITH_UNIT (LENGTH_MEASURE( 1.000000000000000082E-05 ), #78, 'distance_accuracy_value', 'NONE');
#178 = AXIS2_PLACEMENT_3D ( 'NONE', #101, #5, #208 ) ;
#179 = FACE_OUTER_BOUND ( 'NONE', #64, .T. ) ;
#180 =( NAMED_UNIT ( * ) PLANE_ANGLE_UNIT ( ) SI_UNIT ( $, .RADIAN. ) );
#181 = FILL_AREA_STYLE ('',( #79 ) ) ;
#182 = DIRECTION ( 'NONE',  ( 0.0000000000000000000, 0.0000000000000000000, 1.000000000000000000 ) ) ;
#183 = EDGE_LOOP ( 'NONE', ( #93 ) ) ;
#184 = FACE_OUTER_BOUND ( 'NONE', #40, .T. ) ;
#185 = EDGE_LOOP ( 'NONE', ( #194 ) ) ;
#186 = CYLINDRICAL_SURFACE ( 'NONE', #221, 2.108200000000000962 ) ;
#187 = AXIS2_PLACEMENT_3D ( 'NONE', #75, #36, #21 ) ;
#188 = FILL_AREA_STYLE_COLOUR ( '', #205 ) ;
#189 = AXIS2_PLACEMENT_3D ( 'NONE', #137, #38, #156 ) ;
#190 = CARTESIAN_POINT ( 'NONE',  ( 36.00000000000000000, 3.000000000000000000, 0.0000000000000000000 ) ) ;
#191 = CARTESIAN_POINT ( 'NONE',  ( 45.00000000000000000, 2.108200000000000074, 0.0000000000000000000 ) ) ;
#192 =( NAMED_UNIT ( * ) SI_UNIT ( $, .STERADIAN. ) SOLID_ANGLE_UNIT ( ) );
#193 = CARTESIAN_POINT ( 'NONE',  ( 45.00000000000000000, -1.224646799147353651E-15, 0.0000000000000000000 ) ) ;
#194 = ORIENTED_EDGE ( 'NONE', *, *, #216, .T. ) ;
#195 = SURFACE_STYLE_USAGE ( .BOTH. , #107 ) ;
#196 =( NAMED_UNIT ( * ) SI_UNIT ( $, .STERADIAN. ) SOLID_ANGLE_UNIT ( ) );
#197 = APPLICATION_CONTEXT ( 'automotive_design' ) ;
#198 = ADVANCED_FACE ( 'NONE', ( #184 ), #94, .T. ) ;
#199 = FACE_OUTER_BOUND ( 'NONE', #174, .T. ) ;
#200 = STYLED_ITEM ( 'NONE', ( #59 ), #218 ) ;
#201 = EDGE_LOOP ( 'NONE', ( #46 ) ) ;
#202 = AXIS2_PLACEMENT_3D ( 'NONE', #105, #55, #203 ) ;
#203 = DIRECTION ( 'NONE',  ( 0.0000000000000000000, 1.000000000000000000, 0.0000000000000000000 ) ) ;
#204 = VERTEX_POINT ( 'NONE', #52 ) ;
#205 = COLOUR_RGB ( '',1.000000000000000000, 1.000000000000000000, 0.0000000000000000000 ) ;
#206 = EDGE_CURVE ( 'NONE', #114, #114, #121, .T. ) ;
#207 = DIRECTION ( 'NONE',  ( 1.000000000000000000, -2.721437331438564086E-17, -0.0000000000000000000 ) ) ;
#208 = DIRECTION ( 'NONE',  ( 0.0000000000000000000, -1.000000000000000000, 0.0000000000000000000 ) ) ;
#209 = CIRCLE ( 'NONE', #84, 2.399999999999997691 ) ;
#210 = DIRECTION ( 'NONE',  ( -1.000000000000000000, 2.721437331438564086E-17, 0.0000000000000000000 ) ) ;
#211 = AXIS2_PLACEMENT_3D ( 'NONE', #135, #53, #20 ) ;
#212 = ORIENTED_EDGE ( 'NONE', *, *, #50, .T. ) ;
#213 = APPLICATION_PROTOCOL_DEFINITION ( 'draft international standard', 'automotive_design', 1998, #197 ) ;
#214 = FACE_OUTER_BOUND ( 'NONE', #26, .T. ) ;
#215 = ADVANCED_FACE ( 'NONE', ( #169, #145 ), #186, .T. ) ;
#216 = EDGE_CURVE ( 'NONE', #74, #74, #223, .T. ) ;
#217 = ORIENTED_EDGE ( 'NONE', *, *, #8, .F. ) ;
#218 = MANIFOLD_SOLID_BREP ( 'È¸Àü1', #19 ) ;
#219 = SURFACE_STYLE_FILL_AREA ( #181 ) ;
#220 = ORIENTED_EDGE ( 'NONE', *, *, #8, .T. ) ;
#221 = AXIS2_PLACEMENT_3D ( 'NONE', #54, #154, #73 ) ;
#222 = DIRECTION ( 'NONE',  ( 1.000000000000000000, -2.721437331438564086E-17, -0.0000000000000000000 ) ) ;
#223 = CIRCLE ( 'NONE', #211, 2.108200000000000962 ) ;
ENDSEC;
END-ISO-10303-21;
