ISO-10303-21;
HEADER;
FILE_DESCRIPTION (( 'STEP AP214' ),
    '1' );
FILE_NAME ('03-2271.STEP',
    '2022-06-20T08:15:59',
    ( 'USER' ),
    ( '' ),
    'SwSTEP 2.0',
    'SolidWorks 2018',
    '' );
FILE_SCHEMA (( 'AUTOMOTIVE_DESIGN' ));
ENDSEC;

DATA;
#1 = FILL_AREA_STYLE_COLOUR ( '', #154 ) ;
#2 = CARTESIAN_POINT ( 'NONE',  ( 45.00000000000000000, 2.182812499999999378, 0.0000000000000000000 ) ) ;
#3 = DIRECTION ( 'NONE',  ( 0.0000000000000000000, 1.000000000000000000, 0.0000000000000000000 ) ) ;
#4 = MECHANICAL_DESIGN_GEOMETRIC_PRESENTATION_REPRESENTATION (  '', ( #205 ), #18 ) ;
#5 = ORIENTED_EDGE ( 'NONE', *, *, #76, .T. ) ;
#6 = ADVANCED_BREP_SHAPE_REPRESENTATION ( '03-2271', ( #168, #67, #134 ), #30 ) ;
#7 = VERTEX_POINT ( 'NONE', #21 ) ;
#8 = CARTESIAN_POINT ( 'NONE',  ( 0.0000000000000000000, 1.925929944387235853E-31, 0.0000000000000000000 ) ) ;
#9 = DIRECTION ( 'NONE',  ( 0.0000000000000000000, 1.000000000000000000, 0.0000000000000000000 ) ) ;
#10 = ADVANCED_FACE ( 'NONE', ( #32, #96 ), #26, .T. ) ;
#11 =( LENGTH_UNIT ( ) NAMED_UNIT ( * ) SI_UNIT ( .MILLI., .METRE. ) );
#12 = DIRECTION ( 'NONE',  ( 0.0000000000000000000, 1.000000000000000000, 0.0000000000000000000 ) ) ;
#13 = FACE_OUTER_BOUND ( 'NONE', #127, .T. ) ;
#14 = FACE_OUTER_BOUND ( 'NONE', #89, .T. ) ;
#15 = PLANE ( 'NONE',  #172 ) ;
#16 = CARTESIAN_POINT ( 'NONE',  ( -1.676943938292123753E-17, 4.563697836397793113E-34, 0.0000000000000000000 ) ) ;
#17 = VERTEX_POINT ( 'NONE', #2 ) ;
#18 =( GEOMETRIC_REPRESENTATION_CONTEXT ( 3 ) GLOBAL_UNCERTAINTY_ASSIGNED_CONTEXT ( ( #206 ) ) GLOBAL_UNIT_ASSIGNED_CONTEXT ( ( #11, #115, #217 ) ) REPRESENTATION_CONTEXT ( 'NONE', 'WORKASPACE' ) );
#19 = AXIS2_PLACEMENT_3D ( 'NONE', #107, #88, #3 ) ;
#20 = EDGE_CURVE ( 'NONE', #7, #7, #57, .T. ) ;
#21 = CARTESIAN_POINT ( 'NONE',  ( 0.6000000000000034195, 3.000000000000000000, 0.0000000000000000000 ) ) ;
#22 = CIRCLE ( 'NONE', #192, 2.182812500000000711 ) ;
#23 = DIRECTION ( 'NONE',  ( 4.040881343605456430E-17, -1.000000000000000000, 0.0000000000000000000 ) ) ;
#24 = DIRECTION ( 'NONE',  ( 0.0000000000000000000, 1.000000000000000000, 0.0000000000000000000 ) ) ;
#25 = ADVANCED_FACE ( 'NONE', ( #119 ), #203, .T. ) ;
#26 = CONICAL_SURFACE ( 'NONE', #86, 3.000000000000000000, 0.7853981633974476129 ) ;
#27 = SURFACE_SIDE_STYLE ('',( #156 ) ) ;
#28 = CARTESIAN_POINT ( 'NONE',  ( 45.00000000000000000, -1.224646799147353651E-15, 0.0000000000000000000 ) ) ;
#29 = AXIS2_PLACEMENT_3D ( 'NONE', #42, #147, #24 ) ;
#30 =( GEOMETRIC_REPRESENTATION_CONTEXT ( 3 ) GLOBAL_UNCERTAINTY_ASSIGNED_CONTEXT ( ( #186 ) ) GLOBAL_UNIT_ASSIGNED_CONTEXT ( ( #190, #53, #158 ) ) REPRESENTATION_CONTEXT ( 'NONE', 'WORKASPACE' ) );
#31 = ORIENTED_EDGE ( 'NONE', *, *, #65, .T. ) ;
#32 = FACE_BOUND ( 'NONE', #162, .T. ) ;
#33 = EDGE_CURVE ( 'NONE', #187, #187, #222, .T. ) ;
#34 = ORIENTED_EDGE ( 'NONE', *, *, #54, .F. ) ;
#35 = DIRECTION ( 'NONE',  ( 1.000000000000000000, 0.0000000000000000000, 0.0000000000000000000 ) ) ;
#36 = VERTEX_POINT ( 'NONE', #210 ) ;
#37 =( NAMED_UNIT ( * ) PLANE_ANGLE_UNIT ( ) SI_UNIT ( $, .RADIAN. ) );
#38 = AXIS2_PLACEMENT_3D ( 'NONE', #59, #164, #196 ) ;
#39 = AXIS2_PLACEMENT_3D ( 'NONE', #87, #126, #159 ) ;
#40 = EDGE_LOOP ( 'NONE', ( #68 ) ) ;
#41 = ADVANCED_FACE ( 'NONE', ( #108 ), #15, .T. ) ;
#42 = CARTESIAN_POINT ( 'NONE',  ( 73.20552122301579345, -6.310123352804299405E-16, 0.0000000000000000000 ) ) ;
#43 = EDGE_CURVE ( 'NONE', #120, #120, #138, .T. ) ;
#44 = DIRECTION ( 'NONE',  ( 1.000000000000000000, 2.104674681149008263E-17, -0.0000000000000000000 ) ) ;
#45 = ORIENTED_EDGE ( 'NONE', *, *, #43, .T. ) ;
#46 = SURFACE_STYLE_FILL_AREA ( #71 ) ;
#47 = UNCERTAINTY_MEASURE_WITH_UNIT (LENGTH_MEASURE( 1.000000000000000082E-05 ), #161, 'distance_accuracy_value', 'NONE');
#48 = CARTESIAN_POINT ( 'NONE',  ( 0.6000000000000033085, -1.632862398863135432E-17, 0.0000000000000000000 ) ) ;
#49 = FACE_OUTER_BOUND ( 'NONE', #207, .T. ) ;
#50 = EDGE_LOOP ( 'NONE', ( #204 ) ) ;
#51 = AXIS2_PLACEMENT_3D ( 'NONE', #8, #112, #216 ) ;
#52 = FACE_OUTER_BOUND ( 'NONE', #122, .T. ) ;
#53 =( NAMED_UNIT ( * ) PLANE_ANGLE_UNIT ( ) SI_UNIT ( $, .RADIAN. ) );
#54 = EDGE_CURVE ( 'NONE', #136, #136, #211, .T. ) ;
#55 = PLANE ( 'NONE',  #39 ) ;
#56 = SURFACE_STYLE_USAGE ( .BOTH. , #175 ) ;
#57 = CIRCLE ( 'NONE', #102, 3.000000000000000000 ) ;
#58 = CYLINDRICAL_SURFACE ( 'NONE', #82, 2.182812500000000711 ) ;
#59 = CARTESIAN_POINT ( 'NONE',  ( 36.81718749999999574, -1.001956685010732275E-15, 0.0000000000000000000 ) ) ;
#60 = FILL_AREA_STYLE ('',( #218 ) ) ;
#61 = FACE_OUTER_BOUND ( 'NONE', #50, .T. ) ;
#62 = AXIS2_PLACEMENT_3D ( 'NONE', #128, #163, #23 ) ;
#64 = DIRECTION ( 'NONE',  ( 2.721437331438564086E-17, 1.000000000000000000, 0.0000000000000000000 ) ) ;
#63 = STYLED_ITEM ( 'NONE', ( #214 ), #6 ) ;
#65 = EDGE_CURVE ( 'NONE', #17, #17, #22, .T. ) ;
#66 = EDGE_LOOP ( 'NONE', ( #45 ) ) ;
#67 = MANIFOLD_SOLID_BREP ( 'È¸Àü3', #173 ) ;
#68 = ORIENTED_EDGE ( 'NONE', *, *, #33, .T. ) ;
#69 =( NAMED_UNIT ( * ) PLANE_ANGLE_UNIT ( ) SI_UNIT ( $, .RADIAN. ) );
#70 = ORIENTED_EDGE ( 'NONE', *, *, #20, .F. ) ;
#71 = FILL_AREA_STYLE ('',( #193 ) ) ;
#72 = AXIS2_PLACEMENT_3D ( 'NONE', #113, #93, #9 ) ;
#73 = PRESENTATION_LAYER_ASSIGNMENT (  '', '', ( #63 ) ) ;
#74 = ORIENTED_EDGE ( 'NONE', *, *, #43, .F. ) ;
#75 = DIRECTION ( 'NONE',  ( 0.0000000000000000000, 1.000000000000000000, 0.0000000000000000000 ) ) ;
#76 = EDGE_CURVE ( 'NONE', #212, #212, #165, .T. ) ;
#77 = ADVANCED_FACE ( 'NONE', ( #202, #140 ), #178, .T. ) ;
#78 = DIRECTION ( 'NONE',  ( 0.0000000000000000000, 1.000000000000000000, 0.0000000000000000000 ) ) ;
#79 = DIRECTION ( 'NONE',  ( -2.721437331438564086E-17, -1.000000000000000000, 0.0000000000000000000 ) ) ;
#80 = DIRECTION ( 'NONE',  ( 3.614007241618347908E-17, 1.000000000000000000, 0.0000000000000000000 ) ) ;
#81 = ORIENTED_EDGE ( 'NONE', *, *, #54, .T. ) ;
#82 = AXIS2_PLACEMENT_3D ( 'NONE', #194, #179, #75 ) ;
#83 = EDGE_LOOP ( 'NONE', ( #176 ) ) ;
#84 = MECHANICAL_DESIGN_GEOMETRIC_PRESENTATION_REPRESENTATION (  '', ( #63 ), #99 ) ;
#85 = SURFACE_STYLE_USAGE ( .BOTH. , #209 ) ;
#86 = AXIS2_PLACEMENT_3D ( 'NONE', #48, #135, #151 ) ;
#87 = CARTESIAN_POINT ( 'NONE',  ( 45.00000000000000000, -1.224646799147353651E-15, 0.0000000000000000000 ) ) ;
#88 = DIRECTION ( 'NONE',  ( 1.000000000000000000, 2.104674681149008263E-17, -0.0000000000000000000 ) ) ;
#89 = EDGE_LOOP ( 'NONE', ( #74 ) ) ;
#90 = CONICAL_SURFACE ( 'NONE', #62, 2747.477419454651681, 1.221730476396034160 ) ;
#91 = PRODUCT ( '03-2271', '03-2271', '', ( #141 ) ) ;
#92 = CIRCLE ( 'NONE', #51, 2.399999999999997691 ) ;
#93 = DIRECTION ( 'NONE',  ( 1.000000000000000000, -2.721437331438564086E-17, -0.0000000000000000000 ) ) ;
#94 = ADVANCED_FACE ( 'NONE', ( #13, #49 ), #150, .T. ) ;
#95 = CARTESIAN_POINT ( 'NONE',  ( 36.00000000000000000, -9.797174393178827630E-16, 0.0000000000000000000 ) ) ;
#96 = FACE_OUTER_BOUND ( 'NONE', #145, .T. ) ;
#97 = DIRECTION ( 'NONE',  ( 0.0000000000000000000, 1.000000000000000000, 0.0000000000000000000 ) ) ;
#98 = STYLED_ITEM ( 'NONE', ( #139 ), #168 ) ;
#100 = CARTESIAN_POINT ( 'NONE',  ( 0.6000000000000033085, -1.632862398863135432E-17, 0.0000000000000000000 ) ) ;
#99 =( GEOMETRIC_REPRESENTATION_CONTEXT ( 3 ) GLOBAL_UNCERTAINTY_ASSIGNED_CONTEXT ( ( #152 ) ) GLOBAL_UNIT_ASSIGNED_CONTEXT ( ( #188, #69, #174 ) ) REPRESENTATION_CONTEXT ( 'NONE', 'WORKASPACE' ) );
#101 = APPLICATION_PROTOCOL_DEFINITION ( 'draft international standard', 'automotive_design', 1998, #201 ) ;
#102 = AXIS2_PLACEMENT_3D ( 'NONE', #100, #200, #80 ) ;
#103 = COLOUR_RGB ( '',1.000000000000000000, 1.000000000000000000, 0.0000000000000000000 ) ;
#104 = COLOUR_RGB ( '',0.5019607843137254832, 0.5019607843137254832, 0.5019607843137254832 ) ;
#105 = FILL_AREA_STYLE ('',( #1 ) ) ;
#106 = CARTESIAN_POINT ( 'NONE',  ( 73.20552122301579345, 2.182812499999999822, 0.0000000000000000000 ) ) ;
#107 = CARTESIAN_POINT ( 'NONE',  ( 73.99999999999998579, -6.142911416141415075E-16, 0.0000000000000000000 ) ) ;
#108 = FACE_OUTER_BOUND ( 'NONE', #83, .T. ) ;
#109 = PRESENTATION_LAYER_ASSIGNMENT (  '', '', ( #98 ) ) ;
#110 = PRESENTATION_STYLE_ASSIGNMENT (( #129 ) ) ;
#111 = PRODUCT_DEFINITION_SHAPE ( 'NONE', 'NONE',  #146 ) ;
#112 = DIRECTION ( 'NONE',  ( 1.000000000000000000, -2.721437331438564086E-17, -0.0000000000000000000 ) ) ;
#113 = CARTESIAN_POINT ( 'NONE',  ( 45.00000000000000000, -1.224646799147353651E-15, 0.0000000000000000000 ) ) ;
#114 = ADVANCED_FACE ( 'NONE', ( #223, #14 ), #58, .T. ) ;
#115 =( NAMED_UNIT ( * ) PLANE_ANGLE_UNIT ( ) SI_UNIT ( $, .RADIAN. ) );
#116 = CARTESIAN_POINT ( 'NONE',  ( 36.81718749999999574, -1.001956685010732275E-15, 0.0000000000000000000 ) ) ;
#117 = EDGE_CURVE ( 'NONE', #36, #36, #92, .T. ) ;
#118 = SURFACE_STYLE_FILL_AREA ( #105 ) ;
#119 = FACE_OUTER_BOUND ( 'NONE', #66, .T. ) ;
#120 = VERTEX_POINT ( 'NONE', #124 ) ;
#121 = MECHANICAL_DESIGN_GEOMETRIC_PRESENTATION_REPRESENTATION (  '', ( #98 ), #132 ) ;
#122 = EDGE_LOOP ( 'NONE', ( #149 ) ) ;
#123 = APPLICATION_CONTEXT ( 'automotive_design' ) ;
#124 = CARTESIAN_POINT ( 'NONE',  ( 45.00000000000000000, 2.182812499999999822, 0.0000000000000000000 ) ) ;
#125 = AXIS2_PLACEMENT_3D ( 'NONE', #116, #220, #97 ) ;
#126 = DIRECTION ( 'NONE',  ( -1.000000000000000000, -2.104674681149008263E-17, 0.0000000000000000000 ) ) ;
#127 = EDGE_LOOP ( 'NONE', ( #153 ) ) ;
#128 = CARTESIAN_POINT ( 'NONE',  ( -926.0000000000000000, -2.166103795310422468E-14, 0.0000000000000000000 ) ) ;
#129 = SURFACE_STYLE_USAGE ( .BOTH. , #27 ) ;
#130 = DIRECTION ( 'NONE',  ( 1.000000000000000000, -2.721437331438564086E-17, -0.0000000000000000000 ) ) ;
#131 = EDGE_LOOP ( 'NONE', ( #191 ) ) ;
#132 =( GEOMETRIC_REPRESENTATION_CONTEXT ( 3 ) GLOBAL_UNCERTAINTY_ASSIGNED_CONTEXT ( ( #47 ) ) GLOBAL_UNIT_ASSIGNED_CONTEXT ( ( #161, #37, #144 ) ) REPRESENTATION_CONTEXT ( 'NONE', 'WORKASPACE' ) );
#133 = SHAPE_DEFINITION_REPRESENTATION ( #111, #6 ) ;
#135 = DIRECTION ( 'NONE',  ( 1.000000000000000000, -2.721437331438564086E-17, -0.0000000000000000000 ) ) ;
#134 = AXIS2_PLACEMENT_3D ( 'NONE', #189, #157, #35 ) ;
#136 = VERTEX_POINT ( 'NONE', #213 ) ;
#137 = AXIS2_PLACEMENT_3D ( 'NONE', #171, #183, #64 ) ;
#138 = CIRCLE ( 'NONE', #160, 2.182812500000001155 ) ;
#139 = PRESENTATION_STYLE_ASSIGNMENT (( #56 ) ) ;
#140 = FACE_BOUND ( 'NONE', #131, .T. ) ;
#141 = PRODUCT_CONTEXT ( 'NONE', #123, 'mechanical' ) ;
#142 = APPLICATION_PROTOCOL_DEFINITION ( 'draft international standard', 'automotive_design', 1998, #123 ) ;
#143 = CARTESIAN_POINT ( 'NONE',  ( 36.81718749999999574, 2.182812499999999822, 0.0000000000000000000 ) ) ;
#144 =( NAMED_UNIT ( * ) SI_UNIT ( $, .STERADIAN. ) SOLID_ANGLE_UNIT ( ) );
#145 = EDGE_LOOP ( 'NONE', ( #70 ) ) ;
#146 = PRODUCT_DEFINITION ( 'UNKNOWN', '', #155, #208 ) ;
#147 = DIRECTION ( 'NONE',  ( 1.000000000000000000, 2.104674681149008263E-17, -0.0000000000000000000 ) ) ;
#148 = DIRECTION ( 'NONE',  ( 0.0000000000000000000, 1.000000000000000000, 0.0000000000000000000 ) ) ;
#149 = ORIENTED_EDGE ( 'NONE', *, *, #65, .F. ) ;
#150 = CYLINDRICAL_SURFACE ( 'NONE', #72, 3.000000000000000444 ) ;
#151 = DIRECTION ( 'NONE',  ( 3.614007241618347908E-17, 1.000000000000000000, 0.0000000000000000000 ) ) ;
#152 = UNCERTAINTY_MEASURE_WITH_UNIT (LENGTH_MEASURE( 1.000000000000000082E-05 ), #188, 'distance_accuracy_value', 'NONE');
#153 = ORIENTED_EDGE ( 'NONE', *, *, #20, .T. ) ;
#154 = COLOUR_RGB ( '',0.7921568627450980005, 0.8196078431372548767, 0.9333333333333333481 ) ;
#155 = PRODUCT_DEFINITION_FORMATION_WITH_SPECIFIED_SOURCE ( 'ANY', '', #91, .NOT_KNOWN. ) ;
#156 = SURFACE_STYLE_FILL_AREA ( #60 ) ;
#157 = DIRECTION ( 'NONE',  ( 0.0000000000000000000, 0.0000000000000000000, 1.000000000000000000 ) ) ;
#158 =( NAMED_UNIT ( * ) SI_UNIT ( $, .STERADIAN. ) SOLID_ANGLE_UNIT ( ) );
#159 = DIRECTION ( 'NONE',  ( 2.104674681149008263E-17, -1.000000000000000000, 0.0000000000000000000 ) ) ;
#160 = AXIS2_PLACEMENT_3D ( 'NONE', #28, #130, #12 ) ;
#161 =( LENGTH_UNIT ( ) NAMED_UNIT ( * ) SI_UNIT ( .MILLI., .METRE. ) );
#162 = EDGE_LOOP ( 'NONE', ( #185 ) ) ;
#163 = DIRECTION ( 'NONE',  ( -1.000000000000000000, -2.104674681149008263E-17, 0.0000000000000000000 ) ) ;
#164 = DIRECTION ( 'NONE',  ( -1.000000000000000000, 2.721437331438564086E-17, 0.0000000000000000000 ) ) ;
#165 = CIRCLE ( 'NONE', #29, 2.182812500000000266 ) ;
#166 = ADVANCED_FACE ( 'NONE', ( #184 ), #90, .T. ) ;
#167 = CARTESIAN_POINT ( 'NONE',  ( 45.00000000000000000, -1.224646799147353651E-15, 0.0000000000000000000 ) ) ;
#168 = MANIFOLD_SOLID_BREP ( 'È¸Àü1', #215 ) ;
#169 = EDGE_LOOP ( 'NONE', ( #81 ) ) ;
#171 = CARTESIAN_POINT ( 'NONE',  ( 45.00000000000000000, 2.182812499999999822, 0.0000000000000000000 ) ) ;
#170 = PRODUCT_RELATED_PRODUCT_CATEGORY ( 'part', '', ( #91 ) ) ;
#172 = AXIS2_PLACEMENT_3D ( 'NONE', #16, #199, #79 ) ;
#173 = CLOSED_SHELL ( 'NONE', ( #195, #180, #166 ) ) ;
#174 =( NAMED_UNIT ( * ) SI_UNIT ( $, .STERADIAN. ) SOLID_ANGLE_UNIT ( ) );
#175 = SURFACE_SIDE_STYLE ('',( #46 ) ) ;
#176 = ORIENTED_EDGE ( 'NONE', *, *, #117, .F. ) ;
#177 = FACE_OUTER_BOUND ( 'NONE', #221, .T. ) ;
#178 = CONICAL_SURFACE ( 'NONE', #38, 2.182812500000000711, 0.7853981633974503884 ) ;
#179 = DIRECTION ( 'NONE',  ( 1.000000000000000000, -2.721437331438564086E-17, -0.0000000000000000000 ) ) ;
#180 = ADVANCED_FACE ( 'NONE', ( #177, #61 ), #198, .T. ) ;
#181 = AXIS2_PLACEMENT_3D ( 'NONE', #95, #197, #78 ) ;
#182 = EDGE_LOOP ( 'NONE', ( #5 ) ) ;
#183 = DIRECTION ( 'NONE',  ( 1.000000000000000000, -2.721437331438564086E-17, -0.0000000000000000000 ) ) ;
#184 = FACE_OUTER_BOUND ( 'NONE', #182, .T. ) ;
#185 = ORIENTED_EDGE ( 'NONE', *, *, #117, .T. ) ;
#186 = UNCERTAINTY_MEASURE_WITH_UNIT (LENGTH_MEASURE( 1.000000000000000082E-05 ), #190, 'distance_accuracy_value', 'NONE');
#187 = VERTEX_POINT ( 'NONE', #143 ) ;
#188 =( LENGTH_UNIT ( ) NAMED_UNIT ( * ) SI_UNIT ( .MILLI., .METRE. ) );
#189 = CARTESIAN_POINT ( 'NONE',  ( 0.0000000000000000000, 0.0000000000000000000, 0.0000000000000000000 ) ) ;
#190 =( LENGTH_UNIT ( ) NAMED_UNIT ( * ) SI_UNIT ( .MILLI., .METRE. ) );
#191 = ORIENTED_EDGE ( 'NONE', *, *, #33, .F. ) ;
#192 = AXIS2_PLACEMENT_3D ( 'NONE', #167, #44, #148 ) ;
#193 = FILL_AREA_STYLE_COLOUR ( '', #104 ) ;
#194 = CARTESIAN_POINT ( 'NONE',  ( 45.00000000000000000, -1.224646799147353651E-15, 0.0000000000000000000 ) ) ;
#195 = ADVANCED_FACE ( 'NONE', ( #52 ), #55, .T. ) ;
#196 = DIRECTION ( 'NONE',  ( 0.0000000000000000000, -1.000000000000000000, 0.0000000000000000000 ) ) ;
#197 = DIRECTION ( 'NONE',  ( 1.000000000000000000, -2.721437331438564086E-17, -0.0000000000000000000 ) ) ;
#198 = CYLINDRICAL_SURFACE ( 'NONE', #19, 2.182812500000000711 ) ;
#199 = DIRECTION ( 'NONE',  ( -1.000000000000000000, 2.721437331438564086E-17, 0.0000000000000000000 ) ) ;
#200 = DIRECTION ( 'NONE',  ( 1.000000000000000000, -2.721437331438564086E-17, -0.0000000000000000000 ) ) ;
#201 = APPLICATION_CONTEXT ( 'automotive_design' ) ;
#202 = FACE_OUTER_BOUND ( 'NONE', #169, .T. ) ;
#203 = PLANE ( 'NONE',  #137 ) ;
#204 = ORIENTED_EDGE ( 'NONE', *, *, #76, .F. ) ;
#205 = STYLED_ITEM ( 'NONE', ( #110 ), #67 ) ;
#206 = UNCERTAINTY_MEASURE_WITH_UNIT (LENGTH_MEASURE( 1.000000000000000082E-05 ), #11, 'distance_accuracy_value', 'NONE');
#207 = EDGE_LOOP ( 'NONE', ( #34 ) ) ;
#208 = PRODUCT_DEFINITION_CONTEXT ( 'detailed design', #201, 'design' ) ;
#209 = SURFACE_SIDE_STYLE ('',( #118 ) ) ;
#210 = CARTESIAN_POINT ( 'NONE',  ( 6.531449595452546658E-17, 2.399999999999997691, 0.0000000000000000000 ) ) ;
#211 = CIRCLE ( 'NONE', #181, 3.000000000000000888 ) ;
#212 = VERTEX_POINT ( 'NONE', #106 ) ;
#213 = CARTESIAN_POINT ( 'NONE',  ( 36.00000000000000000, 3.000000000000000000, 0.0000000000000000000 ) ) ;
#214 = PRESENTATION_STYLE_ASSIGNMENT (( #85 ) ) ;
#215 = CLOSED_SHELL ( 'NONE', ( #41, #10, #94, #77, #114, #25 ) ) ;
#216 = DIRECTION ( 'NONE',  ( 2.721437331438563778E-17, 1.000000000000000000, 0.0000000000000000000 ) ) ;
#217 =( NAMED_UNIT ( * ) SI_UNIT ( $, .STERADIAN. ) SOLID_ANGLE_UNIT ( ) );
#218 = FILL_AREA_STYLE_COLOUR ( '', #103 ) ;
#219 = PRESENTATION_LAYER_ASSIGNMENT (  '', '', ( #205 ) ) ;
#220 = DIRECTION ( 'NONE',  ( 1.000000000000000000, -2.721437331438564086E-17, -0.0000000000000000000 ) ) ;
#221 = EDGE_LOOP ( 'NONE', ( #31 ) ) ;
#222 = CIRCLE ( 'NONE', #125, 2.182812500000000711 ) ;
#223 = FACE_OUTER_BOUND ( 'NONE', #40, .T. ) ;
ENDSEC;
END-ISO-10303-21;
