ISO-10303-21;
HEADER;
FILE_DESCRIPTION (( 'STEP AP214' ),
    '1' );
FILE_NAME ('03-2273.STEP',
    '2022-06-23T06:34:39',
    ( 'USER' ),
    ( '' ),
    'SwSTEP 2.0',
    'SolidWorks 2018',
    '' );
FILE_SCHEMA (( 'AUTOMOTIVE_DESIGN' ));
ENDSEC;

DATA;
#1 = PLANE ( 'NONE',  #33 ) ;
#2 = CARTESIAN_POINT ( 'NONE',  ( 81.13329587965358769, 9.615219005729125455E-16, 0.0000000000000000000 ) ) ;
#3 = CARTESIAN_POINT ( 'NONE',  ( 47.00000000000000000, 2.449293598294708880E-16, 0.0000000000000000000 ) ) ;
#4 = ORIENTED_EDGE ( 'NONE', *, *, #57, .F. ) ;
#5 = AXIS2_PLACEMENT_3D ( 'NONE', #216, #198, #101 ) ;
#6 = CYLINDRICAL_SURFACE ( 'NONE', #207, 2.381249999999999645 ) ;
#7 = UNCERTAINTY_MEASURE_WITH_UNIT (LENGTH_MEASURE( 1.000000000000000082E-05 ), #102, 'distance_accuracy_value', 'NONE');
#8 = PRESENTATION_LAYER_ASSIGNMENT (  '', '', ( #219 ) ) ;
#9 = CIRCLE ( 'NONE', #146, 2.381249999999999201 ) ;
#10 = FILL_AREA_STYLE ('',( #118 ) ) ;
#11 = CARTESIAN_POINT ( 'NONE',  ( 36.61874999999999858, 2.381249999999999201, 0.0000000000000000000 ) ) ;
#12 = SURFACE_SIDE_STYLE ('',( #217 ) ) ;
#13 = VERTEX_POINT ( 'NONE', #45 ) ;
#14 = CARTESIAN_POINT ( 'NONE',  ( 36.00000000000000000, 1.876054671034244701E-16, 0.0000000000000000000 ) ) ;
#15 = DIRECTION ( 'NONE',  ( 0.0000000000000000000, 1.000000000000000000, 0.0000000000000000000 ) ) ;
#16 = FACE_OUTER_BOUND ( 'NONE', #152, .T. ) ;
#17 = PRODUCT_DEFINITION ( 'UNKNOWN', '', #24, #211 ) ;
#18 = MECHANICAL_DESIGN_GEOMETRIC_PRESENTATION_REPRESENTATION (  '', ( #219 ), #28 ) ;
#19 = ORIENTED_EDGE ( 'NONE', *, *, #21, .T. ) ;
#20 = VERTEX_POINT ( 'NONE', #158 ) ;
#21 = EDGE_CURVE ( 'NONE', #133, #133, #169, .T. ) ;
#22 = EDGE_LOOP ( 'NONE', ( #138 ) ) ;
#23 = SURFACE_SIDE_STYLE ('',( #116 ) ) ;
#24 = PRODUCT_DEFINITION_FORMATION_WITH_SPECIFIED_SOURCE ( 'ANY', '', #205, .NOT_KNOWN. ) ;
#25 = CARTESIAN_POINT ( 'NONE',  ( 81.13329587965358769, 2.381250000000000089, 0.0000000000000000000 ) ) ;
#26 = CYLINDRICAL_SURFACE ( 'NONE', #149, 3.000000000000000000 ) ;
#27 = FILL_AREA_STYLE_COLOUR ( '', #213 ) ;
#28 =( GEOMETRIC_REPRESENTATION_CONTEXT ( 3 ) GLOBAL_UNCERTAINTY_ASSIGNED_CONTEXT ( ( #7 ) ) GLOBAL_UNIT_ASSIGNED_CONTEXT ( ( #102, #199, #86 ) ) REPRESENTATION_CONTEXT ( 'NONE', 'WORKASPACE' ) );
#29 = DIRECTION ( 'NONE',  ( 0.0000000000000000000, -1.000000000000000000, 0.0000000000000000000 ) ) ;
#30 = DIRECTION ( 'NONE',  ( 0.0000000000000000000, 1.000000000000000000, 0.0000000000000000000 ) ) ;
#31 = DIRECTION ( 'NONE',  ( 0.0000000000000000000, 1.000000000000000000, 0.0000000000000000000 ) ) ;
#32 = ORIENTED_EDGE ( 'NONE', *, *, #37, .F. ) ;
#33 = AXIS2_PLACEMENT_3D ( 'NONE', #162, #204, #91 ) ;
#34 = DIRECTION ( 'NONE',  ( 0.0000000000000000000, 1.000000000000000000, 0.0000000000000000000 ) ) ;
#35 = ADVANCED_FACE ( 'NONE', ( #200, #176 ), #26, .T. ) ;
#36 = ADVANCED_FACE ( 'NONE', ( #160 ), #1, .T. ) ;
#37 = EDGE_CURVE ( 'NONE', #113, #113, #208, .T. ) ;
#38 = PRODUCT_RELATED_PRODUCT_CATEGORY ( 'part', '', ( #205 ) ) ;
#39 = CONICAL_SURFACE ( 'NONE', #184, 2747.477419454573919, 1.221730476396025056 ) ;
#40 =( GEOMETRIC_REPRESENTATION_CONTEXT ( 3 ) GLOBAL_UNCERTAINTY_ASSIGNED_CONTEXT ( ( #93 ) ) GLOBAL_UNIT_ASSIGNED_CONTEXT ( ( #220, #171, #59 ) ) REPRESENTATION_CONTEXT ( 'NONE', 'WORKASPACE' ) );
#41 = CIRCLE ( 'NONE', #42, 2.399999999999997691 ) ;
#42 = AXIS2_PLACEMENT_3D ( 'NONE', #107, #203, #54 ) ;
#43 =( LENGTH_UNIT ( ) NAMED_UNIT ( * ) SI_UNIT ( .MILLI., .METRE. ) );
#44 = CARTESIAN_POINT ( 'NONE',  ( 47.00000000000000000, 2.381250000000000089, 0.0000000000000000000 ) ) ;
#45 = CARTESIAN_POINT ( 'NONE',  ( -1.250703114022828742E-17, 2.399999999999997691, 0.0000000000000000000 ) ) ;
#46 =( NAMED_UNIT ( * ) SI_UNIT ( $, .STERADIAN. ) SOLID_ANGLE_UNIT ( ) );
#47 = DIRECTION ( 'NONE',  ( 1.000000000000000000, 5.211262975095124767E-18, -0.0000000000000000000 ) ) ;
#48 = EDGE_CURVE ( 'NONE', #13, #13, #41, .T. ) ;
#49 = EDGE_LOOP ( 'NONE', ( #4 ) ) ;
#50 = FACE_BOUND ( 'NONE', #170, .T. ) ;
#51 = ADVANCED_FACE ( 'NONE', ( #64 ), #189, .T. ) ;
#52 = FACE_OUTER_BOUND ( 'NONE', #210, .T. ) ;
#53 = ORIENTED_EDGE ( 'NONE', *, *, #99, .T. ) ;
#54 = DIRECTION ( 'NONE',  ( -5.211262975095124767E-18, 1.000000000000000000, 0.0000000000000000000 ) ) ;
#55 = ORIENTED_EDGE ( 'NONE', *, *, #75, .T. ) ;
#56 = ORIENTED_EDGE ( 'NONE', *, *, #99, .F. ) ;
#57 = EDGE_CURVE ( 'NONE', #20, #20, #126, .T. ) ;
#58 = PLANE ( 'NONE',  #195 ) ;
#59 =( NAMED_UNIT ( * ) SI_UNIT ( $, .STERADIAN. ) SOLID_ANGLE_UNIT ( ) );
#60 =( NAMED_UNIT ( * ) SI_UNIT ( $, .STERADIAN. ) SOLID_ANGLE_UNIT ( ) );
#61 = CARTESIAN_POINT ( 'NONE',  ( 0.6000000000000033085, 3.000000000000000000, 0.0000000000000000000 ) ) ;
#62 = DIRECTION ( 'NONE',  ( 1.000000000000000000, 2.099394512824040426E-17, -0.0000000000000000000 ) ) ;
#63 = STYLED_ITEM ( 'NONE', ( #82 ), #132 ) ;
#64 = FACE_OUTER_BOUND ( 'NONE', #164, .T. ) ;
#65 =( NAMED_UNIT ( * ) PLANE_ANGLE_UNIT ( ) SI_UNIT ( $, .RADIAN. ) );
#66 = DIRECTION ( 'NONE',  ( -5.211262975095124767E-18, 1.000000000000000000, 0.0000000000000000000 ) ) ;
#67 = CARTESIAN_POINT ( 'NONE',  ( 47.00000000000000000, 2.381250000000000089, 0.0000000000000000000 ) ) ;
#68 = DIRECTION ( 'NONE',  ( 1.000000000000000000, 5.211262975095124767E-18, -0.0000000000000000000 ) ) ;
#69 = AXIS2_PLACEMENT_3D ( 'NONE', #14, #122, #221 ) ;
#70 = FACE_OUTER_BOUND ( 'NONE', #112, .T. ) ;
#71 = MANIFOLD_SOLID_BREP ( 'È¸Àü3', #182 ) ;
#72 = EDGE_LOOP ( 'NONE', ( #19 ) ) ;
#73 = CLOSED_SHELL ( 'NONE', ( #36, #109, #35, #180, #178, #51 ) ) ;
#74 = CARTESIAN_POINT ( 'NONE',  ( 82.00000000000000000, 9.797174393178849323E-16, 0.0000000000000000000 ) ) ;
#75 = EDGE_CURVE ( 'NONE', #183, #183, #9, .T. ) ;
#76 = EDGE_LOOP ( 'NONE', ( #115 ) ) ;
#77 = ORIENTED_EDGE ( 'NONE', *, *, #175, .F. ) ;
#78 = VERTEX_POINT ( 'NONE', #137 ) ;
#79 = PRESENTATION_LAYER_ASSIGNMENT (  '', '', ( #63 ) ) ;
#80 = PRODUCT_DEFINITION_SHAPE ( 'NONE', 'NONE',  #17 ) ;
#81 = EDGE_LOOP ( 'NONE', ( #53 ) ) ;
#82 = PRESENTATION_STYLE_ASSIGNMENT (( #157 ) ) ;
#83 = AXIS2_PLACEMENT_3D ( 'NONE', #67, #188, #66 ) ;
#84 = APPLICATION_PROTOCOL_DEFINITION ( 'draft international standard', 'automotive_design', 1998, #214 ) ;
#85 = FACE_OUTER_BOUND ( 'NONE', #76, .T. ) ;
#86 =( NAMED_UNIT ( * ) SI_UNIT ( $, .STERADIAN. ) SOLID_ANGLE_UNIT ( ) );
#87 = CARTESIAN_POINT ( 'NONE',  ( 47.00000000000000000, 2.449293598294707893E-16, 0.0000000000000000000 ) ) ;
#88 =( LENGTH_UNIT ( ) NAMED_UNIT ( * ) SI_UNIT ( .MILLI., .METRE. ) );
#89 = DIRECTION ( 'NONE',  ( 4.040881343605571061E-17, -1.000000000000000000, 0.0000000000000000000 ) ) ;
#90 = SHAPE_DEFINITION_REPRESENTATION ( #80, #132 ) ;
#91 = DIRECTION ( 'NONE',  ( 5.211262975095124767E-18, -1.000000000000000000, 0.0000000000000000000 ) ) ;
#92 = FACE_OUTER_BOUND ( 'NONE', #120, .T. ) ;
#93 = UNCERTAINTY_MEASURE_WITH_UNIT (LENGTH_MEASURE( 1.000000000000000082E-05 ), #220, 'distance_accuracy_value', 'NONE');
#94 = MECHANICAL_DESIGN_GEOMETRIC_PRESENTATION_REPRESENTATION (  '', ( #63 ), #104 ) ;
#95 = STYLED_ITEM ( 'NONE', ( #148 ), #71 ) ;
#96 = FACE_OUTER_BOUND ( 'NONE', #165, .T. ) ;
#97 = APPLICATION_PROTOCOL_DEFINITION ( 'draft international standard', 'automotive_design', 1998, #127 ) ;
#98 = EDGE_LOOP ( 'NONE', ( #222 ) ) ;
#99 = EDGE_CURVE ( 'NONE', #78, #78, #131, .T. ) ;
#100 = DIRECTION ( 'NONE',  ( 1.000000000000000000, 2.099394512824040426E-17, -0.0000000000000000000 ) ) ;
#101 = DIRECTION ( 'NONE',  ( 1.000000000000000000, 0.0000000000000000000, 0.0000000000000000000 ) ) ;
#102 =( LENGTH_UNIT ( ) NAMED_UNIT ( * ) SI_UNIT ( .MILLI., .METRE. ) );
#103 = CARTESIAN_POINT ( 'NONE',  ( -918.0000000000000000, -2.001422768892251918E-14, 0.0000000000000000000 ) ) ;
#104 =( GEOMETRIC_REPRESENTATION_CONTEXT ( 3 ) GLOBAL_UNCERTAINTY_ASSIGNED_CONTEXT ( ( #194 ) ) GLOBAL_UNIT_ASSIGNED_CONTEXT ( ( #43, #172, #60 ) ) REPRESENTATION_CONTEXT ( 'NONE', 'WORKASPACE' ) );
#105 = COLOUR_RGB ( '',0.7921568627450980005, 0.8196078431372548767, 0.9333333333333333481 ) ;
#106 = SURFACE_SIDE_STYLE ('',( #197 ) ) ;
#107 = CARTESIAN_POINT ( 'NONE',  ( 0.0000000000000000000, 0.0000000000000000000, 0.0000000000000000000 ) ) ;
#108 = PRESENTATION_LAYER_ASSIGNMENT (  '', '', ( #95 ) ) ;
#109 = ADVANCED_FACE ( 'NONE', ( #187, #179 ), #119, .T. ) ;
#110 = ADVANCED_FACE ( 'NONE', ( #52 ), #58, .T. ) ;
#111 = PRODUCT_CONTEXT ( 'NONE', #214, 'mechanical' ) ;
#112 = EDGE_LOOP ( 'NONE', ( #32 ) ) ;
#113 = VERTEX_POINT ( 'NONE', #44 ) ;
#114 = UNCERTAINTY_MEASURE_WITH_UNIT (LENGTH_MEASURE( 1.000000000000000082E-05 ), #88, 'distance_accuracy_value', 'NONE');
#115 = ORIENTED_EDGE ( 'NONE', *, *, #75, .F. ) ;
#116 = SURFACE_STYLE_FILL_AREA ( #10 ) ;
#117 = MECHANICAL_DESIGN_GEOMETRIC_PRESENTATION_REPRESENTATION (  '', ( #95 ), #130 ) ;
#118 = FILL_AREA_STYLE_COLOUR ( '', #105 ) ;
#119 = CONICAL_SURFACE ( 'NONE', #166, 3.000000000000000000, 0.7853981633974476129 ) ;
#120 = EDGE_LOOP ( 'NONE', ( #128 ) ) ;
#121 = DIRECTION ( 'NONE',  ( -1.000000000000000000, -5.211262975095124767E-18, 0.0000000000000000000 ) ) ;
#122 = DIRECTION ( 'NONE',  ( 1.000000000000000000, 5.211262975095124767E-18, -0.0000000000000000000 ) ) ;
#123 = ORIENTED_EDGE ( 'NONE', *, *, #175, .T. ) ;
#124 = CARTESIAN_POINT ( 'NONE',  ( 47.00000000000000000, 2.449293598294708880E-16, 0.0000000000000000000 ) ) ;
#125 = ADVANCED_FACE ( 'NONE', ( #163, #85 ), #156, .T. ) ;
#126 = CIRCLE ( 'NONE', #69, 2.999999999999999556 ) ;
#127 = APPLICATION_CONTEXT ( 'automotive_design' ) ;
#128 = ORIENTED_EDGE ( 'NONE', *, *, #57, .T. ) ;
#129 = AXIS2_PLACEMENT_3D ( 'NONE', #3, #143, #15 ) ;
#130 =( GEOMETRIC_REPRESENTATION_CONTEXT ( 3 ) GLOBAL_UNCERTAINTY_ASSIGNED_CONTEXT ( ( #114 ) ) GLOBAL_UNIT_ASSIGNED_CONTEXT ( ( #88, #65, #46 ) ) REPRESENTATION_CONTEXT ( 'NONE', 'WORKASPACE' ) );
#131 = CIRCLE ( 'NONE', #155, 2.381250000000000089 ) ;
#132 = ADVANCED_BREP_SHAPE_REPRESENTATION ( '03-2273', ( #192, #71, #5 ), #40 ) ;
#133 = VERTEX_POINT ( 'NONE', #61 ) ;
#134 = DIRECTION ( 'NONE',  ( 2.099394512824040426E-17, -1.000000000000000000, 0.0000000000000000000 ) ) ;
#135 = DIRECTION ( 'NONE',  ( 0.0000000000000000000, 1.000000000000000000, 0.0000000000000000000 ) ) ;
#136 = CARTESIAN_POINT ( 'NONE',  ( 47.00000000000000000, 2.449293598294708880E-16, 0.0000000000000000000 ) ) ;
#137 = CARTESIAN_POINT ( 'NONE',  ( 47.00000000000000000, 2.381250000000000533, 0.0000000000000000000 ) ) ;
#138 = ORIENTED_EDGE ( 'NONE', *, *, #21, .F. ) ;
#139 = FILL_AREA_STYLE ('',( #27 ) ) ;
#140 = CARTESIAN_POINT ( 'NONE',  ( 36.61874999999999858, 1.908299360692645940E-16, 0.0000000000000000000 ) ) ;
#141 = FILL_AREA_STYLE ('',( #223 ) ) ;
#142 = COLOUR_RGB ( '',1.000000000000000000, 1.000000000000000000, 0.0000000000000000000 ) ;
#143 = DIRECTION ( 'NONE',  ( 1.000000000000000000, 5.211262975095124767E-18, -0.0000000000000000000 ) ) ;
#144 = DIRECTION ( 'NONE',  ( 0.0000000000000000000, 1.000000000000000000, 0.0000000000000000000 ) ) ;
#145 = DIRECTION ( 'NONE',  ( 1.000000000000000000, 2.099394512824040426E-17, -0.0000000000000000000 ) ) ;
#146 = AXIS2_PLACEMENT_3D ( 'NONE', #2, #145, #190 ) ;
#147 = CARTESIAN_POINT ( 'NONE',  ( 47.00000000000000000, 2.449293598294708880E-16, 0.0000000000000000000 ) ) ;
#148 = PRESENTATION_STYLE_ASSIGNMENT (( #201 ) ) ;
#149 = AXIS2_PLACEMENT_3D ( 'NONE', #124, #68, #144 ) ;
#150 = ORIENTED_EDGE ( 'NONE', *, *, #37, .T. ) ;
#151 = CONICAL_SURFACE ( 'NONE', #196, 2.381249999999999645, 0.7853981633974476129 ) ;
#152 = EDGE_LOOP ( 'NONE', ( #123 ) ) ;
#153 = DIRECTION ( 'NONE',  ( -1.000000000000000000, -2.099394512824040426E-17, 0.0000000000000000000 ) ) ;
#154 = CARTESIAN_POINT ( 'NONE',  ( 0.6000000000000033085, 3.126757785057091115E-18, 0.0000000000000000000 ) ) ;
#155 = AXIS2_PLACEMENT_3D ( 'NONE', #87, #62, #173 ) ;
#156 = CYLINDRICAL_SURFACE ( 'NONE', #181, 2.381249999999999645 ) ;
#157 = SURFACE_STYLE_USAGE ( .BOTH. , #23 ) ;
#158 = CARTESIAN_POINT ( 'NONE',  ( 36.00000000000000000, 2.999999999999999556, 0.0000000000000000000 ) ) ;
#159 = DIRECTION ( 'NONE',  ( 0.0000000000000000000, 1.000000000000000000, 0.0000000000000000000 ) ) ;
#160 = FACE_OUTER_BOUND ( 'NONE', #193, .T. ) ;
#161 = VERTEX_POINT ( 'NONE', #11 ) ;
#162 = CARTESIAN_POINT ( 'NONE',  ( 2.214132416445564332E-17, 1.153842628378067022E-34, 0.0000000000000000000 ) ) ;
#163 = FACE_OUTER_BOUND ( 'NONE', #81, .T. ) ;
#164 = EDGE_LOOP ( 'NONE', ( #150 ) ) ;
#165 = EDGE_LOOP ( 'NONE', ( #55 ) ) ;
#166 = AXIS2_PLACEMENT_3D ( 'NONE', #154, #167, #30 ) ;
#167 = DIRECTION ( 'NONE',  ( 1.000000000000000000, 5.211262975095124767E-18, -0.0000000000000000000 ) ) ;
#168 = AXIS2_PLACEMENT_3D ( 'NONE', #186, #47, #31 ) ;
#169 = CIRCLE ( 'NONE', #202, 3.000000000000000000 ) ;
#170 = EDGE_LOOP ( 'NONE', ( #77 ) ) ;
#171 =( NAMED_UNIT ( * ) PLANE_ANGLE_UNIT ( ) SI_UNIT ( $, .RADIAN. ) );
#172 =( NAMED_UNIT ( * ) PLANE_ANGLE_UNIT ( ) SI_UNIT ( $, .RADIAN. ) );
#173 = DIRECTION ( 'NONE',  ( 0.0000000000000000000, 1.000000000000000000, 0.0000000000000000000 ) ) ;
#174 = DIRECTION ( 'NONE',  ( 1.000000000000000000, 5.211262975095124767E-18, -0.0000000000000000000 ) ) ;
#175 = EDGE_CURVE ( 'NONE', #161, #161, #215, .T. ) ;
#176 = FACE_OUTER_BOUND ( 'NONE', #49, .T. ) ;
#177 = DIRECTION ( 'NONE',  ( 1.000000000000000000, 5.211262975095124767E-18, -0.0000000000000000000 ) ) ;
#178 = ADVANCED_FACE ( 'NONE', ( #16, #70 ), #6, .T. ) ;
#179 = FACE_OUTER_BOUND ( 'NONE', #22, .T. ) ;
#180 = ADVANCED_FACE ( 'NONE', ( #92, #50 ), #151, .T. ) ;
#181 = AXIS2_PLACEMENT_3D ( 'NONE', #74, #100, #159 ) ;
#182 = CLOSED_SHELL ( 'NONE', ( #110, #125, #191 ) ) ;
#183 = VERTEX_POINT ( 'NONE', #25 ) ;
#184 = AXIS2_PLACEMENT_3D ( 'NONE', #103, #185, #89 ) ;
#185 = DIRECTION ( 'NONE',  ( -1.000000000000000000, -2.099394512824040426E-17, 0.0000000000000000000 ) ) ;
#186 = CARTESIAN_POINT ( 'NONE',  ( 36.61874999999999858, 1.908299360692645940E-16, 0.0000000000000000000 ) ) ;
#187 = FACE_BOUND ( 'NONE', #98, .T. ) ;
#188 = DIRECTION ( 'NONE',  ( 1.000000000000000000, 5.211262975095124767E-18, -0.0000000000000000000 ) ) ;
#189 = PLANE ( 'NONE',  #83 ) ;
#190 = DIRECTION ( 'NONE',  ( 0.0000000000000000000, 1.000000000000000000, 0.0000000000000000000 ) ) ;
#191 = ADVANCED_FACE ( 'NONE', ( #96 ), #39, .T. ) ;
#192 = MANIFOLD_SOLID_BREP ( 'È¸Àü1', #73 ) ;
#193 = EDGE_LOOP ( 'NONE', ( #209 ) ) ;
#194 = UNCERTAINTY_MEASURE_WITH_UNIT (LENGTH_MEASURE( 1.000000000000000082E-05 ), #43, 'distance_accuracy_value', 'NONE');
#195 = AXIS2_PLACEMENT_3D ( 'NONE', #136, #153, #134 ) ;
#196 = AXIS2_PLACEMENT_3D ( 'NONE', #140, #121, #29 ) ;
#197 = SURFACE_STYLE_FILL_AREA ( #141 ) ;
#198 = DIRECTION ( 'NONE',  ( 0.0000000000000000000, 0.0000000000000000000, 1.000000000000000000 ) ) ;
#199 =( NAMED_UNIT ( * ) PLANE_ANGLE_UNIT ( ) SI_UNIT ( $, .RADIAN. ) );
#200 = FACE_OUTER_BOUND ( 'NONE', #72, .T. ) ;
#201 = SURFACE_STYLE_USAGE ( .BOTH. , #106 ) ;
#202 = AXIS2_PLACEMENT_3D ( 'NONE', #206, #177, #34 ) ;
#203 = DIRECTION ( 'NONE',  ( 1.000000000000000000, 5.211262975095124767E-18, -0.0000000000000000000 ) ) ;
#204 = DIRECTION ( 'NONE',  ( -1.000000000000000000, -5.211262975095124767E-18, 0.0000000000000000000 ) ) ;
#205 = PRODUCT ( '03-2273', '03-2273', '', ( #111 ) ) ;
#206 = CARTESIAN_POINT ( 'NONE',  ( 0.6000000000000033085, 3.126757785057091115E-18, 0.0000000000000000000 ) ) ;
#207 = AXIS2_PLACEMENT_3D ( 'NONE', #147, #174, #135 ) ;
#208 = CIRCLE ( 'NONE', #129, 2.381249999999999645 ) ;
#209 = ORIENTED_EDGE ( 'NONE', *, *, #48, .F. ) ;
#210 = EDGE_LOOP ( 'NONE', ( #56 ) ) ;
#211 = PRODUCT_DEFINITION_CONTEXT ( 'detailed design', #127, 'design' ) ;
#212 = PRESENTATION_STYLE_ASSIGNMENT (( #218 ) ) ;
#213 = COLOUR_RGB ( '',0.5019607843137254832, 0.5019607843137254832, 0.5019607843137254832 ) ;
#214 = APPLICATION_CONTEXT ( 'automotive_design' ) ;
#215 = CIRCLE ( 'NONE', #168, 2.381249999999999201 ) ;
#216 = CARTESIAN_POINT ( 'NONE',  ( 0.0000000000000000000, 0.0000000000000000000, 0.0000000000000000000 ) ) ;
#217 = SURFACE_STYLE_FILL_AREA ( #139 ) ;
#218 = SURFACE_STYLE_USAGE ( .BOTH. , #12 ) ;
#219 = STYLED_ITEM ( 'NONE', ( #212 ), #192 ) ;
#220 =( LENGTH_UNIT ( ) NAMED_UNIT ( * ) SI_UNIT ( .MILLI., .METRE. ) );
#221 = DIRECTION ( 'NONE',  ( 0.0000000000000000000, 1.000000000000000000, 0.0000000000000000000 ) ) ;
#222 = ORIENTED_EDGE ( 'NONE', *, *, #48, .T. ) ;
#223 = FILL_AREA_STYLE_COLOUR ( '', #142 ) ;
ENDSEC;
END-ISO-10303-21;
