ISO-10303-21;
HEADER;
FILE_DESCRIPTION (( 'STEP AP203' ),
    '1' );
FILE_NAME ('03-2995.STEP',
    '2023-06-08T00:23:10',
    ( 'USER' ),
    ( 'Hewlett-Packard Company' ),
    'SwSTEP 2.0',
    'SolidWorks 2014',
    '' );
FILE_SCHEMA (( 'CONFIG_CONTROL_DESIGN' ));
ENDSEC;

DATA;
#1 = EDGE_CURVE ( 'NONE', #220, #109, #306, .T. ) ;
#2 = AXIS2_PLACEMENT_3D ( 'NONE', #175, #346, #406 ) ;
#3 = DIRECTION ( 'NONE',  ( 1.288020540344513800E-016, -1.000000000000000000, 0.0000000000000000000 ) ) ;
#4 = DIRECTION ( 'NONE',  ( 1.000000000000000000, 0.0000000000000000000, 0.0000000000000000000 ) ) ;
#5 = CONICAL_SURFACE ( 'NONE', #223, 3.000000000000000000, 0.7853981633974500600 ) ;
#6 = ORIENTED_EDGE ( 'NONE', *, *, #110, .T. ) ;
#7 = SECURITY_CLASSIFICATION_LEVEL ( 'unclassified' ) ;
#8 = EDGE_CURVE ( 'NONE', #405, #235, #64, .T. ) ;
#9 = CARTESIAN_POINT ( 'NONE',  ( 1.000000000000000400, 3.673940397442060400E-016, -3.000000000000000000 ) ) ;
#10 = APPROVAL ( #291, 'UNSPECIFIED' ) ;
#11 = CARTESIAN_POINT ( 'NONE',  ( 17.00000000000000000, 0.0000000000000000000, 3.000000000000003100 ) ) ;
#12 = DIRECTION ( 'NONE',  ( 1.000000000000000000, 1.288020540344513800E-016, -0.0000000000000000000 ) ) ;
#13 = CIRCLE ( 'NONE', #312, 4.999999999999999100 ) ;
#14 = DESIGN_CONTEXT ( 'detailed design', #259, 'design' ) ;
#15 = DIRECTION ( 'NONE',  ( 1.000000000000000000, 1.288020540344513800E-016, -0.0000000000000000000 ) ) ;
#16 = ADVANCED_BREP_SHAPE_REPRESENTATION ( '03-2995', ( #327, #267, #360 ), #347 ) ;
#17 = DIRECTION ( 'NONE',  ( -1.445602896647339200E-016, 1.000000000000000000, 0.0000000000000000000 ) ) ;
#18 = ADVANCED_FACE ( 'NONE', ( #132 ), #123, .T. ) ;
#19 = AXIS2_PLACEMENT_3D ( 'NONE', #353, #162, #386 ) ;
#20 = DIRECTION ( 'NONE',  ( -1.000000000000000000, -0.0000000000000000000, -0.0000000000000000000 ) ) ;
#21 = DIRECTION ( 'NONE',  ( 1.000000000000000000, 1.288020540344513800E-016, -0.0000000000000000000 ) ) ;
#22 = CYLINDRICAL_SURFACE ( 'NONE', #181, 4.999999999999999100 ) ;
#23 = CARTESIAN_POINT ( 'NONE',  ( 17.00000000000000000, 3.673940397442062800E-016, -3.000000000000003100 ) ) ;
#24 = CARTESIAN_POINT ( 'NONE',  ( -46.70000000000000300, -5.000000000000005300, 6.123233995736768300E-016 ) ) ;
#25 = ORIENTED_EDGE ( 'NONE', *, *, #282, .F. ) ;
#26 = CARTESIAN_POINT ( 'NONE',  ( 0.0000000000000000000, 0.0000000000000000000, 3.000000000000001800 ) ) ;
#27 = EDGE_CURVE ( 'NONE', #405, #166, #200, .T. ) ;
#28 = DIRECTION ( 'NONE',  ( 0.0000000000000000000, 1.000000000000000000, 0.0000000000000000000 ) ) ;
#29 = CC_DESIGN_APPROVAL ( #10, ( #407 ) ) ;
#30 = CIRCLE ( 'NONE', #105, 3.000000000000000000 ) ;
#31 = LOCAL_TIME ( 9, 23, 10.00000000000000000, #117 ) ;
#32 = PERSON_AND_ORGANIZATION_ROLE ( 'design_owner' ) ;
#33 = VECTOR ( 'NONE', #333, 1000.000000000000000 ) ;
#34 = ORIENTED_EDGE ( 'NONE', *, *, #79, .T. ) ;
#35 = DATE_TIME_ROLE ( 'classification_date' ) ;
#36 = FACE_OUTER_BOUND ( 'NONE', #145, .T. ) ;
#37 = ORIENTED_EDGE ( 'NONE', *, *, #171, .F. ) ;
#38 = AXIS2_PLACEMENT_3D ( 'NONE', #247, #51, #270 ) ;
#39 = AXIS2_PLACEMENT_3D ( 'NONE', #163, #54, #350 ) ;
#40 = FACE_OUTER_BOUND ( 'NONE', #328, .T. ) ;
#41 = APPROVAL_DATE_TIME ( #127, #115 ) ;
#42 = ORIENTED_EDGE ( 'NONE', *, *, #351, .F. ) ;
#43 = LINE ( 'NONE', #319, #289 ) ;
#44 = ORIENTED_EDGE ( 'NONE', *, *, #282, .T. ) ;
#45 = VECTOR ( 'NONE', #140, 1000.000000000000000 ) ;
#46 = EDGE_CURVE ( 'NONE', #87, #399, #293, .T. ) ;
#47 = ORIENTED_EDGE ( 'NONE', *, *, #99, .T. ) ;
#48 = DIRECTION ( 'NONE',  ( 1.000000000000000000, 1.288020540344513800E-016, -0.0000000000000000000 ) ) ;
#49 = PLANE ( 'NONE',  #258 ) ;
#50 = ADVANCED_FACE ( 'NONE', ( #378 ), #111, .T. ) ;
#51 = DIRECTION ( 'NONE',  ( -1.000000000000000000, -0.0000000000000000000, -0.0000000000000000000 ) ) ;
#52 = CARTESIAN_POINT ( 'NONE',  ( -1.999999999999991800, -3.864061621033530500E-016, 0.0000000000000000000 ) ) ;
#53 = APPROVAL_DATE_TIME ( #135, #10 ) ;
#54 = DIRECTION ( 'NONE',  ( -1.000000000000000000, -0.0000000000000000000, -0.0000000000000000000 ) ) ;
#55 = ORIENTED_EDGE ( 'NONE', *, *, #8, .T. ) ;
#56 = VECTOR ( 'NONE', #72, 1000.000000000000000 ) ;
#57 = CC_DESIGN_PERSON_AND_ORGANIZATION_ASSIGNMENT ( #381, #331, ( #407 ) ) ;
#58 = APPROVAL_PERSON_ORGANIZATION ( #138, #115, #164 ) ;
#59 = CARTESIAN_POINT ( 'NONE',  ( -46.70000000000000300, -6.143857977443331800E-015, 0.0000000000000000000 ) ) ;
#60 = ORIENTED_EDGE ( 'NONE', *, *, #1, .F. ) ;
#61 = LINE ( 'NONE', #177, #129 ) ;
#62 = ORIENTED_EDGE ( 'NONE', *, *, #370, .T. ) ;
#63 = CARTESIAN_POINT ( 'NONE',  ( -47.00000000000000000, -6.182498593653665300E-015, 0.0000000000000000000 ) ) ;
#64 = LINE ( 'NONE', #196, #45 ) ;
#65 = DIRECTION ( 'NONE',  ( -1.301042606982605600E-016, 1.000000000000000000, 0.0000000000000000000 ) ) ;
#66 = ORIENTED_EDGE ( 'NONE', *, *, #342, .T. ) ;
#67 = ORIENTED_EDGE ( 'NONE', *, *, #335, .T. ) ;
#68 = APPROVAL_PERSON_ORGANIZATION ( #149, #10, #103 ) ;
#69 = AXIS2_PLACEMENT_3D ( 'NONE', #83, #48, #269 ) ;
#70 = AXIS2_PLACEMENT_3D ( 'NONE', #355, #229, #3 ) ;
#71 = ORIENTED_EDGE ( 'NONE', *, *, #351, .T. ) ;
#72 = DIRECTION ( 'NONE',  ( -1.000000000000000000, -0.0000000000000000000, -0.0000000000000000000 ) ) ;
#73 = LOCAL_TIME ( 9, 23, 10.00000000000000000, #154 ) ;
#74 = APPLICATION_PROTOCOL_DEFINITION ( 'international standard', 'config_control_design', 1994, #259 ) ;
#75 = DIRECTION ( 'NONE',  ( -1.000000000000000000, -0.0000000000000000000, -0.0000000000000000000 ) ) ;
#76 = ORIENTED_EDGE ( 'NONE', *, *, #400, .F. ) ;
#77 = APPROVAL_ROLE ( '' ) ;
#78 = ORIENTED_EDGE ( 'NONE', *, *, #191, .F. ) ;
#79 = EDGE_CURVE ( 'NONE', #136, #166, #280, .T. ) ;
#80 =( NAMED_UNIT ( * ) PLANE_ANGLE_UNIT ( ) SI_UNIT ( $, .RADIAN. ) );
#81 = ORIENTED_EDGE ( 'NONE', *, *, #191, .T. ) ;
#82 = CC_DESIGN_DATE_AND_TIME_ASSIGNMENT ( #226, #131, ( #407 ) ) ;
#83 = CARTESIAN_POINT ( 'NONE',  ( 1.000000000000000000, 0.0000000000000000000, 0.0000000000000000000 ) ) ;
#84 = CARTESIAN_POINT ( 'NONE',  ( 1.000000000000000000, -6.089079351417808800E-033, 0.0000000000000000000 ) ) ;
#85 = CARTESIAN_POINT ( 'NONE',  ( 4.336808689942017700E-016, -1.288020540344513300E-016, 0.0000000000000000000 ) ) ;
#86 = CIRCLE ( 'NONE', #352, 3.000000000000000000 ) ;
#87 = VERTEX_POINT ( 'NONE', #11 ) ;
#88 = DIRECTION ( 'NONE',  ( 1.000000000000000000, 1.288020540344513800E-016, -0.0000000000000000000 ) ) ;
#89 = CARTESIAN_POINT ( 'NONE',  ( 4.336808689942017700E-016, -1.288020540344513300E-016, 0.0000000000000000000 ) ) ;
#90 = ADVANCED_FACE ( 'NONE', ( #36 ), #178, .T. ) ;
#91 = DIRECTION ( 'NONE',  ( -8.673617379884036700E-017, 1.000000000000000000, 0.0000000000000000000 ) ) ;
#92 = AXIS2_PLACEMENT_3D ( 'NONE', #84, #301, #107 ) ;
#93 = CARTESIAN_POINT ( 'NONE',  ( 0.0000000000000000000, 3.673940397442061800E-016, -3.000000000000001800 ) ) ;
#94 = DIRECTION ( 'NONE',  ( 0.0000000000000000000, 1.000000000000000000, 0.0000000000000000000 ) ) ;
#95 = CARTESIAN_POINT ( 'NONE',  ( 8.200870310975559100E-016, -3.000000000000000000, 3.673940397442059900E-016 ) ) ;
#96 = CIRCLE ( 'NONE', #246, 4.700000000000000200 ) ;
#97 = DIRECTION ( 'NONE',  ( 1.288020540344513800E-016, -1.000000000000000000, 0.0000000000000000000 ) ) ;
#98 = CARTESIAN_POINT ( 'NONE',  ( 0.9999999999999995600, 3.000000000000000000, 0.0000000000000000000 ) ) ;
#99 = EDGE_CURVE ( 'NONE', #234, #136, #367, .T. ) ;
#100 = PRODUCT_DEFINITION_FORMATION_WITH_SPECIFIED_SOURCE ( 'ANY', '', #409, .NOT_KNOWN. ) ;
#101 = DIRECTION ( 'NONE',  ( 1.000000000000000000, 1.288020540344513800E-016, -0.0000000000000000000 ) ) ;
#102 = FACE_OUTER_BOUND ( 'NONE', #365, .T. ) ;
#103 = APPROVAL_ROLE ( '' ) ;
#104 = PLANE ( 'NONE',  #361 ) ;
#105 = AXIS2_PLACEMENT_3D ( 'NONE', #179, #412, #217 ) ;
#106 = FACE_OUTER_BOUND ( 'NONE', #237, .T. ) ;
#107 = DIRECTION ( 'NONE',  ( -1.445602896647339200E-016, 1.000000000000000000, 0.0000000000000000000 ) ) ;
#108 = DIRECTION ( 'NONE',  ( 1.000000000000000000, 1.288020540344513800E-016, -0.0000000000000000000 ) ) ;
#109 = VERTEX_POINT ( 'NONE', #397 ) ;
#110 = EDGE_CURVE ( 'NONE', #130, #332, #354, .T. ) ;
#111 = CYLINDRICAL_SURFACE ( 'NONE', #158, 3.000000000000000000 ) ;
#112 = ADVANCED_FACE ( 'NONE', ( #102 ), #5, .T. ) ;
#113 = DIRECTION ( 'NONE',  ( 1.000000000000000000, 1.288020540344513800E-016, -0.0000000000000000000 ) ) ;
#114 = DIRECTION ( 'NONE',  ( -1.288020540344513800E-016, 1.000000000000000000, 0.0000000000000000000 ) ) ;
#115 = APPROVAL ( #356, 'UNSPECIFIED' ) ;
#116 = FACE_OUTER_BOUND ( 'NONE', #326, .T. ) ;
#117 = COORDINATED_UNIVERSAL_TIME_OFFSET ( 9, 0, .AHEAD. ) ;
#118 = LINE ( 'NONE', #323, #33 ) ;
#119 = EDGE_LOOP ( 'NONE', ( #160, #6, #124, #42 ) ) ;
#120 = CARTESIAN_POINT ( 'NONE',  ( 1.000000000000000000, 0.0000000000000000000, 0.0000000000000000000 ) ) ;
#121 = UNCERTAINTY_MEASURE_WITH_UNIT (LENGTH_MEASURE( 1.000000000000000100E-005 ), #189, 'distance_accuracy_value', 'NONE');
#122 = CARTESIAN_POINT ( 'NONE',  ( -46.70000000000000300, -6.143857977443331800E-015, 0.0000000000000000000 ) ) ;
#123 = CYLINDRICAL_SURFACE ( 'NONE', #69, 4.999999999999999100 ) ;
#124 = ORIENTED_EDGE ( 'NONE', *, *, #357, .T. ) ;
#125 = AXIS2_PLACEMENT_3D ( 'NONE', #63, #277, #97 ) ;
#126 = CIRCLE ( 'NONE', #39, 3.000000000000000000 ) ;
#127 = DATE_AND_TIME ( #210, #300 ) ;
#128 = PLANE ( 'NONE',  #19 ) ;
#129 = VECTOR ( 'NONE', #408, 1000.000000000000000 ) ;
#130 = VERTEX_POINT ( 'NONE', #325 ) ;
#131 = DATE_TIME_ROLE ( 'creation_date' ) ;
#132 = FACE_OUTER_BOUND ( 'NONE', #305, .T. ) ;
#133 = ORIENTED_EDGE ( 'NONE', *, *, #377, .T. ) ;
#134 = EDGE_CURVE ( 'NONE', #332, #130, #96, .T. ) ;
#135 = DATE_AND_TIME ( #224, #315 ) ;
#136 = VERTEX_POINT ( 'NONE', #98 ) ;
#137 = CYLINDRICAL_SURFACE ( 'NONE', #2, 3.000000000000001800 ) ;
#138 = PERSON_AND_ORGANIZATION ( #321, #214 ) ;
#139 = CC_DESIGN_APPROVAL ( #115, ( #100 ) ) ;
#140 = DIRECTION ( 'NONE',  ( -0.7071067811865462400, -0.7071067811865489100, 0.0000000000000000000 ) ) ;
#141 = DIRECTION ( 'NONE',  ( -1.000000000000000000, -1.288020540344513800E-016, 0.0000000000000000000 ) ) ;
#142 = VECTOR ( 'NONE', #173, 1000.000000000000100 ) ;
#143 = ORIENTED_EDGE ( 'NONE', *, *, #222, .F. ) ;
#144 = ORIENTED_EDGE ( 'NONE', *, *, #157, .F. ) ;
#145 = EDGE_LOOP ( 'NONE', ( #143, #391, #395, #78 ) ) ;
#146 = ORIENTED_EDGE ( 'NONE', *, *, #79, .F. ) ;
#147 = CARTESIAN_POINT ( 'NONE',  ( -47.00000000000000000, 4.699999999999994000, 0.0000000000000000000 ) ) ;
#148 = DIRECTION ( 'NONE',  ( 1.000000000000000000, 0.0000000000000000000, 0.0000000000000000000 ) ) ;
#149 = PERSON_AND_ORGANIZATION ( #321, #214 ) ;
#150 = ADVANCED_FACE ( 'NONE', ( #170 ), #165, .T. ) ;
#151 = CARTESIAN_POINT ( 'NONE',  ( -46.70000000000000300, 4.999999999999992900, 0.0000000000000000000 ) ) ;
#152 = ORIENTED_EDGE ( 'NONE', *, *, #134, .F. ) ;
#153 = AXIS2_PLACEMENT_3D ( 'NONE', #89, #310, #114 ) ;
#154 = COORDINATED_UNIVERSAL_TIME_OFFSET ( 9, 0, .AHEAD. ) ;
#155 = ORIENTED_EDGE ( 'NONE', *, *, #99, .F. ) ;
#156 = ORIENTED_EDGE ( 'NONE', *, *, #1, .T. ) ;
#157 = EDGE_CURVE ( 'NONE', #166, #136, #340, .T. ) ;
#158 = AXIS2_PLACEMENT_3D ( 'NONE', #205, #113, #17 ) ;
#159 = CARTESIAN_POINT ( 'NONE',  ( 1.000000000000000000, -6.089079351417808800E-033, 0.0000000000000000000 ) ) ;
#160 = ORIENTED_EDGE ( 'NONE', *, *, #370, .F. ) ;
#161 = CC_DESIGN_PERSON_AND_ORGANIZATION_ASSIGNMENT ( #373, #388, ( #100 ) ) ;
#162 = DIRECTION ( 'NONE',  ( 1.000000000000000000, 1.288020540344513800E-016, -0.0000000000000000000 ) ) ;
#163 = CARTESIAN_POINT ( 'NONE',  ( 1.000000000000000400, 0.0000000000000000000, 0.0000000000000000000 ) ) ;
#164 = APPROVAL_ROLE ( '' ) ;
#165 = CONICAL_SURFACE ( 'NONE', #263, 4.999999999999999100, 0.7853981633974555000 ) ;
#166 = VERTEX_POINT ( 'NONE', #281 ) ;
#167 = DIRECTION ( 'NONE',  ( -1.000000000000000000, 0.0000000000000000000, -0.0000000000000000000 ) ) ;
#168 = CARTESIAN_POINT ( 'NONE',  ( 0.0000000000000000000, 0.0000000000000000000, 0.0000000000000000000 ) ) ;
#169 = AXIS2_PLACEMENT_3D ( 'NONE', #202, #15, #243 ) ;
#170 = FACE_OUTER_BOUND ( 'NONE', #187, .T. ) ;
#171 = EDGE_CURVE ( 'NONE', #109, #235, #13, .T. ) ;
#172 = AXIS2_PLACEMENT_3D ( 'NONE', #303, #108, #212 ) ;
#173 = DIRECTION ( 'NONE',  ( 0.7071067811865422400, 0.7071067811865526800, 0.0000000000000000000 ) ) ;
#174 = ADVANCED_FACE ( 'NONE', ( #266 ), #410, .T. ) ;
#175 = CARTESIAN_POINT ( 'NONE',  ( 0.0000000000000000000, 0.0000000000000000000, 0.0000000000000000000 ) ) ;
#176 = CC_DESIGN_PERSON_AND_ORGANIZATION_ASSIGNMENT ( #285, #188, ( #100 ) ) ;
#177 = CARTESIAN_POINT ( 'NONE',  ( -46.70000000000000300, -5.000000000000005300, 6.123233995736765300E-016 ) ) ;
#178 = CYLINDRICAL_SURFACE ( 'NONE', #192, 3.000000000000001800 ) ;
#179 = CARTESIAN_POINT ( 'NONE',  ( 4.336808689942017700E-016, -1.288020540344513300E-016, 0.0000000000000000000 ) ) ;
#180 = DIRECTION ( 'NONE',  ( 1.000000000000000000, 1.288020540344513800E-016, -0.0000000000000000000 ) ) ;
#181 = AXIS2_PLACEMENT_3D ( 'NONE', #120, #376, #65 ) ;
#182 = CIRCLE ( 'NONE', #169, 4.999999999999999100 ) ;
#183 = DIRECTION ( 'NONE',  ( 0.0000000000000000000, 0.0000000000000000000, 1.000000000000000000 ) ) ;
#184 = PRODUCT_DEFINITION_SHAPE ( 'NONE', 'NONE',  #407 ) ;
#185 = ORIENTED_EDGE ( 'NONE', *, *, #134, .T. ) ;
#186 = SHAPE_DEFINITION_REPRESENTATION ( #184, #16 ) ;
#187 = EDGE_LOOP ( 'NONE', ( #185, #62, #307, #383 ) ) ;
#188 = PERSON_AND_ORGANIZATION_ROLE ( 'design_supplier' ) ;
#189 =( LENGTH_UNIT ( ) NAMED_UNIT ( * ) SI_UNIT ( .MILLI., .METRE. ) );
#190 = VECTOR ( 'NONE', #12, 1000.000000000000000 ) ;
#191 = EDGE_CURVE ( 'NONE', #411, #375, #86, .T. ) ;
#192 = AXIS2_PLACEMENT_3D ( 'NONE', #343, #339, #265 ) ;
#193 = LINE ( 'NONE', #26, #284 ) ;
#194 = SECURITY_CLASSIFICATION ( '', '', #7 ) ;
#195 = PERSON_AND_ORGANIZATION ( #321, #214 ) ;
#196 = CARTESIAN_POINT ( 'NONE',  ( 8.200870310975559100E-016, -3.000000000000000000, 0.0000000000000000000 ) ) ;
#197 = CARTESIAN_POINT ( 'NONE',  ( 0.9999999999999995600, 3.000000000000000000, 0.0000000000000000000 ) ) ;
#198 = FACE_OUTER_BOUND ( 'NONE', #337, .T. ) ;
#199 = ORIENTED_EDGE ( 'NONE', *, *, #393, .F. ) ;
#200 = LINE ( 'NONE', #309, #389 ) ;
#201 = CARTESIAN_POINT ( 'NONE',  ( 0.9999999999999993300, 4.999999999999999100, 0.0000000000000000000 ) ) ;
#202 = CARTESIAN_POINT ( 'NONE',  ( -1.999999999999991800, -3.864061621033530500E-016, 0.0000000000000000000 ) ) ;
#203 = EDGE_LOOP ( 'NONE', ( #34, #249 ) ) ;
#204 = ADVANCED_FACE ( 'NONE', ( #260 ), #137, .T. ) ;
#205 = CARTESIAN_POINT ( 'NONE',  ( 1.000000000000000000, 0.0000000000000000000, 0.0000000000000000000 ) ) ;
#206 = DIRECTION ( 'NONE',  ( 1.000000000000000000, 1.288020540344513800E-016, -0.0000000000000000000 ) ) ;
#207 = CARTESIAN_POINT ( 'NONE',  ( 1.000000000000000400, 0.0000000000000000000, 0.0000000000000000000 ) ) ;
#208 = EDGE_LOOP ( 'NONE', ( #230, #25, #55, #67 ) ) ;
#209 = FACE_OUTER_BOUND ( 'NONE', #203, .T. ) ;
#210 = CALENDAR_DATE ( 2023, 8, 6 ) ;
#211 = CARTESIAN_POINT ( 'NONE',  ( -46.70000000000000300, -6.143857977443331800E-015, 0.0000000000000000000 ) ) ;
#212 = DIRECTION ( 'NONE',  ( 0.0000000000000000000, 1.000000000000000000, 0.0000000000000000000 ) ) ;
#213 = ORIENTED_EDGE ( 'NONE', *, *, #311, .F. ) ;
#214 = ORGANIZATION ( 'UNSPECIFIED', 'UNSPECIFIED', '' ) ;
#215 = ORIENTED_EDGE ( 'NONE', *, *, #342, .F. ) ;
#216 = PLANE ( 'NONE',  #125 ) ;
#217 = DIRECTION ( 'NONE',  ( -1.288020540344513800E-016, 1.000000000000000000, 0.0000000000000000000 ) ) ;
#218 = VECTOR ( 'NONE', #402, 1000.000000000000000 ) ;
#219 = ORIENTED_EDGE ( 'NONE', *, *, #27, .F. ) ;
#220 = VERTEX_POINT ( 'NONE', #151 ) ;
#221 = DIRECTION ( 'NONE',  ( 1.000000000000000000, 1.288020540344513800E-016, -0.0000000000000000000 ) ) ;
#222 = EDGE_CURVE ( 'NONE', #399, #411, #349, .T. ) ;
#223 = AXIS2_PLACEMENT_3D ( 'NONE', #85, #141, #240 ) ;
#224 = CALENDAR_DATE ( 2023, 8, 6 ) ;
#225 = ORIENTED_EDGE ( 'NONE', *, *, #27, .T. ) ;
#226 = DATE_AND_TIME ( #318, #396 ) ;
#227 = CC_DESIGN_PERSON_AND_ORGANIZATION_ASSIGNMENT ( #195, #233, ( #194 ) ) ;
#228 = APPROVAL_DATE_TIME ( #322, #264 ) ;
#229 = DIRECTION ( 'NONE',  ( -1.000000000000000000, -1.288020540344513800E-016, 0.0000000000000000000 ) ) ;
#230 = ORIENTED_EDGE ( 'NONE', *, *, #377, .F. ) ;
#231 = MECHANICAL_CONTEXT ( 'NONE', #359, 'mechanical' ) ;
#232 = ORIENTED_EDGE ( 'NONE', *, *, #171, .T. ) ;
#233 = PERSON_AND_ORGANIZATION_ROLE ( 'classification_officer' ) ;
#234 = VERTEX_POINT ( 'NONE', #317 ) ;
#235 = VERTEX_POINT ( 'NONE', #287 ) ;
#236 = PERSON_AND_ORGANIZATION ( #321, #214 ) ;
#237 = EDGE_LOOP ( 'NONE', ( #278, #81 ) ) ;
#238 = AXIS2_PLACEMENT_3D ( 'NONE', #211, #21, #251 ) ;
#239 = APPROVAL_PERSON_ORGANIZATION ( #329, #264, #77 ) ;
#240 = DIRECTION ( 'NONE',  ( 1.288020540344513800E-016, -1.000000000000000000, 0.0000000000000000000 ) ) ;
#241 = CIRCLE ( 'NONE', #238, 4.999999999999999100 ) ;
#242 = ORIENTED_EDGE ( 'NONE', *, *, #110, .F. ) ;
#243 = DIRECTION ( 'NONE',  ( -8.673617379884036700E-017, 1.000000000000000000, 0.0000000000000000000 ) ) ;
#244 = ADVANCED_FACE ( 'NONE', ( #209 ), #128, .T. ) ;
#245 = EDGE_CURVE ( 'NONE', #220, #297, #384, .T. ) ;
#246 = AXIS2_PLACEMENT_3D ( 'NONE', #413, #221, #28 ) ;
#247 = CARTESIAN_POINT ( 'NONE',  ( 17.00000000000000000, 0.0000000000000000000, 0.0000000000000000000 ) ) ;
#248 = CARTESIAN_POINT ( 'NONE',  ( 1.000000000000000000, 0.0000000000000000000, 0.0000000000000000000 ) ) ;
#249 = ORIENTED_EDGE ( 'NONE', *, *, #157, .T. ) ;
#250 = DIRECTION ( 'NONE',  ( 0.0000000000000000000, 0.0000000000000000000, 1.000000000000000000 ) ) ;
#251 = DIRECTION ( 'NONE',  ( 0.0000000000000000000, 1.000000000000000000, 0.0000000000000000000 ) ) ;
#252 = CC_DESIGN_DATE_AND_TIME_ASSIGNMENT ( #276, #35, ( #194 ) ) ;
#253 = DIRECTION ( 'NONE',  ( -0.7071067811865464600, 0.7071067811865486800, 8.659560562354948900E-017 ) ) ;
#254 = LINE ( 'NONE', #404, #142 ) ;
#255 = ORIENTED_EDGE ( 'NONE', *, *, #46, .F. ) ;
#256 = DIRECTION ( 'NONE',  ( -1.000000000000000000, -0.0000000000000000000, -0.0000000000000000000 ) ) ;
#257 = DIRECTION ( 'NONE',  ( 0.0000000000000000000, 1.000000000000000000, 0.0000000000000000000 ) ) ;
#258 = AXIS2_PLACEMENT_3D ( 'NONE', #344, #148, #369 ) ;
#259 = APPLICATION_CONTEXT ( 'configuration controlled 3d designs of mechanical parts and assemblies' ) ;
#260 = FACE_OUTER_BOUND ( 'NONE', #401, .T. ) ;
#261 = APPROVAL_STATUS ( 'not_yet_approved' ) ;
#262 = EDGE_CURVE ( 'NONE', #375, #411, #126, .T. ) ;
#263 = AXIS2_PLACEMENT_3D ( 'NONE', #122, #180, #257 ) ;
#264 = APPROVAL ( #261, 'UNSPECIFIED' ) ;
#265 = DIRECTION ( 'NONE',  ( 0.0000000000000000000, 0.0000000000000000000, 1.000000000000000000 ) ) ;
#266 = FACE_OUTER_BOUND ( 'NONE', #316, .T. ) ;
#267 = MANIFOLD_SOLID_BREP ( 'È¸Àü4', #387 ) ;
#268 = ADVANCED_FACE ( 'NONE', ( #298 ), #362, .T. ) ;
#269 = DIRECTION ( 'NONE',  ( -1.301042606982605600E-016, 1.000000000000000000, 0.0000000000000000000 ) ) ;
#270 = DIRECTION ( 'NONE',  ( 0.0000000000000000000, 0.0000000000000000000, 1.000000000000000000 ) ) ;
#271 = DIRECTION ( 'NONE',  ( 1.000000000000000000, 1.288020540344513800E-016, -0.0000000000000000000 ) ) ;
#272 = ADVANCED_FACE ( 'NONE', ( #40 ), #216, .T. ) ;
#273 = AXIS2_PLACEMENT_3D ( 'NONE', #59, #274, #94 ) ;
#274 = DIRECTION ( 'NONE',  ( 1.000000000000000000, 1.288020540344513800E-016, -0.0000000000000000000 ) ) ;
#275 = CIRCLE ( 'NONE', #153, 3.000000000000000000 ) ;
#276 = DATE_AND_TIME ( #363, #31 ) ;
#277 = DIRECTION ( 'NONE',  ( -1.000000000000000000, -1.288020540344513800E-016, 0.0000000000000000000 ) ) ;
#278 = ORIENTED_EDGE ( 'NONE', *, *, #262, .T. ) ;
#279 = CARTESIAN_POINT ( 'NONE',  ( 17.00000000000000000, 0.0000000000000000000, 0.0000000000000000000 ) ) ;
#280 = CIRCLE ( 'NONE', #92, 3.000000000000000000 ) ;
#281 = CARTESIAN_POINT ( 'NONE',  ( 1.000000000000000400, -3.000000000000000000, 3.673940397442059900E-016 ) ) ;
#282 = EDGE_CURVE ( 'NONE', #405, #234, #30, .T. ) ;
#283 = AXIS2_PLACEMENT_3D ( 'NONE', #159, #380, #364 ) ;
#284 = VECTOR ( 'NONE', #256, 1000.000000000000000 ) ;
#285 = PERSON_AND_ORGANIZATION ( #321, #214 ) ;
#286 = CC_DESIGN_APPROVAL ( #264, ( #194 ) ) ;
#287 = CARTESIAN_POINT ( 'NONE',  ( -1.999999999999991300, -4.999999999999999100, 0.0000000000000000000 ) ) ;
#288 = CARTESIAN_POINT ( 'NONE',  ( -46.70000000000000300, -6.143857977443331800E-015, 0.0000000000000000000 ) ) ;
#289 = VECTOR ( 'NONE', #253, 1000.000000000000000 ) ;
#290 = ORIENTED_EDGE ( 'NONE', *, *, #46, .T. ) ;
#291 = APPROVAL_STATUS ( 'not_yet_approved' ) ;
#292 = DIRECTION ( 'NONE',  ( 0.0000000000000000000, 0.0000000000000000000, 1.000000000000000000 ) ) ;
#293 = CIRCLE ( 'NONE', #38, 3.000000000000003100 ) ;
#294 =( NAMED_UNIT ( * ) SI_UNIT ( $, .STERADIAN. ) SOLID_ANGLE_UNIT ( ) );
#295 = CLOSED_SHELL ( 'NONE', ( #204, #90, #345, #403 ) ) ;
#296 = COORDINATED_UNIVERSAL_TIME_OFFSET ( 9, 0, .AHEAD. ) ;
#297 = VERTEX_POINT ( 'NONE', #24 ) ;
#298 = FACE_OUTER_BOUND ( 'NONE', #208, .T. ) ;
#299 = AXIS2_PLACEMENT_3D ( 'NONE', #279, #75, #292 ) ;
#300 = LOCAL_TIME ( 9, 23, 10.00000000000000000, #385 ) ;
#301 = DIRECTION ( 'NONE',  ( 1.000000000000000000, 1.288020540344513800E-016, -0.0000000000000000000 ) ) ;
#302 = EDGE_LOOP ( 'NONE', ( #66, #225, #146, #155 ) ) ;
#303 = CARTESIAN_POINT ( 'NONE',  ( -47.00000000000000000, -6.182498593653666100E-015, 0.0000000000000000000 ) ) ;
#304 = CIRCLE ( 'NONE', #299, 3.000000000000003100 ) ;
#305 = EDGE_LOOP ( 'NONE', ( #392, #324, #37, #60 ) ) ;
#306 = LINE ( 'NONE', #201, #218 ) ;
#307 = ORIENTED_EDGE ( 'NONE', *, *, #245, .F. ) ;
#308 = ORIENTED_EDGE ( 'NONE', *, *, #8, .F. ) ;
#309 = CARTESIAN_POINT ( 'NONE',  ( 1.000000000000000400, -3.000000000000000000, 3.673940397442059900E-016 ) ) ;
#310 = DIRECTION ( 'NONE',  ( 1.000000000000000000, 1.288020540344513800E-016, -0.0000000000000000000 ) ) ;
#311 = EDGE_CURVE ( 'NONE', #87, #375, #193, .T. ) ;
#312 = AXIS2_PLACEMENT_3D ( 'NONE', #52, #271, #91 ) ;
#313 = ADVANCED_FACE ( 'NONE', ( #116 ), #22, .T. ) ;
#314 = DIRECTION ( 'NONE',  ( -1.445602896647339200E-016, 1.000000000000000000, 0.0000000000000000000 ) ) ;
#315 = LOCAL_TIME ( 9, 23, 10.00000000000000000, #394 ) ;
#316 = EDGE_LOOP ( 'NONE', ( #219, #44, #47, #144 ) ) ;
#317 = CARTESIAN_POINT ( 'NONE',  ( 4.727470689084764700E-017, 3.000000000000000000, 0.0000000000000000000 ) ) ;
#318 = CALENDAR_DATE ( 2023, 8, 6 ) ;
#319 = CARTESIAN_POINT ( 'NONE',  ( 4.727470689084764700E-017, 3.000000000000000000, 3.673940397442059900E-016 ) ) ;
#320 = CC_DESIGN_SECURITY_CLASSIFICATION ( #194, ( #100 ) ) ;
#321 = PERSON ( 'UNSPECIFIED', 'UNSPECIFIED', 'UNSPECIFIED', ('UNSPECIFIED'), ('UNSPECIFIED'), ('UNSPECIFIED') ) ;
#322 = DATE_AND_TIME ( #398, #73 ) ;
#323 = CARTESIAN_POINT ( 'NONE',  ( 1.000000000000000700, -4.999999999999999100, 6.123233995736765300E-016 ) ) ;
#324 = ORIENTED_EDGE ( 'NONE', *, *, #400, .T. ) ;
#325 = CARTESIAN_POINT ( 'NONE',  ( -47.00000000000000000, -4.700000000000006400, 5.939536975864663000E-016 ) ) ;
#326 = EDGE_LOOP ( 'NONE', ( #76, #71, #156, #366 ) ) ;
#327 = MANIFOLD_SOLID_BREP ( 'È¸Àü3', #295 ) ;
#328 = EDGE_LOOP ( 'NONE', ( #152, #242 ) ) ;
#329 = PERSON_AND_ORGANIZATION ( #321, #214 ) ;
#330 = DIRECTION ( 'NONE',  ( 0.0000000000000000000, 1.000000000000000000, 0.0000000000000000000 ) ) ;
#331 = PERSON_AND_ORGANIZATION_ROLE ( 'creator' ) ;
#332 = VERTEX_POINT ( 'NONE', #147 ) ;
#333 = DIRECTION ( 'NONE',  ( 1.000000000000000000, 1.288020540344513800E-016, -0.0000000000000000000 ) ) ;
#334 = APPLICATION_PROTOCOL_DEFINITION ( 'international standard', 'config_control_design', 1994, #359 ) ;
#335 = EDGE_CURVE ( 'NONE', #235, #109, #182, .T. ) ;
#336 = AXIS2_PLACEMENT_3D ( 'NONE', #288, #101, #330 ) ;
#337 = EDGE_LOOP ( 'NONE', ( #255, #199 ) ) ;
#338 = PRODUCT_RELATED_PRODUCT_CATEGORY ( 'detail', '', ( #409 ) ) ;
#339 = DIRECTION ( 'NONE',  ( -1.000000000000000000, -0.0000000000000000000, -0.0000000000000000000 ) ) ;
#340 = CIRCLE ( 'NONE', #283, 3.000000000000000000 ) ;
#341 = ORIENTED_EDGE ( 'NONE', *, *, #222, .T. ) ;
#342 = EDGE_CURVE ( 'NONE', #234, #405, #275, .T. ) ;
#343 = CARTESIAN_POINT ( 'NONE',  ( 0.0000000000000000000, 0.0000000000000000000, 0.0000000000000000000 ) ) ;
#344 = CARTESIAN_POINT ( 'NONE',  ( 1.000000000000000700, 1.445602896647340400E-016, 0.0000000000000000000 ) ) ;
#345 = ADVANCED_FACE ( 'NONE', ( #106 ), #49, .F. ) ;
#346 = DIRECTION ( 'NONE',  ( -1.000000000000000000, -0.0000000000000000000, -0.0000000000000000000 ) ) ;
#347 =( GEOMETRIC_REPRESENTATION_CONTEXT ( 3 ) GLOBAL_UNCERTAINTY_ASSIGNED_CONTEXT ( ( #121 ) ) GLOBAL_UNIT_ASSIGNED_CONTEXT ( ( #189, #80, #294 ) ) REPRESENTATION_CONTEXT ( 'NONE', 'WORKASPACE' ) );
#348 = CARTESIAN_POINT ( 'NONE',  ( 1.000000000000000400, 0.0000000000000000000, 3.000000000000000000 ) ) ;
#349 = LINE ( 'NONE', #93, #56 ) ;
#350 = DIRECTION ( 'NONE',  ( 0.0000000000000000000, 0.0000000000000000000, 1.000000000000000000 ) ) ;
#351 = EDGE_CURVE ( 'NONE', #297, #220, #241, .T. ) ;
#352 = AXIS2_PLACEMENT_3D ( 'NONE', #207, #20, #250 ) ;
#353 = CARTESIAN_POINT ( 'NONE',  ( 0.9999999999999995600, 3.000000000000000000, 0.0000000000000000000 ) ) ;
#354 = CIRCLE ( 'NONE', #172, 4.700000000000000200 ) ;
#355 = CARTESIAN_POINT ( 'NONE',  ( 4.336808689942017700E-016, -1.288020540344513300E-016, 0.0000000000000000000 ) ) ;
#356 = APPROVAL_STATUS ( 'not_yet_approved' ) ;
#357 = EDGE_CURVE ( 'NONE', #332, #220, #254, .T. ) ;
#358 = CARTESIAN_POINT ( 'NONE',  ( 17.00000000000000000, 0.0000000000000000000, 0.0000000000000000000 ) ) ;
#359 = APPLICATION_CONTEXT ( 'configuration controlled 3d designs of mechanical parts and assemblies' ) ;
#360 = AXIS2_PLACEMENT_3D ( 'NONE', #168, #183, #4 ) ;
#361 = AXIS2_PLACEMENT_3D ( 'NONE', #358, #167, #390 ) ;
#362 = CONICAL_SURFACE ( 'NONE', #70, 3.000000000000000000, 0.7853981633974500600 ) ;
#363 = CALENDAR_DATE ( 2023, 8, 6 ) ;
#364 = DIRECTION ( 'NONE',  ( -1.445602896647339200E-016, 1.000000000000000000, 0.0000000000000000000 ) ) ;
#365 = EDGE_LOOP ( 'NONE', ( #215, #133, #232, #308 ) ) ;
#366 = ORIENTED_EDGE ( 'NONE', *, *, #335, .F. ) ;
#367 = LINE ( 'NONE', #197, #190 ) ;
#368 = ADVANCED_FACE ( 'NONE', ( #372 ), #374, .T. ) ;
#369 = DIRECTION ( 'NONE',  ( 0.0000000000000000000, 0.0000000000000000000, -1.000000000000000000 ) ) ;
#370 = EDGE_CURVE ( 'NONE', #130, #297, #61, .T. ) ;
#371 = AXIS2_PLACEMENT_3D ( 'NONE', #248, #206, #314 ) ;
#372 = FACE_OUTER_BOUND ( 'NONE', #119, .T. ) ;
#373 = PERSON_AND_ORGANIZATION ( #321, #214 ) ;
#374 = CONICAL_SURFACE ( 'NONE', #273, 4.999999999999999100, 0.7853981633974555000 ) ;
#375 = VERTEX_POINT ( 'NONE', #348 ) ;
#376 = DIRECTION ( 'NONE',  ( 1.000000000000000000, 1.288020540344513800E-016, -0.0000000000000000000 ) ) ;
#377 = EDGE_CURVE ( 'NONE', #234, #109, #43, .T. ) ;
#378 = FACE_OUTER_BOUND ( 'NONE', #302, .T. ) ;
#379 = ORIENTED_EDGE ( 'NONE', *, *, #262, .F. ) ;
#380 = DIRECTION ( 'NONE',  ( 1.000000000000000000, 1.288020540344513800E-016, -0.0000000000000000000 ) ) ;
#381 = PERSON_AND_ORGANIZATION ( #321, #214 ) ;
#382 = CC_DESIGN_PERSON_AND_ORGANIZATION_ASSIGNMENT ( #236, #32, ( #409 ) ) ;
#383 = ORIENTED_EDGE ( 'NONE', *, *, #357, .F. ) ;
#384 = CIRCLE ( 'NONE', #336, 4.999999999999999100 ) ;
#385 = COORDINATED_UNIVERSAL_TIME_OFFSET ( 9, 0, .AHEAD. ) ;
#386 = DIRECTION ( 'NONE',  ( -1.288020540344513800E-016, 1.000000000000000000, 0.0000000000000000000 ) ) ;
#387 = CLOSED_SHELL ( 'NONE', ( #150, #18, #112, #50, #272, #244, #174, #268, #313, #368 ) ) ;
#388 = PERSON_AND_ORGANIZATION_ROLE ( 'creator' ) ;
#389 = VECTOR ( 'NONE', #88, 1000.000000000000000 ) ;
#390 = DIRECTION ( 'NONE',  ( -0.0000000000000000000, 0.0000000000000000000, 1.000000000000000000 ) ) ;
#391 = ORIENTED_EDGE ( 'NONE', *, *, #393, .T. ) ;
#392 = ORIENTED_EDGE ( 'NONE', *, *, #245, .T. ) ;
#393 = EDGE_CURVE ( 'NONE', #399, #87, #304, .T. ) ;
#394 = COORDINATED_UNIVERSAL_TIME_OFFSET ( 9, 0, .AHEAD. ) ;
#395 = ORIENTED_EDGE ( 'NONE', *, *, #311, .T. ) ;
#396 = LOCAL_TIME ( 9, 23, 10.00000000000000000, #296 ) ;
#397 = CARTESIAN_POINT ( 'NONE',  ( -1.999999999999992700, 4.999999999999999100, 6.123233995736766300E-016 ) ) ;
#398 = CALENDAR_DATE ( 2023, 8, 6 ) ;
#399 = VERTEX_POINT ( 'NONE', #23 ) ;
#400 = EDGE_CURVE ( 'NONE', #297, #235, #118, .T. ) ;
#401 = EDGE_LOOP ( 'NONE', ( #290, #341, #379, #213 ) ) ;
#402 = DIRECTION ( 'NONE',  ( 1.000000000000000000, 1.288020540344513800E-016, -0.0000000000000000000 ) ) ;
#403 = ADVANCED_FACE ( 'NONE', ( #198 ), #104, .F. ) ;
#404 = CARTESIAN_POINT ( 'NONE',  ( -46.70000000000000300, 4.999999999999992900, 0.0000000000000000000 ) ) ;
#405 = VERTEX_POINT ( 'NONE', #95 ) ;
#406 = DIRECTION ( 'NONE',  ( 0.0000000000000000000, 0.0000000000000000000, 1.000000000000000000 ) ) ;
#407 = PRODUCT_DEFINITION ( 'UNKNOWN', '', #100, #14 ) ;
#408 = DIRECTION ( 'NONE',  ( 0.7071067811865425800, -0.7071067811865525700, 8.659560562354995700E-017 ) ) ;
#409 = PRODUCT ( '03-2995', '03-2995', '', ( #231 ) ) ;
#410 = CYLINDRICAL_SURFACE ( 'NONE', #371, 3.000000000000000000 ) ;
#411 = VERTEX_POINT ( 'NONE', #9 ) ;
#412 = DIRECTION ( 'NONE',  ( 1.000000000000000000, 1.288020540344513800E-016, -0.0000000000000000000 ) ) ;
#413 = CARTESIAN_POINT ( 'NONE',  ( -47.00000000000000000, -6.182498593653666100E-015, 0.0000000000000000000 ) ) ;
ENDSEC;
END-ISO-10303-21;
