ISO-10303-21;
HEADER;
FILE_DESCRIPTION (( 'STEP AP203' ),
    '1' );
FILE_NAME ('03-2996.STEP',
    '2023-06-08T00:23:30',
    ( 'USER' ),
    ( 'Hewlett-Packard Company' ),
    'SwSTEP 2.0',
    'SolidWorks 2014',
    '' );
FILE_SCHEMA (( 'CONFIG_CONTROL_DESIGN' ));
ENDSEC;

DATA;
#1 = CARTESIAN_POINT ( 'NONE',  ( 21.00000000000000400, 0.0000000000000000000, 0.0000000000000000000 ) ) ;
#2 = CIRCLE ( 'NONE', #188, 5.000000000000000000 ) ;
#3 = CARTESIAN_POINT ( 'NONE',  ( -0.9999999999999965600, -2.415971298029660600E-016, 0.0000000000000000000 ) ) ;
#4 = CC_DESIGN_PERSON_AND_ORGANIZATION_ASSIGNMENT ( #383, #302, ( #398 ) ) ;
#5 = EDGE_CURVE ( 'NONE', #161, #377, #233, .T. ) ;
#6 = ORIENTED_EDGE ( 'NONE', *, *, #218, .T. ) ;
#7 = CARTESIAN_POINT ( 'NONE',  ( -0.9999999999999958900, -5.000000000000000000, 0.0000000000000000000 ) ) ;
#8 = DIRECTION ( 'NONE',  ( 1.207985649014832500E-016, -1.000000000000000000, 0.0000000000000000000 ) ) ;
#9 = CARTESIAN_POINT ( 'NONE',  ( 0.9999999999999995600, 4.898587196589414800E-016, -4.000000000000000000 ) ) ;
#10 = DIRECTION ( 'NONE',  ( 1.000000000000000000, 1.207985649014832500E-016, -0.0000000000000000000 ) ) ;
#11 = FACE_OUTER_BOUND ( 'NONE', #323, .T. ) ;
#12 = APPLICATION_CONTEXT ( 'configuration controlled 3d designs of mechanical parts and assemblies' ) ;
#13 = VERTEX_POINT ( 'NONE', #119 ) ;
#14 = AXIS2_PLACEMENT_3D ( 'NONE', #304, #107, #339 ) ;
#15 = DIRECTION ( 'NONE',  ( -1.301042606982605300E-016, 1.000000000000000000, 0.0000000000000000000 ) ) ;
#16 = PLANE ( 'NONE',  #83 ) ;
#17 = CARTESIAN_POINT ( 'NONE',  ( 4.336808689942017700E-016, -1.207985649014832000E-016, 0.0000000000000000000 ) ) ;
#18 = LOCAL_TIME ( 9, 23, 30.00000000000000000, #101 ) ;
#19 = VERTEX_POINT ( 'NONE', #321 ) ;
#20 = CARTESIAN_POINT ( 'NONE',  ( -43.00000000000000000, 4.699999999999995700, 0.0000000000000000000 ) ) ;
#21 = CARTESIAN_POINT ( 'NONE',  ( -4.951339061173125100E-017, 4.000000000000000000, 4.898587196589412800E-016 ) ) ;
#22 = EDGE_CURVE ( 'NONE', #198, #149, #313, .T. ) ;
#23 = DIRECTION ( 'NONE',  ( -1.000000000000000000, -0.0000000000000000000, -0.0000000000000000000 ) ) ;
#24 = DIRECTION ( 'NONE',  ( 1.000000000000000000, 1.207985649014832500E-016, -0.0000000000000000000 ) ) ;
#25 = ORIENTED_EDGE ( 'NONE', *, *, #182, .T. ) ;
#26 = ADVANCED_FACE ( 'NONE', ( #391 ), #57, .T. ) ;
#27 = CC_DESIGN_DATE_AND_TIME_ASSIGNMENT ( #46, #106, ( #398 ) ) ;
#28 = EDGE_CURVE ( 'NONE', #377, #63, #324, .T. ) ;
#29 = VERTEX_POINT ( 'NONE', #7 ) ;
#30 = DIRECTION ( 'NONE',  ( 0.0000000000000000000, 0.0000000000000000000, 1.000000000000000000 ) ) ;
#31 = AXIS2_PLACEMENT_3D ( 'NONE', #115, #371, #55 ) ;
#32 = CALENDAR_DATE ( 2023, 8, 6 ) ;
#33 = DIRECTION ( 'NONE',  ( -1.301042606982605300E-016, 1.000000000000000000, 0.0000000000000000000 ) ) ;
#34 = ADVANCED_FACE ( 'NONE', ( #140 ), #102, .T. ) ;
#35 = EDGE_LOOP ( 'NONE', ( #181, #121, #25, #208 ) ) ;
#36 = DIRECTION ( 'NONE',  ( -1.000000000000000000, -0.0000000000000000000, -0.0000000000000000000 ) ) ;
#37 = DATE_AND_TIME ( #122, #210 ) ;
#38 = CARTESIAN_POINT ( 'NONE',  ( -42.69999999999999600, -5.278897286194817700E-015, 0.0000000000000000000 ) ) ;
#39 = DIRECTION ( 'NONE',  ( 1.000000000000000000, 0.0000000000000000000, 0.0000000000000000000 ) ) ;
#40 = DIRECTION ( 'NONE',  ( 0.7071067811865506800, -0.7071067811865443500, 8.659560562354895900E-017 ) ) ;
#41 = DIRECTION ( 'NONE',  ( -1.000000000000000000, -0.0000000000000000000, -0.0000000000000000000 ) ) ;
#42 = CLOSED_SHELL ( 'NONE', ( #118, #26, #318, #189 ) ) ;
#43 = LINE ( 'NONE', #184, #126 ) ;
#44 = DATE_AND_TIME ( #128, #112 ) ;
#45 = DIRECTION ( 'NONE',  ( -1.000000000000000000, 0.0000000000000000000, -0.0000000000000000000 ) ) ;
#46 = DATE_AND_TIME ( #129, #215 ) ;
#47 = DIRECTION ( 'NONE',  ( 0.0000000000000000000, 1.000000000000000000, 0.0000000000000000000 ) ) ;
#48 = EDGE_CURVE ( 'NONE', #86, #63, #298, .T. ) ;
#49 = APPROVAL_STATUS ( 'not_yet_approved' ) ;
#50 = ORIENTED_EDGE ( 'NONE', *, *, #218, .F. ) ;
#51 = ORIENTED_EDGE ( 'NONE', *, *, #28, .F. ) ;
#52 = EDGE_LOOP ( 'NONE', ( #258, #292 ) ) ;
#53 = CARTESIAN_POINT ( 'NONE',  ( -43.00000000000000000, -4.700000000000006400, 5.939536975864664900E-016 ) ) ;
#54 = PERSON_AND_ORGANIZATION ( #409, #219 ) ;
#55 = DIRECTION ( 'NONE',  ( -1.084202172485504400E-016, 1.000000000000000000, 0.0000000000000000000 ) ) ;
#56 = ORIENTED_EDGE ( 'NONE', *, *, #108, .T. ) ;
#57 = CYLINDRICAL_SURFACE ( 'NONE', #88, 4.000000000000001800 ) ;
#58 = CIRCLE ( 'NONE', #143, 5.000000000000000000 ) ;
#59 = AXIS2_PLACEMENT_3D ( 'NONE', #85, #239, #256 ) ;
#60 = PERSON_AND_ORGANIZATION ( #409, #219 ) ;
#61 = ADVANCED_FACE ( 'NONE', ( #213 ), #372, .T. ) ;
#62 = CARTESIAN_POINT ( 'NONE',  ( 0.0000000000000000000, 0.0000000000000000000, 0.0000000000000000000 ) ) ;
#63 = VERTEX_POINT ( 'NONE', #366 ) ;
#64 = ORIENTED_EDGE ( 'NONE', *, *, #160, .T. ) ;
#65 = AXIS2_PLACEMENT_3D ( 'NONE', #259, #73, #290 ) ;
#66 = LINE ( 'NONE', #84, #68 ) ;
#67 = FACE_OUTER_BOUND ( 'NONE', #162, .T. ) ;
#68 = VECTOR ( 'NONE', #338, 1000.000000000000000 ) ;
#69 = LINE ( 'NONE', #74, #92 ) ;
#70 = ORIENTED_EDGE ( 'NONE', *, *, #399, .T. ) ;
#71 = EDGE_CURVE ( 'NONE', #86, #29, #43, .T. ) ;
#72 = ORIENTED_EDGE ( 'NONE', *, *, #132, .F. ) ;
#73 = DIRECTION ( 'NONE',  ( 1.000000000000000000, 1.207985649014832500E-016, -0.0000000000000000000 ) ) ;
#74 = CARTESIAN_POINT ( 'NONE',  ( 0.0000000000000000000, 0.0000000000000000000, 4.000000000000001800 ) ) ;
#75 = DIRECTION ( 'NONE',  ( 1.207985649014832500E-016, -1.000000000000000000, 0.0000000000000000000 ) ) ;
#76 = EDGE_LOOP ( 'NONE', ( #367, #134, #275, #376 ) ) ;
#77 = FACE_OUTER_BOUND ( 'NONE', #76, .T. ) ;
#78 = DIRECTION ( 'NONE',  ( 0.0000000000000000000, 1.000000000000000000, 0.0000000000000000000 ) ) ;
#79 = PERSON_AND_ORGANIZATION_ROLE ( 'design_owner' ) ;
#80 = CIRCLE ( 'NONE', #254, 5.000000000000000000 ) ;
#81 = CARTESIAN_POINT ( 'NONE',  ( -43.00000000000000000, -5.315136855665262600E-015, 0.0000000000000000000 ) ) ;
#82 = CIRCLE ( 'NONE', #225, 4.000000000000003600 ) ;
#83 = AXIS2_PLACEMENT_3D ( 'NONE', #395, #148, #364 ) ;
#84 = CARTESIAN_POINT ( 'NONE',  ( 1.000000000000000700, -5.000000000000000000, 6.123233995736766300E-016 ) ) ;
#85 = CARTESIAN_POINT ( 'NONE',  ( -42.69999999999999600, -5.278897286194817700E-015, 0.0000000000000000000 ) ) ;
#86 = VERTEX_POINT ( 'NONE', #272 ) ;
#87 = PERSON_AND_ORGANIZATION_ROLE ( 'creator' ) ;
#88 = AXIS2_PLACEMENT_3D ( 'NONE', #62, #330, #130 ) ;
#89 = CARTESIAN_POINT ( 'NONE',  ( -42.69999999999999600, -5.278897286194817700E-015, 0.0000000000000000000 ) ) ;
#90 = CIRCLE ( 'NONE', #125, 4.000000000000000000 ) ;
#91 = DIRECTION ( 'NONE',  ( 1.000000000000000000, 1.207985649014832500E-016, -0.0000000000000000000 ) ) ;
#92 = VECTOR ( 'NONE', #294, 1000.000000000000000 ) ;
#93 = CARTESIAN_POINT ( 'NONE',  ( 0.0000000000000000000, 4.898587196589415800E-016, -4.000000000000001800 ) ) ;
#94 = CARTESIAN_POINT ( 'NONE',  ( 0.9999999999999995600, 4.000000000000000000, 0.0000000000000000000 ) ) ;
#95 = ORIENTED_EDGE ( 'NONE', *, *, #354, .T. ) ;
#96 = EDGE_CURVE ( 'NONE', #161, #13, #343, .T. ) ;
#97 = ORIENTED_EDGE ( 'NONE', *, *, #309, .F. ) ;
#98 = CARTESIAN_POINT ( 'NONE',  ( -42.69999999999999600, 4.999999999999994700, 0.0000000000000000000 ) ) ;
#99 = AXIS2_PLACEMENT_3D ( 'NONE', #1, #222, #30 ) ;
#100 = DIRECTION ( 'NONE',  ( 1.000000000000000000, 1.207985649014832500E-016, -0.0000000000000000000 ) ) ;
#101 = COORDINATED_UNIVERSAL_TIME_OFFSET ( 9, 0, .AHEAD. ) ;
#102 = PLANE ( 'NONE',  #123 ) ;
#103 = CARTESIAN_POINT ( 'NONE',  ( 1.000000000000000000, 0.0000000000000000000, 0.0000000000000000000 ) ) ;
#104 = ORIENTED_EDGE ( 'NONE', *, *, #387, .F. ) ;
#105 = CARTESIAN_POINT ( 'NONE',  ( -43.00000000000000000, -5.315136855665262600E-015, 0.0000000000000000000 ) ) ;
#106 = DATE_TIME_ROLE ( 'classification_date' ) ;
#107 = DIRECTION ( 'NONE',  ( -1.000000000000000000, -0.0000000000000000000, -0.0000000000000000000 ) ) ;
#108 = EDGE_CURVE ( 'NONE', #161, #86, #90, .T. ) ;
#109 = APPROVAL_STATUS ( 'not_yet_approved' ) ;
#110 = DIRECTION ( 'NONE',  ( 0.0000000000000000000, 0.0000000000000000000, 1.000000000000000000 ) ) ;
#111 = VERTEX_POINT ( 'NONE', #53 ) ;
#112 = LOCAL_TIME ( 9, 23, 30.00000000000000000, #199 ) ;
#113 = DIRECTION ( 'NONE',  ( 0.0000000000000000000, 1.000000000000000000, 0.0000000000000000000 ) ) ;
#114 = ORIENTED_EDGE ( 'NONE', *, *, #261, .T. ) ;
#115 = CARTESIAN_POINT ( 'NONE',  ( 1.000000000000000000, 0.0000000000000000000, 0.0000000000000000000 ) ) ;
#116 = AXIS2_PLACEMENT_3D ( 'NONE', #397, #207, #179 ) ;
#117 = LOCAL_TIME ( 9, 23, 30.00000000000000000, #202 ) ;
#118 = ADVANCED_FACE ( 'NONE', ( #11 ), #164, .T. ) ;
#119 = CARTESIAN_POINT ( 'NONE',  ( -0.9999999999999972200, 5.000000000000000000, 6.123233995736766300E-016 ) ) ;
#120 = EDGE_LOOP ( 'NONE', ( #312, #283, #64, #241 ) ) ;
#121 = ORIENTED_EDGE ( 'NONE', *, *, #96, .T. ) ;
#122 = CALENDAR_DATE ( 2023, 8, 6 ) ;
#123 = AXIS2_PLACEMENT_3D ( 'NONE', #170, #332, #135 ) ;
#124 = UNCERTAINTY_MEASURE_WITH_UNIT (LENGTH_MEASURE( 1.000000000000000100E-005 ), #300, 'distance_accuracy_value', 'NONE');
#125 = AXIS2_PLACEMENT_3D ( 'NONE', #185, #402, #211 ) ;
#126 = VECTOR ( 'NONE', #243, 1000.000000000000000 ) ;
#127 = CIRCLE ( 'NONE', #99, 4.000000000000003600 ) ;
#128 = CALENDAR_DATE ( 2023, 8, 6 ) ;
#129 = CALENDAR_DATE ( 2023, 8, 6 ) ;
#130 = DIRECTION ( 'NONE',  ( 0.0000000000000000000, 0.0000000000000000000, 1.000000000000000000 ) ) ;
#131 = ORIENTED_EDGE ( 'NONE', *, *, #412, .F. ) ;
#132 = EDGE_CURVE ( 'NONE', #194, #149, #334, .T. ) ;
#133 = VERTEX_POINT ( 'NONE', #244 ) ;
#134 = ORIENTED_EDGE ( 'NONE', *, *, #354, .F. ) ;
#135 = DIRECTION ( 'NONE',  ( -1.207985649014832500E-016, 1.000000000000000000, 0.0000000000000000000 ) ) ;
#136 = PERSON_AND_ORGANIZATION ( #409, #219 ) ;
#137 =( NAMED_UNIT ( * ) PLANE_ANGLE_UNIT ( ) SI_UNIT ( $, .RADIAN. ) );
#138 = CARTESIAN_POINT ( 'NONE',  ( 0.9999999999999988900, -1.249889199700156400E-031, 0.0000000000000000000 ) ) ;
#139 = ORIENTED_EDGE ( 'NONE', *, *, #5, .F. ) ;
#140 = FACE_OUTER_BOUND ( 'NONE', #411, .T. ) ;
#141 = VECTOR ( 'NONE', #40, 1000.000000000000000 ) ;
#142 = APPROVAL_ROLE ( '' ) ;
#143 = AXIS2_PLACEMENT_3D ( 'NONE', #3, #224, #33 ) ;
#144 = PLANE ( 'NONE',  #328 ) ;
#145 = PERSON_AND_ORGANIZATION ( #409, #219 ) ;
#146 = CARTESIAN_POINT ( 'NONE',  ( 21.00000000000000400, 4.898587196589417800E-016, -4.000000000000003600 ) ) ;
#147 = AXIS2_PLACEMENT_3D ( 'NONE', #230, #232, #39 ) ;
#148 = DIRECTION ( 'NONE',  ( 1.000000000000000000, 0.0000000000000000000, 0.0000000000000000000 ) ) ;
#149 = VERTEX_POINT ( 'NONE', #9 ) ;
#150 = ORIENTED_EDGE ( 'NONE', *, *, #399, .F. ) ;
#151 = PERSON_AND_ORGANIZATION_ROLE ( 'creator' ) ;
#152 = DESIGN_CONTEXT ( 'detailed design', #297, 'design' ) ;
#153 = DIRECTION ( 'NONE',  ( 1.207985649014832500E-016, -1.000000000000000000, 0.0000000000000000000 ) ) ;
#154 = CLOSED_SHELL ( 'NONE', ( #278, #61, #159, #168, #408, #34, #289, #251, #329, #347 ) ) ;
#155 = VECTOR ( 'NONE', #348, 1000.000000000000000 ) ;
#156 = FACE_OUTER_BOUND ( 'NONE', #410, .T. ) ;
#157 = AXIS2_PLACEMENT_3D ( 'NONE', #279, #356, #386 ) ;
#158 = CONICAL_SURFACE ( 'NONE', #175, 4.000000000000000000, 0.7853981633974498300 ) ;
#159 = ADVANCED_FACE ( 'NONE', ( #245 ), #158, .T. ) ;
#160 = EDGE_CURVE ( 'NONE', #350, #13, #413, .T. ) ;
#161 = VERTEX_POINT ( 'NONE', #358 ) ;
#162 = EDGE_LOOP ( 'NONE', ( #114, #306, #401, #50 ) ) ;
#163 = VECTOR ( 'NONE', #178, 1000.000000000000000 ) ;
#164 = CYLINDRICAL_SURFACE ( 'NONE', #212, 4.000000000000001800 ) ;
#165 = CONICAL_SURFACE ( 'NONE', #59, 5.000000000000000000, 0.7853981633974439500 ) ;
#166 = AXIS2_PLACEMENT_3D ( 'NONE', #286, #100, #171 ) ;
#167 = CC_DESIGN_PERSON_AND_ORGANIZATION_ASSIGNMENT ( #136, #79, ( #320 ) ) ;
#168 = ADVANCED_FACE ( 'NONE', ( #173 ), #393, .T. ) ;
#169 = ORIENTED_EDGE ( 'NONE', *, *, #195, .T. ) ;
#170 = CARTESIAN_POINT ( 'NONE',  ( 0.9999999999999988900, 4.000000000000000000, 0.0000000000000000000 ) ) ;
#171 = DIRECTION ( 'NONE',  ( -1.207985649014832500E-016, 1.000000000000000000, 0.0000000000000000000 ) ) ;
#172 = CARTESIAN_POINT ( 'NONE',  ( 0.9999999999999993300, 5.000000000000000000, 0.0000000000000000000 ) ) ;
#173 = FACE_OUTER_BOUND ( 'NONE', #255, .T. ) ;
#174 = DIRECTION ( 'NONE',  ( -1.084202172485504400E-016, 1.000000000000000000, 0.0000000000000000000 ) ) ;
#175 = AXIS2_PLACEMENT_3D ( 'NONE', #355, #385, #75 ) ;
#176 = ORIENTED_EDGE ( 'NONE', *, *, #48, .F. ) ;
#177 = CARTESIAN_POINT ( 'NONE',  ( 0.9999999999999995600, 0.0000000000000000000, 4.000000000000000000 ) ) ;
#178 = DIRECTION ( 'NONE',  ( 0.7071067811865504600, 0.7071067811865445800, 0.0000000000000000000 ) ) ;
#179 = DIRECTION ( 'NONE',  ( -1.301042606982605300E-016, 1.000000000000000000, 0.0000000000000000000 ) ) ;
#180 = APPROVAL_DATE_TIME ( #257, #203 ) ;
#181 = ORIENTED_EDGE ( 'NONE', *, *, #108, .F. ) ;
#182 = EDGE_CURVE ( 'NONE', #13, #29, #80, .T. ) ;
#183 = SECURITY_CLASSIFICATION_LEVEL ( 'unclassified' ) ;
#184 = CARTESIAN_POINT ( 'NONE',  ( 9.168751286001348800E-016, -4.000000000000000000, 0.0000000000000000000 ) ) ;
#185 = CARTESIAN_POINT ( 'NONE',  ( 4.336808689942017700E-016, -1.207985649014832000E-016, 0.0000000000000000000 ) ) ;
#186 = CARTESIAN_POINT ( 'NONE',  ( -42.69999999999999600, -5.278897286194817700E-015, 0.0000000000000000000 ) ) ;
#187 = ORIENTED_EDGE ( 'NONE', *, *, #375, .F. ) ;
#188 = AXIS2_PLACEMENT_3D ( 'NONE', #38, #263, #78 ) ;
#189 = ADVANCED_FACE ( 'NONE', ( #406 ), #144, .F. ) ;
#190 = PRODUCT_DEFINITION ( 'UNKNOWN', '', #288, #152 ) ;
#191 = APPROVAL_PERSON_ORGANIZATION ( #270, #203, #142 ) ;
#192 = ORIENTED_EDGE ( 'NONE', *, *, #182, .F. ) ;
#193 = AXIS2_PLACEMENT_3D ( 'NONE', #231, #36, #262 ) ;
#194 = VERTEX_POINT ( 'NONE', #177 ) ;
#195 = EDGE_CURVE ( 'NONE', #19, #29, #66, .T. ) ;
#196 = DIRECTION ( 'NONE',  ( -1.000000000000000000, -1.207985649014832500E-016, 0.0000000000000000000 ) ) ;
#197 = CARTESIAN_POINT ( 'NONE',  ( 1.000000000000000400, -4.000000000000000000, 4.898587196589412800E-016 ) ) ;
#198 = VERTEX_POINT ( 'NONE', #146 ) ;
#199 = COORDINATED_UNIVERSAL_TIME_OFFSET ( 9, 0, .AHEAD. ) ;
#200 = DIRECTION ( 'NONE',  ( 1.000000000000000000, 1.207985649014832500E-016, -0.0000000000000000000 ) ) ;
#201 = ORIENTED_EDGE ( 'NONE', *, *, #22, .T. ) ;
#202 = COORDINATED_UNIVERSAL_TIME_OFFSET ( 9, 0, .AHEAD. ) ;
#203 = APPROVAL ( #337, 'UNSPECIFIED' ) ;
#204 = AXIS2_PLACEMENT_3D ( 'NONE', #138, #359, #174 ) ;
#205 = DIRECTION ( 'NONE',  ( 1.000000000000000000, 1.207985649014832500E-016, -0.0000000000000000000 ) ) ;
#206 = APPROVAL ( #49, 'UNSPECIFIED' ) ;
#207 = DIRECTION ( 'NONE',  ( 1.000000000000000000, 1.207985649014832500E-016, -0.0000000000000000000 ) ) ;
#208 = ORIENTED_EDGE ( 'NONE', *, *, #71, .F. ) ;
#209 = ORIENTED_EDGE ( 'NONE', *, *, #368, .F. ) ;
#210 = LOCAL_TIME ( 9, 23, 30.00000000000000000, #293 ) ;
#211 = DIRECTION ( 'NONE',  ( -1.207985649014832500E-016, 1.000000000000000000, 0.0000000000000000000 ) ) ;
#212 = AXIS2_PLACEMENT_3D ( 'NONE', #369, #23, #110 ) ;
#213 = FACE_OUTER_BOUND ( 'NONE', #281, .T. ) ;
#214 = CYLINDRICAL_SURFACE ( 'NONE', #31, 4.000000000000000000 ) ;
#215 = LOCAL_TIME ( 9, 23, 30.00000000000000000, #303 ) ;
#216 = DIRECTION ( 'NONE',  ( -1.000000000000000000, -0.0000000000000000000, -0.0000000000000000000 ) ) ;
#217 = EDGE_LOOP ( 'NONE', ( #104, #291 ) ) ;
#218 = EDGE_CURVE ( 'NONE', #341, #350, #235, .T. ) ;
#219 = ORGANIZATION ( 'UNSPECIFIED', 'UNSPECIFIED', '' ) ;
#220 = VECTOR ( 'NONE', #216, 1000.000000000000000 ) ;
#221 = CONICAL_SURFACE ( 'NONE', #345, 4.000000000000000000, 0.7853981633974498300 ) ;
#222 = DIRECTION ( 'NONE',  ( -1.000000000000000000, -0.0000000000000000000, -0.0000000000000000000 ) ) ;
#223 = CC_DESIGN_APPROVAL ( #203, ( #398 ) ) ;
#224 = DIRECTION ( 'NONE',  ( 1.000000000000000000, 1.207985649014832500E-016, -0.0000000000000000000 ) ) ;
#225 = AXIS2_PLACEMENT_3D ( 'NONE', #236, #41, #265 ) ;
#226 = APPROVAL_DATE_TIME ( #362, #319 ) ;
#227 = CC_DESIGN_APPROVAL ( #206, ( #190 ) ) ;
#228 = ORIENTED_EDGE ( 'NONE', *, *, #280, .F. ) ;
#229 = EDGE_LOOP ( 'NONE', ( #400, #252, #390, #97 ) ) ;
#230 = CARTESIAN_POINT ( 'NONE',  ( 0.0000000000000000000, 0.0000000000000000000, 0.0000000000000000000 ) ) ;
#231 = CARTESIAN_POINT ( 'NONE',  ( 0.9999999999999995600, 0.0000000000000000000, 0.0000000000000000000 ) ) ;
#232 = DIRECTION ( 'NONE',  ( 0.0000000000000000000, 0.0000000000000000000, 1.000000000000000000 ) ) ;
#233 = LINE ( 'NONE', #94, #155 ) ;
#234 = FACE_OUTER_BOUND ( 'NONE', #52, .T. ) ;
#235 = LINE ( 'NONE', #396, #163 ) ;
#236 = CARTESIAN_POINT ( 'NONE',  ( 21.00000000000000400, 0.0000000000000000000, 0.0000000000000000000 ) ) ;
#237 = FACE_OUTER_BOUND ( 'NONE', #352, .T. ) ;
#238 = CARTESIAN_POINT ( 'NONE',  ( 21.00000000000000400, -1.821459649775647400E-014, 0.0000000000000000000 ) ) ;
#239 = DIRECTION ( 'NONE',  ( 1.000000000000000000, 1.207985649014832500E-016, -0.0000000000000000000 ) ) ;
#240 = APPLICATION_PROTOCOL_DEFINITION ( 'international standard', 'config_control_design', 1994, #297 ) ;
#241 = ORIENTED_EDGE ( 'NONE', *, *, #351, .F. ) ;
#242 = EDGE_CURVE ( 'NONE', #350, #19, #325, .T. ) ;
#243 = DIRECTION ( 'NONE',  ( -0.7071067811865463500, -0.7071067811865487900, 0.0000000000000000000 ) ) ;
#244 = CARTESIAN_POINT ( 'NONE',  ( 21.00000000000000400, 0.0000000000000000000, 4.000000000000003600 ) ) ;
#245 = FACE_OUTER_BOUND ( 'NONE', #35, .T. ) ;
#246 = DIRECTION ( 'NONE',  ( 0.0000000000000000000, 1.000000000000000000, 0.0000000000000000000 ) ) ;
#247 = CIRCLE ( 'NONE', #204, 4.000000000000000000 ) ;
#248 = CC_DESIGN_SECURITY_CLASSIFICATION ( #398, ( #288 ) ) ;
#249 = AXIS2_PLACEMENT_3D ( 'NONE', #105, #335, #47 ) ;
#250 = CC_DESIGN_PERSON_AND_ORGANIZATION_ASSIGNMENT ( #282, #87, ( #190 ) ) ;
#251 = ADVANCED_FACE ( 'NONE', ( #77 ), #221, .T. ) ;
#252 = ORIENTED_EDGE ( 'NONE', *, *, #333, .T. ) ;
#253 = VECTOR ( 'NONE', #310, 1000.000000000000000 ) ;
#254 = AXIS2_PLACEMENT_3D ( 'NONE', #394, #205, #15 ) ;
#255 = EDGE_LOOP ( 'NONE', ( #56, #360, #51, #139 ) ) ;
#256 = DIRECTION ( 'NONE',  ( 0.0000000000000000000, 1.000000000000000000, 0.0000000000000000000 ) ) ;
#257 = DATE_AND_TIME ( #349, #18 ) ;
#258 = ORIENTED_EDGE ( 'NONE', *, *, #132, .T. ) ;
#259 = CARTESIAN_POINT ( 'NONE',  ( 0.9999999999999988900, -1.249889199700156400E-031, 0.0000000000000000000 ) ) ;
#260 = MANIFOLD_SOLID_BREP ( 'È¸Àü4', #154 ) ;
#261 = EDGE_CURVE ( 'NONE', #341, #111, #392, .T. ) ;
#262 = DIRECTION ( 'NONE',  ( 0.0000000000000000000, 0.0000000000000000000, 1.000000000000000000 ) ) ;
#263 = DIRECTION ( 'NONE',  ( 1.000000000000000000, 1.207985649014832500E-016, -0.0000000000000000000 ) ) ;
#264 = MECHANICAL_CONTEXT ( 'NONE', #12, 'mechanical' ) ;
#265 = DIRECTION ( 'NONE',  ( 0.0000000000000000000, 0.0000000000000000000, 1.000000000000000000 ) ) ;
#266 = EDGE_LOOP ( 'NONE', ( #228, #70, #6, #209 ) ) ;
#267 = PRODUCT_RELATED_PRODUCT_CATEGORY ( 'detail', '', ( #320 ) ) ;
#268 = DIRECTION ( 'NONE',  ( -0.0000000000000000000, 0.0000000000000000000, 1.000000000000000000 ) ) ;
#269 = CC_DESIGN_DATE_AND_TIME_ASSIGNMENT ( #44, #305, ( #190 ) ) ;
#270 = PERSON_AND_ORGANIZATION ( #409, #219 ) ;
#271 = APPROVAL_ROLE ( '' ) ;
#272 = CARTESIAN_POINT ( 'NONE',  ( 9.168751286001348800E-016, -4.000000000000000000, 4.898587196589412800E-016 ) ) ;
#273 = ORIENTED_EDGE ( 'NONE', *, *, #5, .T. ) ;
#274 = ADVANCED_BREP_SHAPE_REPRESENTATION ( '03-2996', ( #327, #260, #147 ), #287 ) ;
#275 = ORIENTED_EDGE ( 'NONE', *, *, #71, .T. ) ;
#276 = CARTESIAN_POINT ( 'NONE',  ( -43.00000000000000000, -5.315136855665262600E-015, 0.0000000000000000000 ) ) ;
#277 = AXIS2_PLACEMENT_3D ( 'NONE', #103, #200, #295 ) ;
#278 = ADVANCED_FACE ( 'NONE', ( #67 ), #381, .T. ) ;
#279 = CARTESIAN_POINT ( 'NONE',  ( 1.000000000000000000, 0.0000000000000000000, 0.0000000000000000000 ) ) ;
#280 = EDGE_CURVE ( 'NONE', #111, #19, #314, .T. ) ;
#281 = EDGE_LOOP ( 'NONE', ( #322, #169, #192, #346 ) ) ;
#282 = PERSON_AND_ORGANIZATION ( #409, #219 ) ;
#283 = ORIENTED_EDGE ( 'NONE', *, *, #368, .T. ) ;
#284 = CARTESIAN_POINT ( 'NONE',  ( 0.9999999999999985600, 4.000000000000000000, 0.0000000000000000000 ) ) ;
#285 = APPROVAL_PERSON_ORGANIZATION ( #373, #319, #342 ) ;
#286 = CARTESIAN_POINT ( 'NONE',  ( 4.336808689942017700E-016, -1.207985649014832000E-016, 0.0000000000000000000 ) ) ;
#287 =( GEOMETRIC_REPRESENTATION_CONTEXT ( 3 ) GLOBAL_UNCERTAINTY_ASSIGNED_CONTEXT ( ( #124 ) ) GLOBAL_UNIT_ASSIGNED_CONTEXT ( ( #300, #137, #357 ) ) REPRESENTATION_CONTEXT ( 'NONE', 'WORKASPACE' ) );
#288 = PRODUCT_DEFINITION_FORMATION_WITH_SPECIFIED_SOURCE ( 'ANY', '', #320, .NOT_KNOWN. ) ;
#289 = ADVANCED_FACE ( 'NONE', ( #156 ), #214, .T. ) ;
#290 = DIRECTION ( 'NONE',  ( -1.084202172485504400E-016, 1.000000000000000000, 0.0000000000000000000 ) ) ;
#291 = ORIENTED_EDGE ( 'NONE', *, *, #333, .F. ) ;
#292 = ORIENTED_EDGE ( 'NONE', *, *, #309, .T. ) ;
#293 = COORDINATED_UNIVERSAL_TIME_OFFSET ( 9, 0, .AHEAD. ) ;
#294 = DIRECTION ( 'NONE',  ( -1.000000000000000000, -0.0000000000000000000, -0.0000000000000000000 ) ) ;
#295 = DIRECTION ( 'NONE',  ( -1.084202172485504400E-016, 1.000000000000000000, 0.0000000000000000000 ) ) ;
#296 = PLANE ( 'NONE',  #317 ) ;
#297 = APPLICATION_CONTEXT ( 'configuration controlled 3d designs of mechanical parts and assemblies' ) ;
#298 = LINE ( 'NONE', #197, #380 ) ;
#299 = FACE_OUTER_BOUND ( 'NONE', #120, .T. ) ;
#300 =( LENGTH_UNIT ( ) NAMED_UNIT ( * ) SI_UNIT ( .MILLI., .METRE. ) );
#301 = AXIS2_PLACEMENT_3D ( 'NONE', #89, #311, #113 ) ;
#302 = PERSON_AND_ORGANIZATION_ROLE ( 'classification_officer' ) ;
#303 = COORDINATED_UNIVERSAL_TIME_OFFSET ( 9, 0, .AHEAD. ) ;
#304 = CARTESIAN_POINT ( 'NONE',  ( 0.9999999999999995600, 0.0000000000000000000, 0.0000000000000000000 ) ) ;
#305 = DATE_TIME_ROLE ( 'creation_date' ) ;
#306 = ORIENTED_EDGE ( 'NONE', *, *, #280, .T. ) ;
#307 = ORIENTED_EDGE ( 'NONE', *, *, #375, .T. ) ;
#308 = SHAPE_DEFINITION_REPRESENTATION ( #378, #274 ) ;
#309 = EDGE_CURVE ( 'NONE', #149, #194, #405, .T. ) ;
#310 = DIRECTION ( 'NONE',  ( -0.7071067811865465700, 0.7071067811865485700, 8.659560562354947600E-017 ) ) ;
#311 = DIRECTION ( 'NONE',  ( 1.000000000000000000, 1.207985649014832500E-016, -0.0000000000000000000 ) ) ;
#312 = ORIENTED_EDGE ( 'NONE', *, *, #195, .F. ) ;
#313 = LINE ( 'NONE', #93, #220 ) ;
#314 = LINE ( 'NONE', #363, #141 ) ;
#315 = DIRECTION ( 'NONE',  ( 0.0000000000000000000, 1.000000000000000000, 0.0000000000000000000 ) ) ;
#316 = FACE_OUTER_BOUND ( 'NONE', #266, .T. ) ;
#317 = AXIS2_PLACEMENT_3D ( 'NONE', #81, #196, #8 ) ;
#318 = ADVANCED_FACE ( 'NONE', ( #234 ), #16, .F. ) ;
#319 = APPROVAL ( #109, 'UNSPECIFIED' ) ;
#320 = PRODUCT ( '03-2996', '03-2996', '', ( #264 ) ) ;
#321 = CARTESIAN_POINT ( 'NONE',  ( -42.69999999999999600, -5.000000000000005300, 6.123233995736769200E-016 ) ) ;
#322 = ORIENTED_EDGE ( 'NONE', *, *, #242, .T. ) ;
#323 = EDGE_LOOP ( 'NONE', ( #384, #201, #72, #131 ) ) ;
#324 = CIRCLE ( 'NONE', #65, 4.000000000000000000 ) ;
#325 = CIRCLE ( 'NONE', #301, 5.000000000000000000 ) ;
#326 = VECTOR ( 'NONE', #389, 1000.000000000000000 ) ;
#327 = MANIFOLD_SOLID_BREP ( 'È¸Àü3', #42 ) ;
#328 = AXIS2_PLACEMENT_3D ( 'NONE', #238, #45, #268 ) ;
#329 = ADVANCED_FACE ( 'NONE', ( #299 ), #404, .T. ) ;
#330 = DIRECTION ( 'NONE',  ( -1.000000000000000000, -0.0000000000000000000, -0.0000000000000000000 ) ) ;
#331 = ORIENTED_EDGE ( 'NONE', *, *, #28, .T. ) ;
#332 = DIRECTION ( 'NONE',  ( 1.000000000000000000, 1.207985649014832500E-016, -0.0000000000000000000 ) ) ;
#333 = EDGE_CURVE ( 'NONE', #198, #133, #127, .T. ) ;
#334 = CIRCLE ( 'NONE', #193, 4.000000000000000000 ) ;
#335 = DIRECTION ( 'NONE',  ( 1.000000000000000000, 1.207985649014832500E-016, -0.0000000000000000000 ) ) ;
#336 = CIRCLE ( 'NONE', #166, 4.000000000000000000 ) ;
#337 = APPROVAL_STATUS ( 'not_yet_approved' ) ;
#338 = DIRECTION ( 'NONE',  ( 1.000000000000000000, 1.207985649014832500E-016, -0.0000000000000000000 ) ) ;
#339 = DIRECTION ( 'NONE',  ( 0.0000000000000000000, 0.0000000000000000000, 1.000000000000000000 ) ) ;
#340 = CC_DESIGN_APPROVAL ( #319, ( #288 ) ) ;
#341 = VERTEX_POINT ( 'NONE', #20 ) ;
#342 = APPROVAL_ROLE ( '' ) ;
#343 = LINE ( 'NONE', #21, #253 ) ;
#344 = DIRECTION ( 'NONE',  ( -1.000000000000000000, -1.207985649014832500E-016, 0.0000000000000000000 ) ) ;
#345 = AXIS2_PLACEMENT_3D ( 'NONE', #17, #344, #153 ) ;
#346 = ORIENTED_EDGE ( 'NONE', *, *, #160, .F. ) ;
#347 = ADVANCED_FACE ( 'NONE', ( #316 ), #165, .T. ) ;
#348 = DIRECTION ( 'NONE',  ( 1.000000000000000000, 1.207985649014832500E-016, -0.0000000000000000000 ) ) ;
#349 = CALENDAR_DATE ( 2023, 8, 6 ) ;
#350 = VERTEX_POINT ( 'NONE', #98 ) ;
#351 = EDGE_CURVE ( 'NONE', #29, #13, #58, .T. ) ;
#352 = EDGE_LOOP ( 'NONE', ( #403, #150 ) ) ;
#353 = CC_DESIGN_PERSON_AND_ORGANIZATION_ASSIGNMENT ( #145, #151, ( #288 ) ) ;
#354 = EDGE_CURVE ( 'NONE', #86, #161, #336, .T. ) ;
#355 = CARTESIAN_POINT ( 'NONE',  ( 4.336808689942017700E-016, -1.207985649014832000E-016, 0.0000000000000000000 ) ) ;
#356 = DIRECTION ( 'NONE',  ( 1.000000000000000000, 1.207985649014832500E-016, -0.0000000000000000000 ) ) ;
#357 =( NAMED_UNIT ( * ) SI_UNIT ( $, .STERADIAN. ) SOLID_ANGLE_UNIT ( ) );
#358 = CARTESIAN_POINT ( 'NONE',  ( -4.951339061173125100E-017, 4.000000000000000000, 0.0000000000000000000 ) ) ;
#359 = DIRECTION ( 'NONE',  ( 1.000000000000000000, 1.207985649014832500E-016, -0.0000000000000000000 ) ) ;
#360 = ORIENTED_EDGE ( 'NONE', *, *, #48, .T. ) ;
#361 = AXIS2_PLACEMENT_3D ( 'NONE', #276, #91, #315 ) ;
#362 = DATE_AND_TIME ( #32, #117 ) ;
#363 = CARTESIAN_POINT ( 'NONE',  ( -42.69999999999999600, -5.000000000000005300, 6.123233995736766300E-016 ) ) ;
#364 = DIRECTION ( 'NONE',  ( 0.0000000000000000000, 0.0000000000000000000, -1.000000000000000000 ) ) ;
#365 = PERSON_AND_ORGANIZATION_ROLE ( 'design_supplier' ) ;
#366 = CARTESIAN_POINT ( 'NONE',  ( 0.9999999999999993300, -4.000000000000000000, 4.898587196589412800E-016 ) ) ;
#367 = ORIENTED_EDGE ( 'NONE', *, *, #96, .F. ) ;
#368 = EDGE_CURVE ( 'NONE', #19, #350, #2, .T. ) ;
#369 = CARTESIAN_POINT ( 'NONE',  ( 0.0000000000000000000, 0.0000000000000000000, 0.0000000000000000000 ) ) ;
#370 = APPROVAL_DATE_TIME ( #37, #206 ) ;
#371 = DIRECTION ( 'NONE',  ( 1.000000000000000000, 1.207985649014832500E-016, -0.0000000000000000000 ) ) ;
#372 = CYLINDRICAL_SURFACE ( 'NONE', #157, 5.000000000000000000 ) ;
#373 = PERSON_AND_ORGANIZATION ( #409, #219 ) ;
#374 = CC_DESIGN_PERSON_AND_ORGANIZATION_ASSIGNMENT ( #60, #365, ( #288 ) ) ;
#375 = EDGE_CURVE ( 'NONE', #63, #377, #247, .T. ) ;
#376 = ORIENTED_EDGE ( 'NONE', *, *, #351, .T. ) ;
#377 = VERTEX_POINT ( 'NONE', #284 ) ;
#378 = PRODUCT_DEFINITION_SHAPE ( 'NONE', 'NONE',  #190 ) ;
#379 = APPROVAL_PERSON_ORGANIZATION ( #54, #206, #271 ) ;
#380 = VECTOR ( 'NONE', #10, 1000.000000000000000 ) ;
#381 = CONICAL_SURFACE ( 'NONE', #382, 5.000000000000000000, 0.7853981633974439500 ) ;
#382 = AXIS2_PLACEMENT_3D ( 'NONE', #186, #24, #246 ) ;
#383 = PERSON_AND_ORGANIZATION ( #409, #219 ) ;
#384 = ORIENTED_EDGE ( 'NONE', *, *, #387, .T. ) ;
#385 = DIRECTION ( 'NONE',  ( -1.000000000000000000, -1.207985649014832500E-016, 0.0000000000000000000 ) ) ;
#386 = DIRECTION ( 'NONE',  ( -1.301042606982605300E-016, 1.000000000000000000, 0.0000000000000000000 ) ) ;
#387 = EDGE_CURVE ( 'NONE', #133, #198, #82, .T. ) ;
#388 = APPLICATION_PROTOCOL_DEFINITION ( 'international standard', 'config_control_design', 1994, #12 ) ;
#389 = DIRECTION ( 'NONE',  ( 1.000000000000000000, 1.207985649014832500E-016, -0.0000000000000000000 ) ) ;
#390 = ORIENTED_EDGE ( 'NONE', *, *, #412, .T. ) ;
#391 = FACE_OUTER_BOUND ( 'NONE', #229, .T. ) ;
#392 = CIRCLE ( 'NONE', #361, 4.700000000000001100 ) ;
#393 = CYLINDRICAL_SURFACE ( 'NONE', #277, 4.000000000000000000 ) ;
#394 = CARTESIAN_POINT ( 'NONE',  ( -0.9999999999999965600, -2.415971298029660600E-016, 0.0000000000000000000 ) ) ;
#395 = CARTESIAN_POINT ( 'NONE',  ( 1.000000000000000200, 3.252606517456515800E-016, 0.0000000000000000000 ) ) ;
#396 = CARTESIAN_POINT ( 'NONE',  ( -42.69999999999999600, 4.999999999999994700, 0.0000000000000000000 ) ) ;
#397 = CARTESIAN_POINT ( 'NONE',  ( 1.000000000000000000, 0.0000000000000000000, 0.0000000000000000000 ) ) ;
#398 = SECURITY_CLASSIFICATION ( '', '', #183 ) ;
#399 = EDGE_CURVE ( 'NONE', #111, #341, #407, .T. ) ;
#400 = ORIENTED_EDGE ( 'NONE', *, *, #22, .F. ) ;
#401 = ORIENTED_EDGE ( 'NONE', *, *, #242, .F. ) ;
#402 = DIRECTION ( 'NONE',  ( 1.000000000000000000, 1.207985649014832500E-016, -0.0000000000000000000 ) ) ;
#403 = ORIENTED_EDGE ( 'NONE', *, *, #261, .F. ) ;
#404 = CYLINDRICAL_SURFACE ( 'NONE', #116, 5.000000000000000000 ) ;
#405 = CIRCLE ( 'NONE', #14, 4.000000000000000000 ) ;
#406 = FACE_OUTER_BOUND ( 'NONE', #217, .T. ) ;
#407 = CIRCLE ( 'NONE', #249, 4.700000000000001100 ) ;
#408 = ADVANCED_FACE ( 'NONE', ( #237 ), #296, .T. ) ;
#409 = PERSON ( 'UNSPECIFIED', 'UNSPECIFIED', 'UNSPECIFIED', ('UNSPECIFIED'), ('UNSPECIFIED'), ('UNSPECIFIED') ) ;
#410 = EDGE_LOOP ( 'NONE', ( #176, #95, #273, #187 ) ) ;
#411 = EDGE_LOOP ( 'NONE', ( #331, #307 ) ) ;
#412 = EDGE_CURVE ( 'NONE', #133, #194, #69, .T. ) ;
#413 = LINE ( 'NONE', #172, #326 ) ;
ENDSEC;
END-ISO-10303-21;
