ISO-10303-21;
HEADER;
FILE_DESCRIPTION (( 'STEP AP203' ),
    '1' );
FILE_NAME ('03-2997.STEP',
    '2023-06-08T00:23:44',
    ( 'USER' ),
    ( 'Hewlett-Packard Company' ),
    'SwSTEP 2.0',
    'SolidWorks 2014',
    '' );
FILE_SCHEMA (( 'CONFIG_CONTROL_DESIGN' ));
ENDSEC;

DATA;
#1 = CARTESIAN_POINT ( 'NONE',  ( 0.9999999999999993300, -8.391677976796378300E-032, 0.0000000000000000000 ) ) ;
#2 = EDGE_CURVE ( 'NONE', #75, #261, #311, .T. ) ;
#3 = CARTESIAN_POINT ( 'NONE',  ( 21.00000000000000000, 0.0000000000000000000, 5.000000000000003600 ) ) ;
#4 = CARTESIAN_POINT ( 'NONE',  ( 1.000000000000000400, 2.168404344971010800E-016, 0.0000000000000000000 ) ) ;
#5 = CARTESIAN_POINT ( 'NONE',  ( -44.00000000000000000, 4.699999999999994800, 0.0000000000000000000 ) ) ;
#6 = CARTESIAN_POINT ( 'NONE',  ( 1.000000000000000000, -5.000000000000000000, 6.123233995736766300E-016 ) ) ;
#7 = DIRECTION ( 'NONE',  ( 1.000000000000000000, 1.181141523481169600E-016, -0.0000000000000000000 ) ) ;
#8 = ORIENTED_EDGE ( 'NONE', *, *, #70, .T. ) ;
#9 = CARTESIAN_POINT ( 'NONE',  ( -43.69999999999999600, -5.000000000000006200, 6.123233995736770200E-016 ) ) ;
#10 = AXIS2_PLACEMENT_3D ( 'NONE', #30, #194, #63 ) ;
#11 = CARTESIAN_POINT ( 'NONE',  ( -43.69999999999999600, -5.279702609960828000E-015, 0.0000000000000000000 ) ) ;
#12 = EDGE_CURVE ( 'NONE', #90, #261, #133, .T. ) ;
#13 = CYLINDRICAL_SURFACE ( 'NONE', #301, 5.000000000000000000 ) ;
#14 = CARTESIAN_POINT ( 'NONE',  ( 1.000000000000000700, -5.000000000000000000, 6.123233995736766300E-016 ) ) ;
#15 = CC_DESIGN_SECURITY_CLASSIFICATION ( #241, ( #167 ) ) ;
#16 = ORIENTED_EDGE ( 'NONE', *, *, #44, .F. ) ;
#17 = EDGE_CURVE ( 'NONE', #175, #206, #186, .T. ) ;
#18 = CARTESIAN_POINT ( 'NONE',  ( -43.69999999999999600, -5.000000000000006200, 6.123233995736767300E-016 ) ) ;
#19 = EDGE_LOOP ( 'NONE', ( #197, #304, #97, #16 ) ) ;
#20 = EDGE_CURVE ( 'NONE', #113, #90, #115, .T. ) ;
#21 = ORIENTED_EDGE ( 'NONE', *, *, #313, .T. ) ;
#22 = CYLINDRICAL_SURFACE ( 'NONE', #240, 5.000000000000000000 ) ;
#23 = DIRECTION ( 'NONE',  ( 1.000000000000000000, 0.0000000000000000000, 0.0000000000000000000 ) ) ;
#24 = SECURITY_CLASSIFICATION_LEVEL ( 'unclassified' ) ;
#25 = DIRECTION ( 'NONE',  ( -1.301042606982605300E-016, 1.000000000000000000, 0.0000000000000000000 ) ) ;
#26 = ORIENTED_EDGE ( 'NONE', *, *, #297, .F. ) ;
#27 = CARTESIAN_POINT ( 'NONE',  ( -44.00000000000000000, -5.315136855665263400E-015, 0.0000000000000000000 ) ) ;
#28 = AXIS2_PLACEMENT_3D ( 'NONE', #69, #232, #89 ) ;
#29 = EDGE_CURVE ( 'NONE', #308, #293, #168, .T. ) ;
#30 = CARTESIAN_POINT ( 'NONE',  ( -44.00000000000000000, -5.315136855665262600E-015, 0.0000000000000000000 ) ) ;
#31 = DIRECTION ( 'NONE',  ( 0.0000000000000000000, 0.0000000000000000000, -1.000000000000000000 ) ) ;
#32 = FACE_OUTER_BOUND ( 'NONE', #269, .T. ) ;
#33 = PRODUCT_RELATED_PRODUCT_CATEGORY ( 'detail', '', ( #147 ) ) ;
#34 = PERSON ( 'UNSPECIFIED', 'UNSPECIFIED', 'UNSPECIFIED', ('UNSPECIFIED'), ('UNSPECIFIED'), ('UNSPECIFIED') ) ;
#35 = DIRECTION ( 'NONE',  ( 0.7071067811865484600, 0.7071067811865465700, 0.0000000000000000000 ) ) ;
#36 = CARTESIAN_POINT ( 'NONE',  ( 0.0000000000000000000, 0.0000000000000000000, 0.0000000000000000000 ) ) ;
#37 = APPROVAL_DATE_TIME ( #95, #185 ) ;
#38 = EDGE_CURVE ( 'NONE', #175, #220, #289, .T. ) ;
#39 = EDGE_LOOP ( 'NONE', ( #277, #257 ) ) ;
#40 = FACE_OUTER_BOUND ( 'NONE', #84, .T. ) ;
#41 = ORIENTED_EDGE ( 'NONE', *, *, #29, .T. ) ;
#42 = CALENDAR_DATE ( 2023, 8, 6 ) ;
#43 = CLOSED_SHELL ( 'NONE', ( #139, #71, #187, #88, #306, #161 ) ) ;
#44 = EDGE_CURVE ( 'NONE', #261, #90, #227, .T. ) ;
#45 = VECTOR ( 'NONE', #127, 1000.000000000000000 ) ;
#46 = ORIENTED_EDGE ( 'NONE', *, *, #259, .T. ) ;
#47 = APPROVAL_PERSON_ORGANIZATION ( #109, #185, #143 ) ;
#48 = ADVANCED_FACE ( 'NONE', ( #282 ), #144, .F. ) ;
#49 = CARTESIAN_POINT ( 'NONE',  ( -44.00000000000000000, -5.315136855665263400E-015, 0.0000000000000000000 ) ) ;
#50 = AXIS2_PLACEMENT_3D ( 'NONE', #148, #105, #80 ) ;
#51 = FACE_OUTER_BOUND ( 'NONE', #124, .T. ) ;
#52 = ORIENTED_EDGE ( 'NONE', *, *, #231, .F. ) ;
#53 = DATE_AND_TIME ( #114, #176 ) ;
#54 = VECTOR ( 'NONE', #260, 1000.000000000000000 ) ;
#55 = COORDINATED_UNIVERSAL_TIME_OFFSET ( 9, 0, .AHEAD. ) ;
#56 = PERSON_AND_ORGANIZATION_ROLE ( 'design_owner' ) ;
#57 = EDGE_CURVE ( 'NONE', #206, #162, #159, .T. ) ;
#58 = DIRECTION ( 'NONE',  ( 0.0000000000000000000, 1.000000000000000000, 0.0000000000000000000 ) ) ;
#59 = PERSON_AND_ORGANIZATION ( #34, #123 ) ;
#60 = AXIS2_PLACEMENT_3D ( 'NONE', #36, #169, #23 ) ;
#61 = PERSON_AND_ORGANIZATION ( #34, #123 ) ;
#62 = EDGE_CURVE ( 'NONE', #75, #113, #93, .T. ) ;
#63 = DIRECTION ( 'NONE',  ( 1.181141523481169600E-016, -1.000000000000000000, 0.0000000000000000000 ) ) ;
#64 = ORIENTED_EDGE ( 'NONE', *, *, #12, .T. ) ;
#65 = CARTESIAN_POINT ( 'NONE',  ( 0.9999999999999997800, 0.0000000000000000000, 0.0000000000000000000 ) ) ;
#66 = LOCAL_TIME ( 9, 23, 44.00000000000000000, #126 ) ;
#67 = DIRECTION ( 'NONE',  ( -1.000000000000000000, -0.0000000000000000000, -0.0000000000000000000 ) ) ;
#68 = AXIS2_PLACEMENT_3D ( 'NONE', #49, #204, #72 ) ;
#69 = CARTESIAN_POINT ( 'NONE',  ( -43.69999999999999600, -5.279702609960828000E-015, 0.0000000000000000000 ) ) ;
#70 = EDGE_CURVE ( 'NONE', #220, #162, #104, .T. ) ;
#71 = ADVANCED_FACE ( 'NONE', ( #32 ), #22, .T. ) ;
#72 = DIRECTION ( 'NONE',  ( 0.0000000000000000000, 1.000000000000000000, 0.0000000000000000000 ) ) ;
#73 = CARTESIAN_POINT ( 'NONE',  ( 0.9999999999999997800, 0.0000000000000000000, 0.0000000000000000000 ) ) ;
#74 = CC_DESIGN_PERSON_AND_ORGANIZATION_ASSIGNMENT ( #61, #56, ( #147 ) ) ;
#75 = VERTEX_POINT ( 'NONE', #9 ) ;
#76 = APPLICATION_PROTOCOL_DEFINITION ( 'international standard', 'config_control_design', 1994, #210 ) ;
#77 = DIRECTION ( 'NONE',  ( -1.000000000000000000, -0.0000000000000000000, -0.0000000000000000000 ) ) ;
#78 = ORIENTED_EDGE ( 'NONE', *, *, #231, .T. ) ;
#79 = AXIS2_PLACEMENT_3D ( 'NONE', #179, #119, #276 ) ;
#80 = DIRECTION ( 'NONE',  ( 0.0000000000000000000, 0.0000000000000000000, 1.000000000000000000 ) ) ;
#81 = ORIENTED_EDGE ( 'NONE', *, *, #273, .T. ) ;
#82 = DIRECTION ( 'NONE',  ( 0.0000000000000000000, 0.0000000000000000000, 1.000000000000000000 ) ) ;
#83 = AXIS2_PLACEMENT_3D ( 'NONE', #1, #172, #25 ) ;
#84 = EDGE_LOOP ( 'NONE', ( #200, #21, #201, #26 ) ) ;
#85 =( NAMED_UNIT ( * ) PLANE_ANGLE_UNIT ( ) SI_UNIT ( $, .RADIAN. ) );
#86 = PRODUCT_DEFINITION ( 'UNKNOWN', '', #167, #128 ) ;
#87 = FACE_OUTER_BOUND ( 'NONE', #189, .T. ) ;
#88 = ADVANCED_FACE ( 'NONE', ( #87 ), #263, .T. ) ;
#89 = DIRECTION ( 'NONE',  ( 0.0000000000000000000, 1.000000000000000000, 0.0000000000000000000 ) ) ;
#90 = VERTEX_POINT ( 'NONE', #183 ) ;
#91 = DIRECTION ( 'NONE',  ( 0.7071067811865487900, -0.7071067811865463500, 8.659560562354921800E-017 ) ) ;
#92 = VECTOR ( 'NONE', #91, 999.9999999999998900 ) ;
#93 = CIRCLE ( 'NONE', #163, 5.000000000000000900 ) ;
#94 = APPROVAL_ROLE ( '' ) ;
#95 = DATE_AND_TIME ( #160, #222 ) ;
#96 = AXIS2_PLACEMENT_3D ( 'NONE', #211, #77, #239 ) ;
#97 = ORIENTED_EDGE ( 'NONE', *, *, #20, .T. ) ;
#98 = CARTESIAN_POINT ( 'NONE',  ( 0.9999999999999993300, 5.000000000000000000, 0.0000000000000000000 ) ) ;
#99 = VECTOR ( 'NONE', #35, 1000.000000000000000 ) ;
#100 = ORIENTED_EDGE ( 'NONE', *, *, #38, .F. ) ;
#101 = APPROVAL ( #238, 'UNSPECIFIED' ) ;
#102 = LOCAL_TIME ( 9, 23, 44.00000000000000000, #165 ) ;
#103 = ORIENTED_EDGE ( 'NONE', *, *, #2, .T. ) ;
#104 = CIRCLE ( 'NONE', #191, 5.000000000000000000 ) ;
#105 = DIRECTION ( 'NONE',  ( -1.000000000000000000, -0.0000000000000000000, -0.0000000000000000000 ) ) ;
#106 = DIRECTION ( 'NONE',  ( -1.301042606982605300E-016, 1.000000000000000000, 0.0000000000000000000 ) ) ;
#107 = ORIENTED_EDGE ( 'NONE', *, *, #297, .T. ) ;
#108 = ORIENTED_EDGE ( 'NONE', *, *, #57, .T. ) ;
#109 = PERSON_AND_ORGANIZATION ( #34, #123 ) ;
#110 = DIRECTION ( 'NONE',  ( 0.0000000000000000000, 0.0000000000000000000, 1.000000000000000000 ) ) ;
#111 = DIRECTION ( 'NONE',  ( 1.000000000000000000, 1.181141523481169600E-016, -0.0000000000000000000 ) ) ;
#112 = CIRCLE ( 'NONE', #28, 5.000000000000000900 ) ;
#113 = VERTEX_POINT ( 'NONE', #223 ) ;
#114 = CALENDAR_DATE ( 2023, 8, 6 ) ;
#115 = LINE ( 'NONE', #98, #54 ) ;
#116 = EDGE_LOOP ( 'NONE', ( #46, #81, #150, #52 ) ) ;
#117 = PERSON_AND_ORGANIZATION ( #34, #123 ) ;
#118 = APPROVAL_STATUS ( 'not_yet_approved' ) ;
#119 = DIRECTION ( 'NONE',  ( -1.000000000000000000, 0.0000000000000000000, -0.0000000000000000000 ) ) ;
#120 = AXIS2_PLACEMENT_3D ( 'NONE', #27, #192, #58 ) ;
#121 = DIRECTION ( 'NONE',  ( 0.0000000000000000000, 0.0000000000000000000, 1.000000000000000000 ) ) ;
#122 = CC_DESIGN_APPROVAL ( #101, ( #86 ) ) ;
#123 = ORGANIZATION ( 'UNSPECIFIED', 'UNSPECIFIED', '' ) ;
#124 = EDGE_LOOP ( 'NONE', ( #142, #108, #226, #100 ) ) ;
#125 = DATE_TIME_ROLE ( 'creation_date' ) ;
#126 = COORDINATED_UNIVERSAL_TIME_OFFSET ( 9, 0, .AHEAD. ) ;
#127 = DIRECTION ( 'NONE',  ( -1.000000000000000000, -0.0000000000000000000, -0.0000000000000000000 ) ) ;
#128 = DESIGN_CONTEXT ( 'detailed design', #210, 'design' ) ;
#129 = CARTESIAN_POINT ( 'NONE',  ( 0.9999999999999993300, -8.391677976796378300E-032, 0.0000000000000000000 ) ) ;
#130 = CARTESIAN_POINT ( 'NONE',  ( 21.00000000000000000, 6.123233995736771200E-016, -5.000000000000004400 ) ) ;
#131 = CARTESIAN_POINT ( 'NONE',  ( 0.9999999999999991100, 5.000000000000000000, 0.0000000000000000000 ) ) ;
#132 = CARTESIAN_POINT ( 'NONE',  ( -44.00000000000000000, -4.700000000000005500, 5.939536975864664000E-016 ) ) ;
#133 = CIRCLE ( 'NONE', #83, 5.000000000000000000 ) ;
#134 = AXIS2_PLACEMENT_3D ( 'NONE', #129, #290, #149 ) ;
#135 = DIRECTION ( 'NONE',  ( 1.000000000000000000, 1.181141523481169600E-016, -0.0000000000000000000 ) ) ;
#136 = DIRECTION ( 'NONE',  ( 1.000000000000000000, 1.181141523481169600E-016, -0.0000000000000000000 ) ) ;
#137 = CC_DESIGN_PERSON_AND_ORGANIZATION_ASSIGNMENT ( #117, #258, ( #86 ) ) ;
#138 = EDGE_LOOP ( 'NONE', ( #8, #107 ) ) ;
#139 = ADVANCED_FACE ( 'NONE', ( #151 ), #174, .T. ) ;
#140 = ORIENTED_EDGE ( 'NONE', *, *, #244, .T. ) ;
#141 = MANIFOLD_SOLID_BREP ( 'È¸Àü3', #284 ) ;
#142 = ORIENTED_EDGE ( 'NONE', *, *, #17, .T. ) ;
#143 = APPROVAL_ROLE ( '' ) ;
#144 = PLANE ( 'NONE',  #182 ) ;
#145 = ORIENTED_EDGE ( 'NONE', *, *, #259, .F. ) ;
#146 = CC_DESIGN_DATE_AND_TIME_ASSIGNMENT ( #170, #125, ( #86 ) ) ;
#147 = PRODUCT ( '03-2997', '03-2997', '', ( #188 ) ) ;
#148 = CARTESIAN_POINT ( 'NONE',  ( 0.0000000000000000000, 0.0000000000000000000, 0.0000000000000000000 ) ) ;
#149 = DIRECTION ( 'NONE',  ( -1.301042606982605300E-016, 1.000000000000000000, 0.0000000000000000000 ) ) ;
#150 = ORIENTED_EDGE ( 'NONE', *, *, #244, .F. ) ;
#151 = FACE_OUTER_BOUND ( 'NONE', #116, .T. ) ;
#152 = CARTESIAN_POINT ( 'NONE',  ( 0.9999999999999997800, 0.0000000000000000000, 5.000000000000000000 ) ) ;
#153 = CARTESIAN_POINT ( 'NONE',  ( -43.69999999999999600, -5.279702609960828000E-015, 0.0000000000000000000 ) ) ;
#154 = UNCERTAINTY_MEASURE_WITH_UNIT (LENGTH_MEASURE( 1.000000000000000100E-005 ), #294, 'distance_accuracy_value', 'NONE');
#155 = EDGE_LOOP ( 'NONE', ( #145, #250 ) ) ;
#156 = DIRECTION ( 'NONE',  ( -1.181141523481169600E-016, 1.000000000000000000, 0.0000000000000000000 ) ) ;
#157 = DIRECTION ( 'NONE',  ( 0.0000000000000000000, 1.000000000000000000, 0.0000000000000000000 ) ) ;
#158 = LINE ( 'NONE', #18, #92 ) ;
#159 = LINE ( 'NONE', #195, #217 ) ;
#160 = CALENDAR_DATE ( 2023, 8, 6 ) ;
#161 = ADVANCED_FACE ( 'NONE', ( #271 ), #224, .T. ) ;
#162 = VERTEX_POINT ( 'NONE', #213 ) ;
#163 = AXIS2_PLACEMENT_3D ( 'NONE', #153, #7, #180 ) ;
#164 = CYLINDRICAL_SURFACE ( 'NONE', #50, 5.000000000000001800 ) ;
#165 = COORDINATED_UNIVERSAL_TIME_OFFSET ( 9, 0, .AHEAD. ) ;
#166 = ORIENTED_EDGE ( 'NONE', *, *, #273, .F. ) ;
#167 = PRODUCT_DEFINITION_FORMATION_WITH_SPECIFIED_SOURCE ( 'ANY', '', #147, .NOT_KNOWN. ) ;
#168 = CIRCLE ( 'NONE', #120, 4.700000000000000200 ) ;
#169 = DIRECTION ( 'NONE',  ( 0.0000000000000000000, 0.0000000000000000000, 1.000000000000000000 ) ) ;
#170 = DATE_AND_TIME ( #230, #295 ) ;
#171 = PERSON_AND_ORGANIZATION_ROLE ( 'design_supplier' ) ;
#172 = DIRECTION ( 'NONE',  ( 1.000000000000000000, 1.181141523481169600E-016, -0.0000000000000000000 ) ) ;
#173 = CARTESIAN_POINT ( 'NONE',  ( 0.0000000000000000000, 0.0000000000000000000, 5.000000000000001800 ) ) ;
#174 = CONICAL_SURFACE ( 'NONE', #205, 5.000000000000000900, 0.7853981633974468400 ) ;
#175 = VERTEX_POINT ( 'NONE', #3 ) ;
#176 = LOCAL_TIME ( 9, 23, 44.00000000000000000, #235 ) ;
#177 = DIRECTION ( 'NONE',  ( 1.000000000000000000, 0.0000000000000000000, 0.0000000000000000000 ) ) ;
#178 = ORIENTED_EDGE ( 'NONE', *, *, #12, .F. ) ;
#179 = CARTESIAN_POINT ( 'NONE',  ( 21.00000000000000000, 0.0000000000000000000, 0.0000000000000000000 ) ) ;
#180 = DIRECTION ( 'NONE',  ( 0.0000000000000000000, 1.000000000000000000, 0.0000000000000000000 ) ) ;
#181 = APPROVAL_DATE_TIME ( #237, #101 ) ;
#182 = AXIS2_PLACEMENT_3D ( 'NONE', #4, #177, #31 ) ;
#183 = CARTESIAN_POINT ( 'NONE',  ( 0.9999999999999986700, 5.000000000000000000, 0.0000000000000000000 ) ) ;
#184 = SHAPE_DEFINITION_REPRESENTATION ( #215, #229 ) ;
#185 = APPROVAL ( #286, 'UNSPECIFIED' ) ;
#186 = CIRCLE ( 'NONE', #96, 5.000000000000003600 ) ;
#187 = ADVANCED_FACE ( 'NONE', ( #209 ), #300, .T. ) ;
#188 = MECHANICAL_CONTEXT ( 'NONE', #310, 'mechanical' ) ;
#189 = EDGE_LOOP ( 'NONE', ( #64, #212 ) ) ;
#190 = PERSON_AND_ORGANIZATION_ROLE ( 'classification_officer' ) ;
#191 = AXIS2_PLACEMENT_3D ( 'NONE', #73, #246, #110 ) ;
#192 = DIRECTION ( 'NONE',  ( 1.000000000000000000, 1.181141523481169600E-016, -0.0000000000000000000 ) ) ;
#193 = CC_DESIGN_APPROVAL ( #185, ( #167 ) ) ;
#194 = DIRECTION ( 'NONE',  ( -1.000000000000000000, -1.181141523481169600E-016, 0.0000000000000000000 ) ) ;
#195 = CARTESIAN_POINT ( 'NONE',  ( 0.0000000000000000000, 6.123233995736768300E-016, -5.000000000000001800 ) ) ;
#196 = CARTESIAN_POINT ( 'NONE',  ( 1.000000000000000000, 0.0000000000000000000, 0.0000000000000000000 ) ) ;
#197 = ORIENTED_EDGE ( 'NONE', *, *, #2, .F. ) ;
#198 = CARTESIAN_POINT ( 'NONE',  ( 21.00000000000000000, 0.0000000000000000000, 0.0000000000000000000 ) ) ;
#199 = DIRECTION ( 'NONE',  ( 1.000000000000000000, 1.181141523481169600E-016, -0.0000000000000000000 ) ) ;
#200 = ORIENTED_EDGE ( 'NONE', *, *, #57, .F. ) ;
#201 = ORIENTED_EDGE ( 'NONE', *, *, #38, .T. ) ;
#202 = EDGE_LOOP ( 'NONE', ( #166, #41, #78, #281 ) ) ;
#203 = ADVANCED_FACE ( 'NONE', ( #51 ), #164, .T. ) ;
#204 = DIRECTION ( 'NONE',  ( 1.000000000000000000, 1.181141523481169600E-016, -0.0000000000000000000 ) ) ;
#205 = AXIS2_PLACEMENT_3D ( 'NONE', #264, #111, #247 ) ;
#206 = VERTEX_POINT ( 'NONE', #130 ) ;
#207 = CYLINDRICAL_SURFACE ( 'NONE', #248, 5.000000000000001800 ) ;
#208 = CC_DESIGN_PERSON_AND_ORGANIZATION_ASSIGNMENT ( #274, #312, ( #167 ) ) ;
#209 = FACE_OUTER_BOUND ( 'NONE', #155, .T. ) ;
#210 = APPLICATION_CONTEXT ( 'configuration controlled 3d designs of mechanical parts and assemblies' ) ;
#211 = CARTESIAN_POINT ( 'NONE',  ( 21.00000000000000000, 0.0000000000000000000, 0.0000000000000000000 ) ) ;
#212 = ORIENTED_EDGE ( 'NONE', *, *, #44, .T. ) ;
#213 = CARTESIAN_POINT ( 'NONE',  ( 0.9999999999999997800, 6.123233995736767300E-016, -5.000000000000000000 ) ) ;
#214 = FACE_OUTER_BOUND ( 'NONE', #19, .T. ) ;
#215 = PRODUCT_DEFINITION_SHAPE ( 'NONE', 'NONE',  #86 ) ;
#216 = APPROVAL_DATE_TIME ( #280, #291 ) ;
#217 = VECTOR ( 'NONE', #242, 1000.000000000000000 ) ;
#218 = DIRECTION ( 'NONE',  ( -1.000000000000000000, -0.0000000000000000000, -0.0000000000000000000 ) ) ;
#219 = PLANE ( 'NONE',  #79 ) ;
#220 = VERTEX_POINT ( 'NONE', #152 ) ;
#221 = DIRECTION ( 'NONE',  ( 0.0000000000000000000, 0.0000000000000000000, 1.000000000000000000 ) ) ;
#222 = LOCAL_TIME ( 9, 23, 44.00000000000000000, #285 ) ;
#223 = CARTESIAN_POINT ( 'NONE',  ( -43.69999999999999600, 4.999999999999995600, 0.0000000000000000000 ) ) ;
#224 = CONICAL_SURFACE ( 'NONE', #267, 5.000000000000000900, 0.7853981633974468400 ) ;
#225 = APPROVAL_PERSON_ORGANIZATION ( #288, #291, #272 ) ;
#226 = ORIENTED_EDGE ( 'NONE', *, *, #70, .F. ) ;
#227 = CIRCLE ( 'NONE', #134, 5.000000000000000000 ) ;
#228 = CC_DESIGN_PERSON_AND_ORGANIZATION_ASSIGNMENT ( #59, #171, ( #167 ) ) ;
#229 = ADVANCED_BREP_SHAPE_REPRESENTATION ( '03-2997', ( #141, #296, #60 ), #262 ) ;
#230 = CALENDAR_DATE ( 2023, 8, 6 ) ;
#231 = EDGE_CURVE ( 'NONE', #293, #113, #299, .T. ) ;
#232 = DIRECTION ( 'NONE',  ( 1.000000000000000000, 1.181141523481169600E-016, -0.0000000000000000000 ) ) ;
#233 = CIRCLE ( 'NONE', #279, 5.000000000000003600 ) ;
#234 = AXIS2_PLACEMENT_3D ( 'NONE', #65, #218, #82 ) ;
#235 = COORDINATED_UNIVERSAL_TIME_OFFSET ( 9, 0, .AHEAD. ) ;
#236 = APPROVAL_PERSON_ORGANIZATION ( #303, #101, #94 ) ;
#237 = DATE_AND_TIME ( #305, #66 ) ;
#238 = APPROVAL_STATUS ( 'not_yet_approved' ) ;
#239 = DIRECTION ( 'NONE',  ( 0.0000000000000000000, 0.0000000000000000000, 1.000000000000000000 ) ) ;
#240 = AXIS2_PLACEMENT_3D ( 'NONE', #265, #135, #298 ) ;
#241 = SECURITY_CLASSIFICATION ( '', '', #24 ) ;
#242 = DIRECTION ( 'NONE',  ( -1.000000000000000000, -0.0000000000000000000, -0.0000000000000000000 ) ) ;
#243 = DIRECTION ( 'NONE',  ( 1.000000000000000000, 1.181141523481169600E-016, -0.0000000000000000000 ) ) ;
#244 = EDGE_CURVE ( 'NONE', #113, #75, #112, .T. ) ;
#245 = VECTOR ( 'NONE', #249, 1000.000000000000000 ) ;
#246 = DIRECTION ( 'NONE',  ( -1.000000000000000000, -0.0000000000000000000, -0.0000000000000000000 ) ) ;
#247 = DIRECTION ( 'NONE',  ( 0.0000000000000000000, 1.000000000000000000, 0.0000000000000000000 ) ) ;
#248 = AXIS2_PLACEMENT_3D ( 'NONE', #254, #307, #121 ) ;
#249 = DIRECTION ( 'NONE',  ( 1.000000000000000000, 1.181141523481169600E-016, -0.0000000000000000000 ) ) ;
#250 = ORIENTED_EDGE ( 'NONE', *, *, #29, .F. ) ;
#251 = DATE_TIME_ROLE ( 'classification_date' ) ;
#252 =( NAMED_UNIT ( * ) SI_UNIT ( $, .STERADIAN. ) SOLID_ANGLE_UNIT ( ) );
#253 = ADVANCED_FACE ( 'NONE', ( #287 ), #219, .F. ) ;
#254 = CARTESIAN_POINT ( 'NONE',  ( 0.0000000000000000000, 0.0000000000000000000, 0.0000000000000000000 ) ) ;
#255 = AXIS2_PLACEMENT_3D ( 'NONE', #131, #199, #156 ) ;
#256 = CC_DESIGN_PERSON_AND_ORGANIZATION_ASSIGNMENT ( #302, #190, ( #241 ) ) ;
#257 = ORIENTED_EDGE ( 'NONE', *, *, #313, .F. ) ;
#258 = PERSON_AND_ORGANIZATION_ROLE ( 'creator' ) ;
#259 = EDGE_CURVE ( 'NONE', #293, #308, #278, .T. ) ;
#260 = DIRECTION ( 'NONE',  ( 1.000000000000000000, 1.181141523481169600E-016, -0.0000000000000000000 ) ) ;
#261 = VERTEX_POINT ( 'NONE', #6 ) ;
#262 =( GEOMETRIC_REPRESENTATION_CONTEXT ( 3 ) GLOBAL_UNCERTAINTY_ASSIGNED_CONTEXT ( ( #154 ) ) GLOBAL_UNIT_ASSIGNED_CONTEXT ( ( #294, #85, #252 ) ) REPRESENTATION_CONTEXT ( 'NONE', 'WORKASPACE' ) );
#263 = PLANE ( 'NONE',  #255 ) ;
#264 = CARTESIAN_POINT ( 'NONE',  ( -43.69999999999999600, -5.279702609960828000E-015, 0.0000000000000000000 ) ) ;
#265 = CARTESIAN_POINT ( 'NONE',  ( 1.000000000000000000, 0.0000000000000000000, 0.0000000000000000000 ) ) ;
#266 = ORIENTED_EDGE ( 'NONE', *, *, #20, .F. ) ;
#267 = AXIS2_PLACEMENT_3D ( 'NONE', #11, #136, #157 ) ;
#268 = CIRCLE ( 'NONE', #234, 5.000000000000000000 ) ;
#269 = EDGE_LOOP ( 'NONE', ( #140, #103, #178, #266 ) ) ;
#270 = CC_DESIGN_DATE_AND_TIME_ASSIGNMENT ( #53, #251, ( #241 ) ) ;
#271 = FACE_OUTER_BOUND ( 'NONE', #202, .T. ) ;
#272 = APPROVAL_ROLE ( '' ) ;
#273 = EDGE_CURVE ( 'NONE', #308, #75, #158, .T. ) ;
#274 = PERSON_AND_ORGANIZATION ( #34, #123 ) ;
#275 = ADVANCED_FACE ( 'NONE', ( #40 ), #207, .T. ) ;
#276 = DIRECTION ( 'NONE',  ( -0.0000000000000000000, 0.0000000000000000000, 1.000000000000000000 ) ) ;
#277 = ORIENTED_EDGE ( 'NONE', *, *, #17, .F. ) ;
#278 = CIRCLE ( 'NONE', #68, 4.700000000000000200 ) ;
#279 = AXIS2_PLACEMENT_3D ( 'NONE', #198, #67, #221 ) ;
#280 = DATE_AND_TIME ( #42, #102 ) ;
#281 = ORIENTED_EDGE ( 'NONE', *, *, #62, .F. ) ;
#282 = FACE_OUTER_BOUND ( 'NONE', #138, .T. ) ;
#283 = APPLICATION_PROTOCOL_DEFINITION ( 'international standard', 'config_control_design', 1994, #310 ) ;
#284 = CLOSED_SHELL ( 'NONE', ( #203, #275, #48, #253 ) ) ;
#285 = COORDINATED_UNIVERSAL_TIME_OFFSET ( 9, 0, .AHEAD. ) ;
#286 = APPROVAL_STATUS ( 'not_yet_approved' ) ;
#287 = FACE_OUTER_BOUND ( 'NONE', #39, .T. ) ;
#288 = PERSON_AND_ORGANIZATION ( #34, #123 ) ;
#289 = LINE ( 'NONE', #173, #45 ) ;
#290 = DIRECTION ( 'NONE',  ( 1.000000000000000000, 1.181141523481169600E-016, -0.0000000000000000000 ) ) ;
#291 = APPROVAL ( #118, 'UNSPECIFIED' ) ;
#292 = CARTESIAN_POINT ( 'NONE',  ( -43.69999999999999600, 4.999999999999995600, 0.0000000000000000000 ) ) ;
#293 = VERTEX_POINT ( 'NONE', #5 ) ;
#294 =( LENGTH_UNIT ( ) NAMED_UNIT ( * ) SI_UNIT ( .MILLI., .METRE. ) );
#295 = LOCAL_TIME ( 9, 23, 44.00000000000000000, #55 ) ;
#296 = MANIFOLD_SOLID_BREP ( 'È¸Àü4', #43 ) ;
#297 = EDGE_CURVE ( 'NONE', #162, #220, #268, .T. ) ;
#298 = DIRECTION ( 'NONE',  ( -1.301042606982605300E-016, 1.000000000000000000, 0.0000000000000000000 ) ) ;
#299 = LINE ( 'NONE', #292, #99 ) ;
#300 = PLANE ( 'NONE',  #10 ) ;
#301 = AXIS2_PLACEMENT_3D ( 'NONE', #196, #243, #106 ) ;
#302 = PERSON_AND_ORGANIZATION ( #34, #123 ) ;
#303 = PERSON_AND_ORGANIZATION ( #34, #123 ) ;
#304 = ORIENTED_EDGE ( 'NONE', *, *, #62, .T. ) ;
#305 = CALENDAR_DATE ( 2023, 8, 6 ) ;
#306 = ADVANCED_FACE ( 'NONE', ( #214 ), #13, .T. ) ;
#307 = DIRECTION ( 'NONE',  ( -1.000000000000000000, -0.0000000000000000000, -0.0000000000000000000 ) ) ;
#308 = VERTEX_POINT ( 'NONE', #132 ) ;
#309 = CC_DESIGN_APPROVAL ( #291, ( #241 ) ) ;
#310 = APPLICATION_CONTEXT ( 'configuration controlled 3d designs of mechanical parts and assemblies' ) ;
#311 = LINE ( 'NONE', #14, #245 ) ;
#312 = PERSON_AND_ORGANIZATION_ROLE ( 'creator' ) ;
#313 = EDGE_CURVE ( 'NONE', #206, #175, #233, .T. ) ;
ENDSEC;
END-ISO-10303-21;
