ISO-10303-21;
HEADER;
FILE_DESCRIPTION (( 'STEP AP203' ),
    '1' );
FILE_NAME ('03-2998.STEP',
    '2023-06-08T00:24:36',
    ( 'USER' ),
    ( 'Hewlett-Packard Company' ),
    'SwSTEP 2.0',
    'SolidWorks 2014',
    '' );
FILE_SCHEMA (( 'CONFIG_CONTROL_DESIGN' ));
ENDSEC;

DATA;
#1 = PLANE ( 'NONE',  #3 ) ;
#2 = ADVANCED_FACE ( 'NONE', ( #303 ), #18, .T. ) ;
#3 = AXIS2_PLACEMENT_3D ( 'NONE', #81, #242, #105 ) ;
#4 = CARTESIAN_POINT ( 'NONE',  ( 33.00000000000000000, 0.0000000000000000000, 0.0000000000000000000 ) ) ;
#5 = EDGE_LOOP ( 'NONE', ( #239, #99, #206, #124 ) ) ;
#6 = DIRECTION ( 'NONE',  ( 1.000000000000000000, 0.0000000000000000000, 0.0000000000000000000 ) ) ;
#7 = EDGE_CURVE ( 'NONE', #107, #286, #63, .T. ) ;
#8 = AXIS2_PLACEMENT_3D ( 'NONE', #142, #10, #174 ) ;
#9 = SECURITY_CLASSIFICATION_LEVEL ( 'unclassified' ) ;
#10 = DIRECTION ( 'NONE',  ( 1.000000000000000000, 1.207422458141654000E-016, -0.0000000000000000000 ) ) ;
#11 = DIRECTION ( 'NONE',  ( -1.000000000000000000, -0.0000000000000000000, -0.0000000000000000000 ) ) ;
#12 = EDGE_CURVE ( 'NONE', #169, #107, #237, .T. ) ;
#13 = DIRECTION ( 'NONE',  ( 1.000000000000000000, 1.207422458141654000E-016, -0.0000000000000000000 ) ) ;
#14 = CALENDAR_DATE ( 2023, 8, 6 ) ;
#15 = DIRECTION ( 'NONE',  ( 0.0000000000000000000, 1.000000000000000000, 0.0000000000000000000 ) ) ;
#16 = CC_DESIGN_PERSON_AND_ORGANIZATION_ASSIGNMENT ( #273, #24, ( #311 ) ) ;
#17 = PLANE ( 'NONE',  #232 ) ;
#18 = PLANE ( 'NONE',  #148 ) ;
#19 = CARTESIAN_POINT ( 'NONE',  ( 33.00000000000000000, 0.0000000000000000000, 0.0000000000000000000 ) ) ;
#20 = DATE_AND_TIME ( #85, #137 ) ;
#21 = ADVANCED_BREP_SHAPE_REPRESENTATION ( '03-2998', ( #102, #175, #145 ), #307 ) ;
#22 = AXIS2_PLACEMENT_3D ( 'NONE', #247, #113, #147 ) ;
#23 = CALENDAR_DATE ( 2023, 8, 6 ) ;
#24 = PERSON_AND_ORGANIZATION_ROLE ( 'classification_officer' ) ;
#25 = AXIS2_PLACEMENT_3D ( 'NONE', #197, #13, #222 ) ;
#26 = ORIENTED_EDGE ( 'NONE', *, *, #93, .T. ) ;
#27 = CYLINDRICAL_SURFACE ( 'NONE', #66, 6.000000000000003600 ) ;
#28 = EDGE_CURVE ( 'NONE', #44, #88, #55, .T. ) ;
#29 = PERSON_AND_ORGANIZATION ( #38, #284 ) ;
#30 = PLANE ( 'NONE',  #40 ) ;
#31 = CC_DESIGN_DATE_AND_TIME_ASSIGNMENT ( #20, #186, ( #311 ) ) ;
#32 = DATE_AND_TIME ( #98, #150 ) ;
#33 = EDGE_LOOP ( 'NONE', ( #151, #179, #108, #159 ) ) ;
#34 = PERSON_AND_ORGANIZATION_ROLE ( 'design_owner' ) ;
#35 = CARTESIAN_POINT ( 'NONE',  ( 0.9999999999999993300, 6.000000000000000000, 0.0000000000000000000 ) ) ;
#36 = FACE_OUTER_BOUND ( 'NONE', #200, .T. ) ;
#37 = VECTOR ( 'NONE', #195, 1000.000000000000100 ) ;
#38 = PERSON ( 'UNSPECIFIED', 'UNSPECIFIED', 'UNSPECIFIED', ('UNSPECIFIED'), ('UNSPECIFIED'), ('UNSPECIFIED') ) ;
#39 = SHAPE_DEFINITION_REPRESENTATION ( #301, #21 ) ;
#40 = AXIS2_PLACEMENT_3D ( 'NONE', #4, #62, #214 ) ;
#41 = DIRECTION ( 'NONE',  ( 0.7071067811865496800, -0.7071067811865453500, 8.659560562354908200E-017 ) ) ;
#42 = APPROVAL_DATE_TIME ( #106, #156 ) ;
#43 = VERTEX_POINT ( 'NONE', #250 ) ;
#44 = VERTEX_POINT ( 'NONE', #181 ) ;
#45 = LINE ( 'NONE', #281, #287 ) ;
#46 = EDGE_LOOP ( 'NONE', ( #185, #161 ) ) ;
#47 = FACE_OUTER_BOUND ( 'NONE', #170, .T. ) ;
#48 = AXIS2_PLACEMENT_3D ( 'NONE', #135, #310, #157 ) ;
#49 = EDGE_CURVE ( 'NONE', #73, #129, #306, .T. ) ;
#50 = DIRECTION ( 'NONE',  ( 0.0000000000000000000, 0.0000000000000000000, 1.000000000000000000 ) ) ;
#51 = APPROVAL ( #57, 'UNSPECIFIED' ) ;
#52 = APPROVAL_PERSON_ORGANIZATION ( #116, #156, #84 ) ;
#53 = ORIENTED_EDGE ( 'NONE', *, *, #199, .F. ) ;
#54 = VERTEX_POINT ( 'NONE', #225 ) ;
#55 = CIRCLE ( 'NONE', #164, 6.000000000000000000 ) ;
#56 = CIRCLE ( 'NONE', #61, 6.000000000000000000 ) ;
#57 = APPROVAL_STATUS ( 'not_yet_approved' ) ;
#58 = DIRECTION ( 'NONE',  ( -1.000000000000000000, -0.0000000000000000000, -0.0000000000000000000 ) ) ;
#59 = EDGE_LOOP ( 'NONE', ( #248, #154 ) ) ;
#60 = ADVANCED_FACE ( 'NONE', ( #119 ), #17, .T. ) ;
#61 = AXIS2_PLACEMENT_3D ( 'NONE', #272, #128, #302 ) ;
#62 = DIRECTION ( 'NONE',  ( -1.000000000000000000, 0.0000000000000000000, -0.0000000000000000000 ) ) ;
#63 = CIRCLE ( 'NONE', #133, 6.000000000000000000 ) ;
#64 = APPLICATION_PROTOCOL_DEFINITION ( 'international standard', 'config_control_design', 1994, #194 ) ;
#65 = DIRECTION ( 'NONE',  ( 0.0000000000000000000, 0.0000000000000000000, 1.000000000000000000 ) ) ;
#66 = AXIS2_PLACEMENT_3D ( 'NONE', #270, #67, #65 ) ;
#67 = DIRECTION ( 'NONE',  ( -1.000000000000000000, -0.0000000000000000000, -0.0000000000000000000 ) ) ;
#68 = EDGE_CURVE ( 'NONE', #129, #73, #228, .T. ) ;
#69 = ORIENTED_EDGE ( 'NONE', *, *, #220, .F. ) ;
#70 = CC_DESIGN_APPROVAL ( #51, ( #311 ) ) ;
#71 = CARTESIAN_POINT ( 'NONE',  ( -52.00000000000000700, -6.399339028150767000E-015, 0.0000000000000000000 ) ) ;
#72 = DIRECTION ( 'NONE',  ( -1.000000000000000000, -0.0000000000000000000, -0.0000000000000000000 ) ) ;
#73 = VERTEX_POINT ( 'NONE', #254 ) ;
#74 = DIRECTION ( 'NONE',  ( -1.084202172485504400E-016, 1.000000000000000000, 0.0000000000000000000 ) ) ;
#75 = CARTESIAN_POINT ( 'NONE',  ( 0.0000000000000000000, 0.0000000000000000000, 0.0000000000000000000 ) ) ;
#76 = PRODUCT ( '03-2998', '03-2998', '', ( #172 ) ) ;
#77 = CARTESIAN_POINT ( 'NONE',  ( 33.00000000000000000, 0.0000000000000000000, 0.0000000000000000000 ) ) ;
#78 = AXIS2_PLACEMENT_3D ( 'NONE', #96, #259, #123 ) ;
#79 = EDGE_CURVE ( 'NONE', #73, #44, #45, .T. ) ;
#80 = LOCAL_TIME ( 9, 24, 36.00000000000000000, #134 ) ;
#81 = CARTESIAN_POINT ( 'NONE',  ( 1.000000000000000400, 1.807003620809175600E-016, 0.0000000000000000000 ) ) ;
#82 = ADVANCED_FACE ( 'NONE', ( #109 ), #279, .T. ) ;
#83 = CC_DESIGN_SECURITY_CLASSIFICATION ( #311, ( #223 ) ) ;
#84 = APPROVAL_ROLE ( '' ) ;
#85 = CALENDAR_DATE ( 2023, 8, 6 ) ;
#86 = CARTESIAN_POINT ( 'NONE',  ( -52.00000000000000700, -6.399339028150767000E-015, 0.0000000000000000000 ) ) ;
#87 = LOCAL_TIME ( 9, 24, 36.00000000000000000, #139 ) ;
#88 = VERTEX_POINT ( 'NONE', #121 ) ;
#89 = AXIS2_PLACEMENT_3D ( 'NONE', #257, #233, #74 ) ;
#90 = LINE ( 'NONE', #221, #37 ) ;
#91 = DIRECTION ( 'NONE',  ( 1.207422458141654000E-016, -1.000000000000000000, 0.0000000000000000000 ) ) ;
#92 = PERSON_AND_ORGANIZATION ( #38, #284 ) ;
#93 = EDGE_CURVE ( 'NONE', #88, #44, #218, .T. ) ;
#94 = DIRECTION ( 'NONE',  ( 0.0000000000000000000, 1.000000000000000000, 0.0000000000000000000 ) ) ;
#95 = CARTESIAN_POINT ( 'NONE',  ( -51.70000000000000300, 5.999999999999993800, 0.0000000000000000000 ) ) ;
#96 = CARTESIAN_POINT ( 'NONE',  ( -52.00000000000000700, -6.399339028150767000E-015, 0.0000000000000000000 ) ) ;
#97 = DIRECTION ( 'NONE',  ( 1.000000000000000000, 1.207422458141654000E-016, -0.0000000000000000000 ) ) ;
#98 = CALENDAR_DATE ( 2023, 8, 6 ) ;
#99 = ORIENTED_EDGE ( 'NONE', *, *, #49, .T. ) ;
#100 = FACE_OUTER_BOUND ( 'NONE', #5, .T. ) ;
#101 = LINE ( 'NONE', #127, #280 ) ;
#102 = MANIFOLD_SOLID_BREP ( 'È¸Àü3', #283 ) ;
#103 = ORIENTED_EDGE ( 'NONE', *, *, #187, .F. ) ;
#104 = ADVANCED_FACE ( 'NONE', ( #36 ), #1, .F. ) ;
#105 = DIRECTION ( 'NONE',  ( 0.0000000000000000000, 0.0000000000000000000, -1.000000000000000000 ) ) ;
#106 = DATE_AND_TIME ( #158, #226 ) ;
#107 = VERTEX_POINT ( 'NONE', #165 ) ;
#108 = ORIENTED_EDGE ( 'NONE', *, *, #271, .T. ) ;
#109 = FACE_OUTER_BOUND ( 'NONE', #33, .T. ) ;
#110 = VERTEX_POINT ( 'NONE', #292 ) ;
#111 = DATE_TIME_ROLE ( 'creation_date' ) ;
#112 = CIRCLE ( 'NONE', #8, 6.000000000000000000 ) ;
#113 = DIRECTION ( 'NONE',  ( 1.000000000000000000, 1.207422458141654000E-016, -0.0000000000000000000 ) ) ;
#114 = EDGE_CURVE ( 'NONE', #129, #88, #297, .T. ) ;
#115 = DIRECTION ( 'NONE',  ( -1.000000000000000000, -0.0000000000000000000, -0.0000000000000000000 ) ) ;
#116 = PERSON_AND_ORGANIZATION ( #38, #284 ) ;
#117 = ORIENTED_EDGE ( 'NONE', *, *, #28, .T. ) ;
#118 = ORIENTED_EDGE ( 'NONE', *, *, #253, .T. ) ;
#119 = FACE_OUTER_BOUND ( 'NONE', #295, .T. ) ;
#120 = FACE_OUTER_BOUND ( 'NONE', #313, .T. ) ;
#121 = CARTESIAN_POINT ( 'NONE',  ( 0.9999999999999997800, 0.0000000000000000000, 6.000000000000000000 ) ) ;
#122 = ORIENTED_EDGE ( 'NONE', *, *, #12, .T. ) ;
#123 = DIRECTION ( 'NONE',  ( 0.0000000000000000000, 1.000000000000000000, 0.0000000000000000000 ) ) ;
#124 = ORIENTED_EDGE ( 'NONE', *, *, #28, .F. ) ;
#125 = ADVANCED_FACE ( 'NONE', ( #234 ), #30, .F. ) ;
#126 = APPROVAL_ROLE ( '' ) ;
#127 = CARTESIAN_POINT ( 'NONE',  ( 1.000000000000000700, -6.000000000000000000, 7.347880794884119700E-016 ) ) ;
#128 = DIRECTION ( 'NONE',  ( 1.000000000000000000, 1.207422458141654000E-016, -0.0000000000000000000 ) ) ;
#129 = VERTEX_POINT ( 'NONE', #193 ) ;
#130 = CARTESIAN_POINT ( 'NONE',  ( -51.70000000000000300, -6.000000000000006200, 7.347880794884119700E-016 ) ) ;
#131 = PRODUCT_RELATED_PRODUCT_CATEGORY ( 'detail', '', ( #76 ) ) ;
#132 = CARTESIAN_POINT ( 'NONE',  ( -51.70000000000000300, -6.363116354406516900E-015, 0.0000000000000000000 ) ) ;
#133 = AXIS2_PLACEMENT_3D ( 'NONE', #304, #149, #15 ) ;
#134 = COORDINATED_UNIVERSAL_TIME_OFFSET ( 9, 0, .AHEAD. ) ;
#135 = CARTESIAN_POINT ( 'NONE',  ( -51.70000000000000300, -6.363116354406516900E-015, 0.0000000000000000000 ) ) ;
#136 =( NAMED_UNIT ( * ) PLANE_ANGLE_UNIT ( ) SI_UNIT ( $, .RADIAN. ) );
#137 = LOCAL_TIME ( 9, 24, 36.00000000000000000, #202 ) ;
#138 = CARTESIAN_POINT ( 'NONE',  ( 0.0000000000000000000, 0.0000000000000000000, 0.0000000000000000000 ) ) ;
#139 = COORDINATED_UNIVERSAL_TIME_OFFSET ( 9, 0, .AHEAD. ) ;
#140 = DIRECTION ( 'NONE',  ( 0.0000000000000000000, 0.0000000000000000000, 1.000000000000000000 ) ) ;
#141 = PERSON_AND_ORGANIZATION_ROLE ( 'design_supplier' ) ;
#142 = CARTESIAN_POINT ( 'NONE',  ( 0.9999999999999988900, -1.219822688105050200E-031, 0.0000000000000000000 ) ) ;
#143 = ORIENTED_EDGE ( 'NONE', *, *, #308, .F. ) ;
#144 = PERSON_AND_ORGANIZATION ( #38, #284 ) ;
#145 = AXIS2_PLACEMENT_3D ( 'NONE', #75, #140, #6 ) ;
#146 = APPROVAL_DATE_TIME ( #210, #243 ) ;
#147 = DIRECTION ( 'NONE',  ( 0.0000000000000000000, 1.000000000000000000, 0.0000000000000000000 ) ) ;
#148 = AXIS2_PLACEMENT_3D ( 'NONE', #152, #97, #260 ) ;
#149 = DIRECTION ( 'NONE',  ( 1.000000000000000000, 1.207422458141654000E-016, -0.0000000000000000000 ) ) ;
#150 = LOCAL_TIME ( 9, 24, 36.00000000000000000, #215 ) ;
#151 = ORIENTED_EDGE ( 'NONE', *, *, #12, .F. ) ;
#152 = CARTESIAN_POINT ( 'NONE',  ( 0.9999999999999986700, 6.000000000000000000, 0.0000000000000000000 ) ) ;
#153 = FACE_OUTER_BOUND ( 'NONE', #208, .T. ) ;
#154 = ORIENTED_EDGE ( 'NONE', *, *, #49, .F. ) ;
#155 = CYLINDRICAL_SURFACE ( 'NONE', #25, 6.000000000000000000 ) ;
#156 = APPROVAL ( #217, 'UNSPECIFIED' ) ;
#157 = DIRECTION ( 'NONE',  ( 0.0000000000000000000, 1.000000000000000000, 0.0000000000000000000 ) ) ;
#158 = CALENDAR_DATE ( 2023, 8, 6 ) ;
#159 = ORIENTED_EDGE ( 'NONE', *, *, #7, .F. ) ;
#160 = FACE_OUTER_BOUND ( 'NONE', #241, .T. ) ;
#161 = ORIENTED_EDGE ( 'NONE', *, *, #187, .T. ) ;
#162 = VECTOR ( 'NONE', #246, 1000.000000000000000 ) ;
#163 = CC_DESIGN_PERSON_AND_ORGANIZATION_ASSIGNMENT ( #144, #34, ( #76 ) ) ;
#164 = AXIS2_PLACEMENT_3D ( 'NONE', #251, #115, #275 ) ;
#165 = CARTESIAN_POINT ( 'NONE',  ( -51.70000000000000300, -6.000000000000006200, 7.347880794884122700E-016 ) ) ;
#166 = VECTOR ( 'NONE', #168, 1000.000000000000000 ) ;
#167 = ADVANCED_FACE ( 'NONE', ( #100 ), #298, .T. ) ;
#168 = DIRECTION ( 'NONE',  ( -1.000000000000000000, -0.0000000000000000000, -0.0000000000000000000 ) ) ;
#169 = VERTEX_POINT ( 'NONE', #196 ) ;
#170 = EDGE_LOOP ( 'NONE', ( #236, #229, #188, #266 ) ) ;
#171 = VECTOR ( 'NONE', #41, 1000.000000000000000 ) ;
#172 = MECHANICAL_CONTEXT ( 'NONE', #296, 'mechanical' ) ;
#173 = DIRECTION ( 'NONE',  ( 0.0000000000000000000, 1.000000000000000000, 0.0000000000000000000 ) ) ;
#174 = DIRECTION ( 'NONE',  ( -1.084202172485504400E-016, 1.000000000000000000, 0.0000000000000000000 ) ) ;
#175 = MANIFOLD_SOLID_BREP ( 'È¸Àü4', #261 ) ;
#176 = DIRECTION ( 'NONE',  ( 0.0000000000000000000, 0.0000000000000000000, 1.000000000000000000 ) ) ;
#177 = ORIENTED_EDGE ( 'NONE', *, *, #290, .F. ) ;
#178 = CYLINDRICAL_SURFACE ( 'NONE', #89, 6.000000000000000000 ) ;
#179 = ORIENTED_EDGE ( 'NONE', *, *, #199, .T. ) ;
#180 = CC_DESIGN_APPROVAL ( #156, ( #182 ) ) ;
#181 = CARTESIAN_POINT ( 'NONE',  ( 0.9999999999999997800, 7.347880794884120700E-016, -6.000000000000000000 ) ) ;
#182 = PRODUCT_DEFINITION ( 'UNKNOWN', '', #223, #312 ) ;
#183 = DIRECTION ( 'NONE',  ( -1.000000000000000000, -0.0000000000000000000, -0.0000000000000000000 ) ) ;
#184 = AXIS2_PLACEMENT_3D ( 'NONE', #77, #252, #201 ) ;
#185 = ORIENTED_EDGE ( 'NONE', *, *, #238, .T. ) ;
#186 = DATE_TIME_ROLE ( 'classification_date' ) ;
#187 = EDGE_CURVE ( 'NONE', #43, #54, #56, .T. ) ;
#188 = ORIENTED_EDGE ( 'NONE', *, *, #93, .F. ) ;
#189 = APPROVAL_DATE_TIME ( #256, #51 ) ;
#190 = CARTESIAN_POINT ( 'NONE',  ( 0.9999999999999997800, 0.0000000000000000000, 0.0000000000000000000 ) ) ;
#191 = ADVANCED_FACE ( 'NONE', ( #153 ), #219, .T. ) ;
#192 = CC_DESIGN_PERSON_AND_ORGANIZATION_ASSIGNMENT ( #285, #245, ( #182 ) ) ;
#193 = CARTESIAN_POINT ( 'NONE',  ( 33.00000000000000000, 0.0000000000000000000, 6.000000000000006200 ) ) ;
#194 = APPLICATION_CONTEXT ( 'configuration controlled 3d designs of mechanical parts and assemblies' ) ;
#195 = DIRECTION ( 'NONE',  ( 0.7071067811865493500, 0.7071067811865455700, 0.0000000000000000000 ) ) ;
#196 = CARTESIAN_POINT ( 'NONE',  ( -52.00000000000000700, -5.700000000000006400, 7.164183775012016400E-016 ) ) ;
#197 = CARTESIAN_POINT ( 'NONE',  ( 1.000000000000000000, 0.0000000000000000000, 0.0000000000000000000 ) ) ;
#198 = APPROVAL_PERSON_ORGANIZATION ( #262, #51, #207 ) ;
#199 = EDGE_CURVE ( 'NONE', #169, #110, #289, .T. ) ;
#200 = EDGE_LOOP ( 'NONE', ( #26, #117 ) ) ;
#201 = DIRECTION ( 'NONE',  ( 0.0000000000000000000, 0.0000000000000000000, 1.000000000000000000 ) ) ;
#202 = COORDINATED_UNIVERSAL_TIME_OFFSET ( 9, 0, .AHEAD. ) ;
#203 = DIRECTION ( 'NONE',  ( 1.000000000000000000, 1.207422458141654000E-016, -0.0000000000000000000 ) ) ;
#204 = CC_DESIGN_DATE_AND_TIME_ASSIGNMENT ( #32, #111, ( #182 ) ) ;
#205 = APPROVAL_PERSON_ORGANIZATION ( #277, #243, #126 ) ;
#206 = ORIENTED_EDGE ( 'NONE', *, *, #114, .T. ) ;
#207 = APPROVAL_ROLE ( '' ) ;
#208 = EDGE_LOOP ( 'NONE', ( #278, #122, #177, #216 ) ) ;
#209 = CIRCLE ( 'NONE', #48, 6.000000000000000000 ) ;
#210 = DATE_AND_TIME ( #23, #87 ) ;
#211 = AXIS2_PLACEMENT_3D ( 'NONE', #19, #183, #50 ) ;
#212 = ADVANCED_FACE ( 'NONE', ( #120 ), #155, .T. ) ;
#213 = DIRECTION ( 'NONE',  ( 0.0000000000000000000, 0.0000000000000000000, 1.000000000000000000 ) ) ;
#214 = DIRECTION ( 'NONE',  ( -0.0000000000000000000, 0.0000000000000000000, 1.000000000000000000 ) ) ;
#215 = COORDINATED_UNIVERSAL_TIME_OFFSET ( 9, 0, .AHEAD. ) ;
#216 = ORIENTED_EDGE ( 'NONE', *, *, #271, .F. ) ;
#217 = APPROVAL_STATUS ( 'not_yet_approved' ) ;
#218 = CIRCLE ( 'NONE', #263, 6.000000000000000000 ) ;
#219 = CONICAL_SURFACE ( 'NONE', #22, 6.000000000000000000, 0.7853981633974453900 ) ;
#220 = EDGE_CURVE ( 'NONE', #286, #54, #230, .T. ) ;
#221 = CARTESIAN_POINT ( 'NONE',  ( -51.70000000000000300, 5.999999999999993800, 0.0000000000000000000 ) ) ;
#222 = DIRECTION ( 'NONE',  ( -1.084202172485504400E-016, 1.000000000000000000, 0.0000000000000000000 ) ) ;
#223 = PRODUCT_DEFINITION_FORMATION_WITH_SPECIFIED_SOURCE ( 'ANY', '', #76, .NOT_KNOWN. ) ;
#224 = UNCERTAINTY_MEASURE_WITH_UNIT (LENGTH_MEASURE( 1.000000000000000100E-005 ), #235, 'distance_accuracy_value', 'NONE');
#225 = CARTESIAN_POINT ( 'NONE',  ( 0.9999999999999983300, 6.000000000000000000, 0.0000000000000000000 ) ) ;
#226 = LOCAL_TIME ( 9, 24, 36.00000000000000000, #294 ) ;
#227 = ORIENTED_EDGE ( 'NONE', *, *, #238, .F. ) ;
#228 = CIRCLE ( 'NONE', #211, 6.000000000000006200 ) ;
#229 = ORIENTED_EDGE ( 'NONE', *, *, #79, .T. ) ;
#230 = LINE ( 'NONE', #35, #162 ) ;
#231 = DIRECTION ( 'NONE',  ( -1.000000000000000000, -1.207422458141654000E-016, 0.0000000000000000000 ) ) ;
#232 = AXIS2_PLACEMENT_3D ( 'NONE', #71, #231, #91 ) ;
#233 = DIRECTION ( 'NONE',  ( 1.000000000000000000, 1.207422458141654000E-016, -0.0000000000000000000 ) ) ;
#234 = FACE_OUTER_BOUND ( 'NONE', #59, .T. ) ;
#235 =( LENGTH_UNIT ( ) NAMED_UNIT ( * ) SI_UNIT ( .MILLI., .METRE. ) );
#236 = ORIENTED_EDGE ( 'NONE', *, *, #68, .T. ) ;
#237 = LINE ( 'NONE', #130, #171 ) ;
#238 = EDGE_CURVE ( 'NONE', #54, #43, #112, .T. ) ;
#239 = ORIENTED_EDGE ( 'NONE', *, *, #79, .F. ) ;
#240 = CIRCLE ( 'NONE', #78, 5.700000000000000200 ) ;
#241 = EDGE_LOOP ( 'NONE', ( #309, #118, #227, #69 ) ) ;
#242 = DIRECTION ( 'NONE',  ( 1.000000000000000000, 0.0000000000000000000, 0.0000000000000000000 ) ) ;
#243 = APPROVAL ( #269, 'UNSPECIFIED' ) ;
#244 =( NAMED_UNIT ( * ) SI_UNIT ( $, .STERADIAN. ) SOLID_ANGLE_UNIT ( ) );
#245 = PERSON_AND_ORGANIZATION_ROLE ( 'creator' ) ;
#246 = DIRECTION ( 'NONE',  ( 1.000000000000000000, 1.207422458141654000E-016, -0.0000000000000000000 ) ) ;
#247 = CARTESIAN_POINT ( 'NONE',  ( -51.70000000000000300, -6.363116354406516900E-015, 0.0000000000000000000 ) ) ;
#248 = ORIENTED_EDGE ( 'NONE', *, *, #68, .F. ) ;
#249 = AXIS2_PLACEMENT_3D ( 'NONE', #132, #203, #94 ) ;
#250 = CARTESIAN_POINT ( 'NONE',  ( 0.9999999999999995600, -6.000000000000000000, 7.347880794884119700E-016 ) ) ;
#251 = CARTESIAN_POINT ( 'NONE',  ( 0.9999999999999997800, 0.0000000000000000000, 0.0000000000000000000 ) ) ;
#252 = DIRECTION ( 'NONE',  ( -1.000000000000000000, -0.0000000000000000000, -0.0000000000000000000 ) ) ;
#253 = EDGE_CURVE ( 'NONE', #107, #43, #101, .T. ) ;
#254 = CARTESIAN_POINT ( 'NONE',  ( 33.00000000000000000, 7.347880794884125700E-016, -6.000000000000006200 ) ) ;
#255 = ORIENTED_EDGE ( 'NONE', *, *, #7, .T. ) ;
#256 = DATE_AND_TIME ( #14, #80 ) ;
#257 = CARTESIAN_POINT ( 'NONE',  ( 1.000000000000000000, 0.0000000000000000000, 0.0000000000000000000 ) ) ;
#258 = CC_DESIGN_APPROVAL ( #243, ( #223 ) ) ;
#259 = DIRECTION ( 'NONE',  ( 1.000000000000000000, 1.207422458141654000E-016, -0.0000000000000000000 ) ) ;
#260 = DIRECTION ( 'NONE',  ( -1.207422458141654000E-016, 1.000000000000000000, 0.0000000000000000000 ) ) ;
#261 = CLOSED_SHELL ( 'NONE', ( #191, #291, #60, #2, #212, #82 ) ) ;
#262 = PERSON_AND_ORGANIZATION ( #38, #284 ) ;
#263 = AXIS2_PLACEMENT_3D ( 'NONE', #190, #58, #213 ) ;
#264 = CARTESIAN_POINT ( 'NONE',  ( 0.0000000000000000000, 0.0000000000000000000, 6.000000000000003600 ) ) ;
#265 = ADVANCED_FACE ( 'NONE', ( #47 ), #27, .T. ) ;
#266 = ORIENTED_EDGE ( 'NONE', *, *, #114, .F. ) ;
#267 = APPLICATION_PROTOCOL_DEFINITION ( 'international standard', 'config_control_design', 1994, #296 ) ;
#268 = AXIS2_PLACEMENT_3D ( 'NONE', #138, #11, #176 ) ;
#269 = APPROVAL_STATUS ( 'not_yet_approved' ) ;
#270 = CARTESIAN_POINT ( 'NONE',  ( 0.0000000000000000000, 0.0000000000000000000, 0.0000000000000000000 ) ) ;
#271 = EDGE_CURVE ( 'NONE', #110, #286, #90, .T. ) ;
#272 = CARTESIAN_POINT ( 'NONE',  ( 0.9999999999999988900, -1.219822688105050200E-031, 0.0000000000000000000 ) ) ;
#273 = PERSON_AND_ORGANIZATION ( #38, #284 ) ;
#274 = CC_DESIGN_PERSON_AND_ORGANIZATION_ASSIGNMENT ( #92, #299, ( #223 ) ) ;
#275 = DIRECTION ( 'NONE',  ( 0.0000000000000000000, 0.0000000000000000000, 1.000000000000000000 ) ) ;
#276 = ORIENTED_EDGE ( 'NONE', *, *, #220, .T. ) ;
#277 = PERSON_AND_ORGANIZATION ( #38, #284 ) ;
#278 = ORIENTED_EDGE ( 'NONE', *, *, #308, .T. ) ;
#279 = CONICAL_SURFACE ( 'NONE', #249, 6.000000000000000000, 0.7853981633974453900 ) ;
#280 = VECTOR ( 'NONE', #300, 1000.000000000000000 ) ;
#281 = CARTESIAN_POINT ( 'NONE',  ( 0.0000000000000000000, 7.347880794884123700E-016, -6.000000000000003600 ) ) ;
#282 = DIRECTION ( 'NONE',  ( 1.000000000000000000, 1.207422458141654000E-016, -0.0000000000000000000 ) ) ;
#283 = CLOSED_SHELL ( 'NONE', ( #265, #167, #104, #125 ) ) ;
#284 = ORGANIZATION ( 'UNSPECIFIED', 'UNSPECIFIED', '' ) ;
#285 = PERSON_AND_ORGANIZATION ( #38, #284 ) ;
#286 = VERTEX_POINT ( 'NONE', #95 ) ;
#287 = VECTOR ( 'NONE', #72, 1000.000000000000000 ) ;
#288 = AXIS2_PLACEMENT_3D ( 'NONE', #86, #282, #173 ) ;
#289 = CIRCLE ( 'NONE', #288, 5.700000000000000200 ) ;
#290 = EDGE_CURVE ( 'NONE', #286, #107, #209, .T. ) ;
#291 = ADVANCED_FACE ( 'NONE', ( #160 ), #178, .T. ) ;
#292 = CARTESIAN_POINT ( 'NONE',  ( -52.00000000000000700, 5.699999999999994000, 0.0000000000000000000 ) ) ;
#293 = CC_DESIGN_PERSON_AND_ORGANIZATION_ASSIGNMENT ( #29, #141, ( #223 ) ) ;
#294 = COORDINATED_UNIVERSAL_TIME_OFFSET ( 9, 0, .AHEAD. ) ;
#295 = EDGE_LOOP ( 'NONE', ( #143, #53 ) ) ;
#296 = APPLICATION_CONTEXT ( 'configuration controlled 3d designs of mechanical parts and assemblies' ) ;
#297 = LINE ( 'NONE', #264, #166 ) ;
#298 = CYLINDRICAL_SURFACE ( 'NONE', #268, 6.000000000000003600 ) ;
#299 = PERSON_AND_ORGANIZATION_ROLE ( 'creator' ) ;
#300 = DIRECTION ( 'NONE',  ( 1.000000000000000000, 1.207422458141654000E-016, -0.0000000000000000000 ) ) ;
#301 = PRODUCT_DEFINITION_SHAPE ( 'NONE', 'NONE',  #182 ) ;
#302 = DIRECTION ( 'NONE',  ( -1.084202172485504400E-016, 1.000000000000000000, 0.0000000000000000000 ) ) ;
#303 = FACE_OUTER_BOUND ( 'NONE', #46, .T. ) ;
#304 = CARTESIAN_POINT ( 'NONE',  ( -51.70000000000000300, -6.363116354406516900E-015, 0.0000000000000000000 ) ) ;
#305 = ORIENTED_EDGE ( 'NONE', *, *, #253, .F. ) ;
#306 = CIRCLE ( 'NONE', #184, 6.000000000000006200 ) ;
#307 =( GEOMETRIC_REPRESENTATION_CONTEXT ( 3 ) GLOBAL_UNCERTAINTY_ASSIGNED_CONTEXT ( ( #224 ) ) GLOBAL_UNIT_ASSIGNED_CONTEXT ( ( #235, #136, #244 ) ) REPRESENTATION_CONTEXT ( 'NONE', 'WORKASPACE' ) );
#308 = EDGE_CURVE ( 'NONE', #110, #169, #240, .T. ) ;
#309 = ORIENTED_EDGE ( 'NONE', *, *, #290, .T. ) ;
#310 = DIRECTION ( 'NONE',  ( 1.000000000000000000, 1.207422458141654000E-016, -0.0000000000000000000 ) ) ;
#311 = SECURITY_CLASSIFICATION ( '', '', #9 ) ;
#312 = DESIGN_CONTEXT ( 'detailed design', #194, 'design' ) ;
#313 = EDGE_LOOP ( 'NONE', ( #305, #255, #276, #103 ) ) ;
ENDSEC;
END-ISO-10303-21;
