ISO-10303-21;
HEADER;
FILE_DESCRIPTION (( 'STEP AP203' ),
    '1' );
FILE_NAME ('03-2999.STEP',
    '2023-06-08T00:24:18',
    ( 'USER' ),
    ( 'Hewlett-Packard Company' ),
    'SwSTEP 2.0',
    'SolidWorks 2014',
    '' );
FILE_SCHEMA (( 'CONFIG_CONTROL_DESIGN' ));
ENDSEC;

DATA;
#1 = ADVANCED_FACE ( 'NONE', ( #38 ), #251, .T. ) ;
#2 = DIRECTION ( 'NONE',  ( -1.239088197126290800E-016, 1.000000000000000000, 0.0000000000000000000 ) ) ;
#3 = CYLINDRICAL_SURFACE ( 'NONE', #41, 7.000000000000003600 ) ;
#4 = CC_DESIGN_DATE_AND_TIME_ASSIGNMENT ( #40, #70, ( #284 ) ) ;
#5 = PLANE ( 'NONE',  #206 ) ;
#6 = EDGE_CURVE ( 'NONE', #45, #219, #149, .T. ) ;
#7 = CARTESIAN_POINT ( 'NONE',  ( 0.9999999999999991100, 6.999999999999999100, 0.0000000000000000000 ) ) ;
#8 = EDGE_CURVE ( 'NONE', #81, #233, #181, .T. ) ;
#9 = DIRECTION ( 'NONE',  ( -1.000000000000000000, -0.0000000000000000000, -0.0000000000000000000 ) ) ;
#10 = DATE_TIME_ROLE ( 'creation_date' ) ;
#11 = DIRECTION ( 'NONE',  ( -1.000000000000000000, -0.0000000000000000000, -0.0000000000000000000 ) ) ;
#12 = CARTESIAN_POINT ( 'NONE',  ( 0.0000000000000000000, 0.0000000000000000000, 0.0000000000000000000 ) ) ;
#13 = CARTESIAN_POINT ( 'NONE',  ( -50.99999999999999300, 6.699999999999992200, 0.0000000000000000000 ) ) ;
#14 = MANIFOLD_SOLID_BREP ( 'È¸Àü4', #160 ) ;
#15 = APPROVAL ( #246, 'UNSPECIFIED' ) ;
#16 = EDGE_CURVE ( 'NONE', #47, #292, #60, .T. ) ;
#17 = APPROVAL_PERSON_ORGANIZATION ( #78, #212, #29 ) ;
#18 = VECTOR ( 'NONE', #300, 1000.000000000000000 ) ;
#19 =( GEOMETRIC_REPRESENTATION_CONTEXT ( 3 ) GLOBAL_UNCERTAINTY_ASSIGNED_CONTEXT ( ( #172 ) ) GLOBAL_UNIT_ASSIGNED_CONTEXT ( ( #175, #30, #137 ) ) REPRESENTATION_CONTEXT ( 'NONE', 'WORKASPACE' ) );
#20 = PLANE ( 'NONE',  #155 ) ;
#21 = COORDINATED_UNIVERSAL_TIME_OFFSET ( 9, 0, .AHEAD. ) ;
#22 = DIRECTION ( 'NONE',  ( 1.188942037241089700E-016, -1.000000000000000000, 0.0000000000000000000 ) ) ;
#23 = LINE ( 'NONE', #130, #276 ) ;
#24 = DIRECTION ( 'NONE',  ( 1.000000000000000000, 1.188942037241089700E-016, -0.0000000000000000000 ) ) ;
#25 = DIRECTION ( 'NONE',  ( 0.7071067811865496800, -0.7071067811865453500, 8.659560562354908200E-017 ) ) ;
#26 = CALENDAR_DATE ( 2023, 8, 6 ) ;
#27 = PERSON ( 'UNSPECIFIED', 'UNSPECIFIED', 'UNSPECIFIED', ('UNSPECIFIED'), ('UNSPECIFIED'), ('UNSPECIFIED') ) ;
#28 = CARTESIAN_POINT ( 'NONE',  ( 0.9999999999999997800, 8.572527594031474200E-016, -7.000000000000000000 ) ) ;
#29 = APPROVAL_ROLE ( '' ) ;
#30 =( NAMED_UNIT ( * ) PLANE_ANGLE_UNIT ( ) SI_UNIT ( $, .RADIAN. ) );
#31 = CLOSED_SHELL ( 'NONE', ( #293, #187, #265, #53 ) ) ;
#32 = LOCAL_TIME ( 9, 24, 18.00000000000000000, #92 ) ;
#33 = CC_DESIGN_APPROVAL ( #15, ( #284 ) ) ;
#34 = EDGE_CURVE ( 'NONE', #237, #307, #119, .T. ) ;
#35 = FACE_OUTER_BOUND ( 'NONE', #51, .T. ) ;
#36 = VERTEX_POINT ( 'NONE', #146 ) ;
#37 = ORIENTED_EDGE ( 'NONE', *, *, #185, .F. ) ;
#38 = FACE_OUTER_BOUND ( 'NONE', #291, .T. ) ;
#39 = DIRECTION ( 'NONE',  ( 0.0000000000000000000, 0.0000000000000000000, 1.000000000000000000 ) ) ;
#40 = DATE_AND_TIME ( #99, #158 ) ;
#41 = AXIS2_PLACEMENT_3D ( 'NONE', #194, #59, #223 ) ;
#42 = CIRCLE ( 'NONE', #232, 7.000000000000000000 ) ;
#43 = DIRECTION ( 'NONE',  ( -1.000000000000000000, -0.0000000000000000000, -0.0000000000000000000 ) ) ;
#44 = ORIENTED_EDGE ( 'NONE', *, *, #16, .F. ) ;
#45 = VERTEX_POINT ( 'NONE', #197 ) ;
#46 = LINE ( 'NONE', #147, #107 ) ;
#47 = VERTEX_POINT ( 'NONE', #28 ) ;
#48 = ORIENTED_EDGE ( 'NONE', *, *, #8, .T. ) ;
#49 = PERSON_AND_ORGANIZATION ( #27, #294 ) ;
#50 = FACE_OUTER_BOUND ( 'NONE', #282, .T. ) ;
#51 = EDGE_LOOP ( 'NONE', ( #304, #118 ) ) ;
#52 = DIRECTION ( 'NONE',  ( -1.000000000000000000, 0.0000000000000000000, -0.0000000000000000000 ) ) ;
#53 = ADVANCED_FACE ( 'NONE', ( #173 ), #20, .F. ) ;
#54 = CC_DESIGN_SECURITY_CLASSIFICATION ( #284, ( #198 ) ) ;
#55 = CARTESIAN_POINT ( 'NONE',  ( -50.69999999999998900, -6.146830332536432800E-015, 0.0000000000000000000 ) ) ;
#56 = AXIS2_PLACEMENT_3D ( 'NONE', #253, #102, #272 ) ;
#57 = VERTEX_POINT ( 'NONE', #128 ) ;
#58 = DIRECTION ( 'NONE',  ( 0.0000000000000000000, 0.0000000000000000000, 1.000000000000000000 ) ) ;
#59 = DIRECTION ( 'NONE',  ( -1.000000000000000000, -0.0000000000000000000, -0.0000000000000000000 ) ) ;
#60 = CIRCLE ( 'NONE', #94, 7.000000000000000000 ) ;
#61 = DIRECTION ( 'NONE',  ( -1.000000000000000000, -0.0000000000000000000, -0.0000000000000000000 ) ) ;
#62 = ORIENTED_EDGE ( 'NONE', *, *, #306, .T. ) ;
#63 = PERSON_AND_ORGANIZATION_ROLE ( 'design_supplier' ) ;
#64 = CARTESIAN_POINT ( 'NONE',  ( -50.99999999999999300, -6.182498593653665300E-015, 0.0000000000000000000 ) ) ;
#65 = PLANE ( 'NONE',  #311 ) ;
#66 = LINE ( 'NONE', #76, #255 ) ;
#67 = AXIS2_PLACEMENT_3D ( 'NONE', #195, #61, #225 ) ;
#68 = PRODUCT ( '03-2999', '03-2999', '', ( #75 ) ) ;
#69 = DIRECTION ( 'NONE',  ( -1.239088197126290800E-016, 1.000000000000000000, 0.0000000000000000000 ) ) ;
#70 = DATE_TIME_ROLE ( 'classification_date' ) ;
#71 = ADVANCED_FACE ( 'NONE', ( #310 ), #303, .T. ) ;
#72 = CARTESIAN_POINT ( 'NONE',  ( 1.000000000000000000, 0.0000000000000000000, 0.0000000000000000000 ) ) ;
#73 = DATE_AND_TIME ( #133, #200 ) ;
#74 = CARTESIAN_POINT ( 'NONE',  ( -50.69999999999998900, -6.146830332536432800E-015, 0.0000000000000000000 ) ) ;
#75 = MECHANICAL_CONTEXT ( 'NONE', #193, 'mechanical' ) ;
#76 = CARTESIAN_POINT ( 'NONE',  ( -50.69999999999998900, -7.000000000000004400, 8.572527594031471200E-016 ) ) ;
#77 = DIRECTION ( 'NONE',  ( 0.0000000000000000000, 1.000000000000000000, 0.0000000000000000000 ) ) ;
#78 = PERSON_AND_ORGANIZATION ( #27, #294 ) ;
#79 = AXIS2_PLACEMENT_3D ( 'NONE', #186, #261, #69 ) ;
#80 = PERSON_AND_ORGANIZATION ( #27, #294 ) ;
#81 = VERTEX_POINT ( 'NONE', #124 ) ;
#82 = DIRECTION ( 'NONE',  ( 1.000000000000000000, 1.188942037241089700E-016, -0.0000000000000000000 ) ) ;
#83 = AXIS2_PLACEMENT_3D ( 'NONE', #140, #58, #222 ) ;
#84 = PERSON_AND_ORGANIZATION ( #27, #294 ) ;
#85 = CIRCLE ( 'NONE', #258, 7.000000000000007100 ) ;
#86 = LOCAL_TIME ( 9, 24, 18.00000000000000000, #150 ) ;
#87 = ADVANCED_BREP_SHAPE_REPRESENTATION ( '03-2999', ( #230, #14, #83 ), #19 ) ;
#88 = APPROVAL_ROLE ( '' ) ;
#89 = ORIENTED_EDGE ( 'NONE', *, *, #132, .T. ) ;
#90 = ORIENTED_EDGE ( 'NONE', *, *, #132, .F. ) ;
#91 = ADVANCED_FACE ( 'NONE', ( #50 ), #5, .T. ) ;
#92 = COORDINATED_UNIVERSAL_TIME_OFFSET ( 9, 0, .AHEAD. ) ;
#93 = DIRECTION ( 'NONE',  ( 1.000000000000000000, 1.188942037241089700E-016, -0.0000000000000000000 ) ) ;
#94 = AXIS2_PLACEMENT_3D ( 'NONE', #141, #11, #178 ) ;
#95 = VECTOR ( 'NONE', #278, 1000.000000000000100 ) ;
#96 = EDGE_LOOP ( 'NONE', ( #104, #245 ) ) ;
#97 = ORIENTED_EDGE ( 'NONE', *, *, #163, .T. ) ;
#98 = DIRECTION ( 'NONE',  ( 1.000000000000000000, 1.188942037241089700E-016, -0.0000000000000000000 ) ) ;
#99 = CALENDAR_DATE ( 2023, 8, 6 ) ;
#100 = APPLICATION_CONTEXT ( 'configuration controlled 3d designs of mechanical parts and assemblies' ) ;
#101 = CARTESIAN_POINT ( 'NONE',  ( -50.99999999999999300, -6.700000000000004600, 8.388830574159368900E-016 ) ) ;
#102 = DIRECTION ( 'NONE',  ( 1.000000000000000000, 1.188942037241089700E-016, -0.0000000000000000000 ) ) ;
#103 = LINE ( 'NONE', #7, #313 ) ;
#104 = ORIENTED_EDGE ( 'NONE', *, *, #240, .F. ) ;
#105 = CC_DESIGN_PERSON_AND_ORGANIZATION_ASSIGNMENT ( #220, #252, ( #68 ) ) ;
#106 = ORIENTED_EDGE ( 'NONE', *, *, #6, .T. ) ;
#107 = VECTOR ( 'NONE', #308, 1000.000000000000000 ) ;
#108 = ORIENTED_EDGE ( 'NONE', *, *, #143, .T. ) ;
#109 = ORIENTED_EDGE ( 'NONE', *, *, #256, .T. ) ;
#110 = DIRECTION ( 'NONE',  ( -1.239088197126290800E-016, 1.000000000000000000, 0.0000000000000000000 ) ) ;
#111 = PERSON_AND_ORGANIZATION ( #27, #294 ) ;
#112 = CARTESIAN_POINT ( 'NONE',  ( -50.69999999999998900, 6.999999999999992000, 0.0000000000000000000 ) ) ;
#113 = CIRCLE ( 'NONE', #248, 6.699999999999998400 ) ;
#114 = EDGE_LOOP ( 'NONE', ( #274, #106, #109, #44 ) ) ;
#115 = ORIENTED_EDGE ( 'NONE', *, *, #199, .T. ) ;
#116 = DIRECTION ( 'NONE',  ( 0.0000000000000000000, 0.0000000000000000000, -1.000000000000000000 ) ) ;
#117 = AXIS2_PLACEMENT_3D ( 'NONE', #64, #228, #77 ) ;
#118 = ORIENTED_EDGE ( 'NONE', *, *, #16, .T. ) ;
#119 = CIRCLE ( 'NONE', #117, 6.699999999999998400 ) ;
#120 = PRODUCT_DEFINITION ( 'UNKNOWN', '', #198, #302 ) ;
#121 = ADVANCED_FACE ( 'NONE', ( #236 ), #290, .T. ) ;
#122 = EDGE_CURVE ( 'NONE', #57, #36, #42, .T. ) ;
#123 = SHAPE_DEFINITION_REPRESENTATION ( #152, #87 ) ;
#124 = CARTESIAN_POINT ( 'NONE',  ( -50.69999999999998900, -7.000000000000005300, 8.572527594031475200E-016 ) ) ;
#125 = DIRECTION ( 'NONE',  ( 1.000000000000000000, 1.188942037241089700E-016, -0.0000000000000000000 ) ) ;
#126 = CARTESIAN_POINT ( 'NONE',  ( 0.9999999999999988900, -1.330788153981740700E-031, 0.0000000000000000000 ) ) ;
#127 = APPROVAL_STATUS ( 'not_yet_approved' ) ;
#128 = CARTESIAN_POINT ( 'NONE',  ( 0.9999999999999997800, -7.000000000000000900, 8.572527594031474200E-016 ) ) ;
#129 = ORIENTED_EDGE ( 'NONE', *, *, #122, .T. ) ;
#130 = CARTESIAN_POINT ( 'NONE',  ( 0.0000000000000000000, 0.0000000000000000000, 7.000000000000003600 ) ) ;
#131 = APPROVAL ( #127, 'UNSPECIFIED' ) ;
#132 = EDGE_CURVE ( 'NONE', #307, #237, #113, .T. ) ;
#133 = CALENDAR_DATE ( 2023, 8, 6 ) ;
#134 = DATE_AND_TIME ( #205, #273 ) ;
#135 = AXIS2_PLACEMENT_3D ( 'NONE', #55, #216, #189 ) ;
#136 = CIRCLE ( 'NONE', #289, 7.000000000000000000 ) ;
#137 =( NAMED_UNIT ( * ) SI_UNIT ( $, .STERADIAN. ) SOLID_ANGLE_UNIT ( ) );
#138 = CARTESIAN_POINT ( 'NONE',  ( 0.9999999999999997800, 0.0000000000000000000, 0.0000000000000000000 ) ) ;
#139 = PERSON_AND_ORGANIZATION_ROLE ( 'creator' ) ;
#140 = CARTESIAN_POINT ( 'NONE',  ( 0.0000000000000000000, 0.0000000000000000000, 0.0000000000000000000 ) ) ;
#141 = CARTESIAN_POINT ( 'NONE',  ( 0.9999999999999997800, 0.0000000000000000000, 0.0000000000000000000 ) ) ;
#142 = CC_DESIGN_APPROVAL ( #131, ( #120 ) ) ;
#143 = EDGE_CURVE ( 'NONE', #233, #36, #103, .T. ) ;
#144 = APPROVAL_DATE_TIME ( #215, #131 ) ;
#145 = CIRCLE ( 'NONE', #224, 6.999999999999998200 ) ;
#146 = CARTESIAN_POINT ( 'NONE',  ( 0.9999999999999981100, 7.000000000000000000, 0.0000000000000000000 ) ) ;
#147 = CARTESIAN_POINT ( 'NONE',  ( 1.000000000000000900, -6.999999999999999100, 8.572527594031472200E-016 ) ) ;
#148 = ORIENTED_EDGE ( 'NONE', *, *, #267, .F. ) ;
#149 = CIRCLE ( 'NONE', #67, 7.000000000000007100 ) ;
#150 = COORDINATED_UNIVERSAL_TIME_OFFSET ( 9, 0, .AHEAD. ) ;
#151 = DIRECTION ( 'NONE',  ( -1.188942037241089700E-016, 1.000000000000000000, 0.0000000000000000000 ) ) ;
#152 = PRODUCT_DEFINITION_SHAPE ( 'NONE', 'NONE',  #120 ) ;
#153 = EDGE_LOOP ( 'NONE', ( #97, #129 ) ) ;
#154 = APPROVAL_PERSON_ORGANIZATION ( #80, #131, #301 ) ;
#155 = AXIS2_PLACEMENT_3D ( 'NONE', #188, #52, #213 ) ;
#156 = LINE ( 'NONE', #112, #95 ) ;
#157 = ORIENTED_EDGE ( 'NONE', *, *, #256, .F. ) ;
#158 = LOCAL_TIME ( 9, 24, 18.00000000000000000, #234 ) ;
#159 = FACE_OUTER_BOUND ( 'NONE', #114, .T. ) ;
#160 = CLOSED_SHELL ( 'NONE', ( #121, #71, #91, #211, #1, #164 ) ) ;
#161 = ORIENTED_EDGE ( 'NONE', *, *, #122, .F. ) ;
#162 = CC_DESIGN_PERSON_AND_ORGANIZATION_ASSIGNMENT ( #84, #139, ( #120 ) ) ;
#163 = EDGE_CURVE ( 'NONE', #36, #57, #243, .T. ) ;
#164 = ADVANCED_FACE ( 'NONE', ( #227 ), #231, .T. ) ;
#165 = DIRECTION ( 'NONE',  ( -1.000000000000000000, -1.188942037241089700E-016, 0.0000000000000000000 ) ) ;
#166 = EDGE_LOOP ( 'NONE', ( #244, #177, #249, #176 ) ) ;
#167 = ORIENTED_EDGE ( 'NONE', *, *, #306, .F. ) ;
#168 = CARTESIAN_POINT ( 'NONE',  ( -50.99999999999999300, -6.182498593653665300E-015, 0.0000000000000000000 ) ) ;
#169 = APPROVAL_DATE_TIME ( #73, #212 ) ;
#170 = APPLICATION_PROTOCOL_DEFINITION ( 'international standard', 'config_control_design', 1994, #193 ) ;
#171 = DIRECTION ( 'NONE',  ( 0.0000000000000000000, 0.0000000000000000000, 1.000000000000000000 ) ) ;
#172 = UNCERTAINTY_MEASURE_WITH_UNIT (LENGTH_MEASURE( 1.000000000000000100E-005 ), #175, 'distance_accuracy_value', 'NONE');
#173 = FACE_OUTER_BOUND ( 'NONE', #96, .T. ) ;
#174 = APPROVAL_STATUS ( 'not_yet_approved' ) ;
#175 =( LENGTH_UNIT ( ) NAMED_UNIT ( * ) SI_UNIT ( .MILLI., .METRE. ) );
#176 = ORIENTED_EDGE ( 'NONE', *, *, #143, .F. ) ;
#177 = ORIENTED_EDGE ( 'NONE', *, *, #185, .T. ) ;
#178 = DIRECTION ( 'NONE',  ( 0.0000000000000000000, 0.0000000000000000000, 1.000000000000000000 ) ) ;
#179 = ORIENTED_EDGE ( 'NONE', *, *, #8, .F. ) ;
#180 = DIRECTION ( 'NONE',  ( -1.000000000000000000, -0.0000000000000000000, -0.0000000000000000000 ) ) ;
#181 = CIRCLE ( 'NONE', #56, 6.999999999999998200 ) ;
#182 = CARTESIAN_POINT ( 'NONE',  ( -50.69999999999998900, 6.999999999999992000, 0.0000000000000000000 ) ) ;
#183 = CARTESIAN_POINT ( 'NONE',  ( 37.00000000000000000, 0.0000000000000000000, 0.0000000000000000000 ) ) ;
#184 = CC_DESIGN_DATE_AND_TIME_ASSIGNMENT ( #134, #10, ( #120 ) ) ;
#185 = EDGE_CURVE ( 'NONE', #81, #57, #46, .T. ) ;
#186 = CARTESIAN_POINT ( 'NONE',  ( 1.000000000000000000, 0.0000000000000000000, 0.0000000000000000000 ) ) ;
#187 = ADVANCED_FACE ( 'NONE', ( #159 ), #287, .T. ) ;
#188 = CARTESIAN_POINT ( 'NONE',  ( 37.00000000000000000, 0.0000000000000000000, 0.0000000000000000000 ) ) ;
#189 = DIRECTION ( 'NONE',  ( 0.0000000000000000000, 1.000000000000000000, 0.0000000000000000000 ) ) ;
#190 = AXIS2_PLACEMENT_3D ( 'NONE', #72, #247, #2 ) ;
#191 = EDGE_LOOP ( 'NONE', ( #167, #89, #115, #179 ) ) ;
#192 = DIRECTION ( 'NONE',  ( 0.0000000000000000000, 1.000000000000000000, 0.0000000000000000000 ) ) ;
#193 = APPLICATION_CONTEXT ( 'configuration controlled 3d designs of mechanical parts and assemblies' ) ;
#194 = CARTESIAN_POINT ( 'NONE',  ( 0.0000000000000000000, 0.0000000000000000000, 0.0000000000000000000 ) ) ;
#195 = CARTESIAN_POINT ( 'NONE',  ( 37.00000000000000000, 0.0000000000000000000, 0.0000000000000000000 ) ) ;
#196 = PERSON_AND_ORGANIZATION_ROLE ( 'creator' ) ;
#197 = CARTESIAN_POINT ( 'NONE',  ( 37.00000000000000000, 8.572527594031480100E-016, -7.000000000000007100 ) ) ;
#198 = PRODUCT_DEFINITION_FORMATION_WITH_SPECIFIED_SOURCE ( 'ANY', '', #68, .NOT_KNOWN. ) ;
#199 = EDGE_CURVE ( 'NONE', #237, #233, #156, .T. ) ;
#200 = LOCAL_TIME ( 9, 24, 18.00000000000000000, #268 ) ;
#201 = CARTESIAN_POINT ( 'NONE',  ( 0.9999999999999986700, 7.000000000000000000, 0.0000000000000000000 ) ) ;
#202 = AXIS2_PLACEMENT_3D ( 'NONE', #12, #180, #39 ) ;
#203 = CARTESIAN_POINT ( 'NONE',  ( 37.00000000000000000, 0.0000000000000000000, 7.000000000000007100 ) ) ;
#204 = DIRECTION ( 'NONE',  ( 0.0000000000000000000, 0.0000000000000000000, 1.000000000000000000 ) ) ;
#205 = CALENDAR_DATE ( 2023, 8, 6 ) ;
#206 = AXIS2_PLACEMENT_3D ( 'NONE', #266, #165, #22 ) ;
#207 = LINE ( 'NONE', #270, #18 ) ;
#208 = ORIENTED_EDGE ( 'NONE', *, *, #286, .T. ) ;
#209 = APPROVAL_DATE_TIME ( #279, #15 ) ;
#210 = PERSON_AND_ORGANIZATION_ROLE ( 'classification_officer' ) ;
#211 = ADVANCED_FACE ( 'NONE', ( #295 ), #257, .T. ) ;
#212 = APPROVAL ( #174, 'UNSPECIFIED' ) ;
#213 = DIRECTION ( 'NONE',  ( -0.0000000000000000000, 0.0000000000000000000, 1.000000000000000000 ) ) ;
#214 = EDGE_CURVE ( 'NONE', #233, #81, #145, .T. ) ;
#215 = DATE_AND_TIME ( #285, #32 ) ;
#216 = DIRECTION ( 'NONE',  ( 1.000000000000000000, 1.188942037241089700E-016, -0.0000000000000000000 ) ) ;
#217 = FACE_OUTER_BOUND ( 'NONE', #298, .T. ) ;
#218 = DIRECTION ( 'NONE',  ( 1.000000000000000000, 1.188942037241089700E-016, -0.0000000000000000000 ) ) ;
#219 = VERTEX_POINT ( 'NONE', #203 ) ;
#220 = PERSON_AND_ORGANIZATION ( #27, #294 ) ;
#221 = APPROVAL_PERSON_ORGANIZATION ( #288, #15, #88 ) ;
#222 = DIRECTION ( 'NONE',  ( 1.000000000000000000, 0.0000000000000000000, 0.0000000000000000000 ) ) ;
#223 = DIRECTION ( 'NONE',  ( 0.0000000000000000000, 0.0000000000000000000, 1.000000000000000000 ) ) ;
#224 = AXIS2_PLACEMENT_3D ( 'NONE', #235, #82, #259 ) ;
#225 = DIRECTION ( 'NONE',  ( 0.0000000000000000000, 0.0000000000000000000, 1.000000000000000000 ) ) ;
#226 = SECURITY_CLASSIFICATION_LEVEL ( 'unclassified' ) ;
#227 = FACE_OUTER_BOUND ( 'NONE', #191, .T. ) ;
#228 = DIRECTION ( 'NONE',  ( 1.000000000000000000, 1.188942037241089700E-016, -0.0000000000000000000 ) ) ;
#229 = ORIENTED_EDGE ( 'NONE', *, *, #214, .F. ) ;
#230 = MANIFOLD_SOLID_BREP ( 'È¸Àü3', #31 ) ;
#231 = CONICAL_SURFACE ( 'NONE', #275, 6.999999999999998200, 0.7853981633974453900 ) ;
#232 = AXIS2_PLACEMENT_3D ( 'NONE', #269, #125, #297 ) ;
#233 = VERTEX_POINT ( 'NONE', #182 ) ;
#234 = COORDINATED_UNIVERSAL_TIME_OFFSET ( 9, 0, .AHEAD. ) ;
#235 = CARTESIAN_POINT ( 'NONE',  ( -50.69999999999998900, -6.146830332536432800E-015, 0.0000000000000000000 ) ) ;
#236 = FACE_OUTER_BOUND ( 'NONE', #283, .T. ) ;
#237 = VERTEX_POINT ( 'NONE', #13 ) ;
#238 = CARTESIAN_POINT ( 'NONE',  ( 1.000000000000000400, 1.548860246407865300E-016, 0.0000000000000000000 ) ) ;
#239 = CC_DESIGN_APPROVAL ( #212, ( #198 ) ) ;
#240 = EDGE_CURVE ( 'NONE', #219, #45, #85, .T. ) ;
#241 = ORIENTED_EDGE ( 'NONE', *, *, #199, .F. ) ;
#242 = AXIS2_PLACEMENT_3D ( 'NONE', #201, #309, #151 ) ;
#243 = CIRCLE ( 'NONE', #262, 7.000000000000000000 ) ;
#244 = ORIENTED_EDGE ( 'NONE', *, *, #214, .T. ) ;
#245 = ORIENTED_EDGE ( 'NONE', *, *, #6, .F. ) ;
#246 = APPROVAL_STATUS ( 'not_yet_approved' ) ;
#247 = DIRECTION ( 'NONE',  ( 1.000000000000000000, 1.188942037241089700E-016, -0.0000000000000000000 ) ) ;
#248 = AXIS2_PLACEMENT_3D ( 'NONE', #168, #24, #192 ) ;
#249 = ORIENTED_EDGE ( 'NONE', *, *, #163, .F. ) ;
#250 = DIRECTION ( 'NONE',  ( 0.0000000000000000000, 1.000000000000000000, 0.0000000000000000000 ) ) ;
#251 = CYLINDRICAL_SURFACE ( 'NONE', #79, 6.999999999999999100 ) ;
#252 = PERSON_AND_ORGANIZATION_ROLE ( 'design_owner' ) ;
#253 = CARTESIAN_POINT ( 'NONE',  ( -50.69999999999998900, -6.146830332536432800E-015, 0.0000000000000000000 ) ) ;
#254 = CC_DESIGN_PERSON_AND_ORGANIZATION_ASSIGNMENT ( #111, #196, ( #198 ) ) ;
#255 = VECTOR ( 'NONE', #25, 1000.000000000000000 ) ;
#256 = EDGE_CURVE ( 'NONE', #219, #292, #23, .T. ) ;
#257 = PLANE ( 'NONE',  #242 ) ;
#258 = AXIS2_PLACEMENT_3D ( 'NONE', #183, #43, #204 ) ;
#259 = DIRECTION ( 'NONE',  ( 0.0000000000000000000, 1.000000000000000000, 0.0000000000000000000 ) ) ;
#260 = DIRECTION ( 'NONE',  ( 1.000000000000000000, 0.0000000000000000000, 0.0000000000000000000 ) ) ;
#261 = DIRECTION ( 'NONE',  ( 1.000000000000000000, 1.188942037241089700E-016, -0.0000000000000000000 ) ) ;
#262 = AXIS2_PLACEMENT_3D ( 'NONE', #126, #93, #110 ) ;
#263 = ORIENTED_EDGE ( 'NONE', *, *, #240, .T. ) ;
#264 = CC_DESIGN_PERSON_AND_ORGANIZATION_ASSIGNMENT ( #49, #63, ( #198 ) ) ;
#265 = ADVANCED_FACE ( 'NONE', ( #35 ), #65, .F. ) ;
#266 = CARTESIAN_POINT ( 'NONE',  ( -50.99999999999999300, -6.182498593653665300E-015, 0.0000000000000000000 ) ) ;
#267 = EDGE_CURVE ( 'NONE', #292, #47, #136, .T. ) ;
#268 = COORDINATED_UNIVERSAL_TIME_OFFSET ( 9, 0, .AHEAD. ) ;
#269 = CARTESIAN_POINT ( 'NONE',  ( 0.9999999999999988900, -1.330788153981740700E-031, 0.0000000000000000000 ) ) ;
#270 = CARTESIAN_POINT ( 'NONE',  ( 0.0000000000000000000, 8.572527594031476100E-016, -7.000000000000003600 ) ) ;
#271 = APPLICATION_PROTOCOL_DEFINITION ( 'international standard', 'config_control_design', 1994, #100 ) ;
#272 = DIRECTION ( 'NONE',  ( 0.0000000000000000000, 1.000000000000000000, 0.0000000000000000000 ) ) ;
#273 = LOCAL_TIME ( 9, 24, 18.00000000000000000, #21 ) ;
#274 = ORIENTED_EDGE ( 'NONE', *, *, #286, .F. ) ;
#275 = AXIS2_PLACEMENT_3D ( 'NONE', #74, #98, #250 ) ;
#276 = VECTOR ( 'NONE', #280, 1000.000000000000000 ) ;
#277 = ORIENTED_EDGE ( 'NONE', *, *, #34, .T. ) ;
#278 = DIRECTION ( 'NONE',  ( 0.7071067811865493500, 0.7071067811865455700, 0.0000000000000000000 ) ) ;
#279 = DATE_AND_TIME ( #26, #86 ) ;
#280 = DIRECTION ( 'NONE',  ( -1.000000000000000000, -0.0000000000000000000, -0.0000000000000000000 ) ) ;
#281 = CARTESIAN_POINT ( 'NONE',  ( 0.9999999999999997800, 0.0000000000000000000, 7.000000000000000000 ) ) ;
#282 = EDGE_LOOP ( 'NONE', ( #312, #90 ) ) ;
#283 = EDGE_LOOP ( 'NONE', ( #277, #62, #229, #241 ) ) ;
#284 = SECURITY_CLASSIFICATION ( '', '', #226 ) ;
#285 = CALENDAR_DATE ( 2023, 8, 6 ) ;
#286 = EDGE_CURVE ( 'NONE', #45, #47, #207, .T. ) ;
#287 = CYLINDRICAL_SURFACE ( 'NONE', #202, 7.000000000000003600 ) ;
#288 = PERSON_AND_ORGANIZATION ( #27, #294 ) ;
#289 = AXIS2_PLACEMENT_3D ( 'NONE', #138, #9, #171 ) ;
#290 = CONICAL_SURFACE ( 'NONE', #135, 6.999999999999998200, 0.7853981633974453900 ) ;
#291 = EDGE_LOOP ( 'NONE', ( #37, #48, #108, #161 ) ) ;
#292 = VERTEX_POINT ( 'NONE', #281 ) ;
#293 = ADVANCED_FACE ( 'NONE', ( #217 ), #3, .T. ) ;
#294 = ORGANIZATION ( 'UNSPECIFIED', 'UNSPECIFIED', '' ) ;
#295 = FACE_OUTER_BOUND ( 'NONE', #153, .T. ) ;
#296 = PRODUCT_RELATED_PRODUCT_CATEGORY ( 'detail', '', ( #68 ) ) ;
#297 = DIRECTION ( 'NONE',  ( -1.239088197126290800E-016, 1.000000000000000000, 0.0000000000000000000 ) ) ;
#298 = EDGE_LOOP ( 'NONE', ( #263, #208, #148, #157 ) ) ;
#299 = PERSON_AND_ORGANIZATION ( #27, #294 ) ;
#300 = DIRECTION ( 'NONE',  ( -1.000000000000000000, -0.0000000000000000000, -0.0000000000000000000 ) ) ;
#301 = APPROVAL_ROLE ( '' ) ;
#302 = DESIGN_CONTEXT ( 'detailed design', #100, 'design' ) ;
#303 = CYLINDRICAL_SURFACE ( 'NONE', #190, 6.999999999999999100 ) ;
#304 = ORIENTED_EDGE ( 'NONE', *, *, #267, .T. ) ;
#305 = CC_DESIGN_PERSON_AND_ORGANIZATION_ASSIGNMENT ( #299, #210, ( #284 ) ) ;
#306 = EDGE_CURVE ( 'NONE', #307, #81, #66, .T. ) ;
#307 = VERTEX_POINT ( 'NONE', #101 ) ;
#308 = DIRECTION ( 'NONE',  ( 1.000000000000000000, 1.188942037241089700E-016, -0.0000000000000000000 ) ) ;
#309 = DIRECTION ( 'NONE',  ( 1.000000000000000000, 1.188942037241089700E-016, -0.0000000000000000000 ) ) ;
#310 = FACE_OUTER_BOUND ( 'NONE', #166, .T. ) ;
#311 = AXIS2_PLACEMENT_3D ( 'NONE', #238, #260, #116 ) ;
#312 = ORIENTED_EDGE ( 'NONE', *, *, #34, .F. ) ;
#313 = VECTOR ( 'NONE', #218, 1000.000000000000000 ) ;
ENDSEC;
END-ISO-10303-21;
