ISO-10303-21;
HEADER;
FILE_DESCRIPTION (( 'STEP AP203' ),
    '1' );
FILE_NAME ('03-3001.STEP',
    '2023-06-08T00:25:04',
    ( 'USER' ),
    ( 'Hewlett-Packard Company' ),
    'SwSTEP 2.0',
    'SolidWorks 2014',
    '' );
FILE_SCHEMA (( 'CONFIG_CONTROL_DESIGN' ));
ENDSEC;

DATA;
#1 = AXIS2_PLACEMENT_3D ( 'NONE', #306, #16, #195 ) ;
#2 = ORIENTED_EDGE ( 'NONE', *, *, #249, .T. ) ;
#3 = EDGE_CURVE ( 'NONE', #9, #94, #243, .T. ) ;
#4 = DIRECTION ( 'NONE',  ( -1.000000000000000000, 0.0000000000000000000, -0.0000000000000000000 ) ) ;
#5 = EDGE_LOOP ( 'NONE', ( #92, #87, #253, #281 ) ) ;
#6 = CARTESIAN_POINT ( 'NONE',  ( 0.0000000000000000000, 0.0000000000000000000, 10.00000000000000400 ) ) ;
#7 = EDGE_CURVE ( 'NONE', #259, #9, #186, .T. ) ;
#8 = CARTESIAN_POINT ( 'NONE',  ( -56.70000000000000300, -10.00000000000000900, 1.224646799147353800E-015 ) ) ;
#9 = VERTEX_POINT ( 'NONE', #8 ) ;
#10 = DIRECTION ( 'NONE',  ( -1.000000000000000000, -0.0000000000000000000, -0.0000000000000000000 ) ) ;
#11 = DIRECTION ( 'NONE',  ( 0.0000000000000000000, 1.000000000000000000, 0.0000000000000000000 ) ) ;
#12 = DATE_TIME_ROLE ( 'creation_date' ) ;
#13 = CARTESIAN_POINT ( 'NONE',  ( 0.9999999999999997800, 0.0000000000000000000, 0.0000000000000000000 ) ) ;
#14 = APPROVAL ( #42, 'UNSPECIFIED' ) ;
#15 = APPLICATION_CONTEXT ( 'configuration controlled 3d designs of mechanical parts and assemblies' ) ;
#16 = DIRECTION ( 'NONE',  ( 1.000000000000000000, 0.0000000000000000000, 0.0000000000000000000 ) ) ;
#17 = ORIENTED_EDGE ( 'NONE', *, *, #27, .F. ) ;
#18 = COORDINATED_UNIVERSAL_TIME_OFFSET ( 9, 0, .AHEAD. ) ;
#19 = AXIS2_PLACEMENT_3D ( 'NONE', #276, #142, #302 ) ;
#20 = DIRECTION ( 'NONE',  ( 1.178106878818098000E-016, -1.000000000000000000, 0.0000000000000000000 ) ) ;
#21 = EDGE_LOOP ( 'NONE', ( #2, #161 ) ) ;
#22 = ADVANCED_BREP_SHAPE_REPRESENTATION ( '03-3001', ( #239, #189, #203 ), #137 ) ;
#23 = CIRCLE ( 'NONE', #56, 10.00000000000000000 ) ;
#24 = DATE_AND_TIME ( #283, #34 ) ;
#25 = ADVANCED_FACE ( 'NONE', ( #54 ), #180, .T. ) ;
#26 = APPROVAL_STATUS ( 'not_yet_approved' ) ;
#27 = EDGE_CURVE ( 'NONE', #196, #131, #242, .T. ) ;
#28 = ORIENTED_EDGE ( 'NONE', *, *, #201, .F. ) ;
#29 = CARTESIAN_POINT ( 'NONE',  ( -56.70000000000000300, 9.999999999999992900, 0.0000000000000000000 ) ) ;
#30 = CIRCLE ( 'NONE', #19, 9.700000000000001100 ) ;
#31 = DATE_AND_TIME ( #98, #166 ) ;
#32 = UNCERTAINTY_MEASURE_WITH_UNIT (LENGTH_MEASURE( 1.000000000000000100E-005 ), #80, 'distance_accuracy_value', 'NONE');
#33 = CC_DESIGN_APPROVAL ( #14, ( #238 ) ) ;
#34 = LOCAL_TIME ( 9, 25, 4.000000000000000000, #101 ) ;
#35 = AXIS2_PLACEMENT_3D ( 'NONE', #212, #257, #182 ) ;
#36 = VECTOR ( 'NONE', #208, 1000.000000000000000 ) ;
#37 = DIRECTION ( 'NONE',  ( -1.000000000000000000, -0.0000000000000000000, -0.0000000000000000000 ) ) ;
#38 = FACE_OUTER_BOUND ( 'NONE', #21, .T. ) ;
#39 = PERSON_AND_ORGANIZATION ( #141, #285 ) ;
#40 = AXIS2_PLACEMENT_3D ( 'NONE', #71, #261, #125 ) ;
#41 = DIRECTION ( 'NONE',  ( 0.0000000000000000000, 0.0000000000000000000, 1.000000000000000000 ) ) ;
#42 = APPROVAL_STATUS ( 'not_yet_approved' ) ;
#43 = EDGE_LOOP ( 'NONE', ( #274, #204 ) ) ;
#44 = CALENDAR_DATE ( 2023, 8, 6 ) ;
#45 = CYLINDRICAL_SURFACE ( 'NONE', #124, 10.00000000000000000 ) ;
#46 = CIRCLE ( 'NONE', #148, 10.00000000000000700 ) ;
#47 = EDGE_CURVE ( 'NONE', #65, #202, #46, .T. ) ;
#48 = CARTESIAN_POINT ( 'NONE',  ( 0.0000000000000000000, 0.0000000000000000000, 0.0000000000000000000 ) ) ;
#49 = ADVANCED_FACE ( 'NONE', ( #111 ), #275, .F. ) ;
#50 = CC_DESIGN_PERSON_AND_ORGANIZATION_ASSIGNMENT ( #241, #69, ( #238 ) ) ;
#51 = ORIENTED_EDGE ( 'NONE', *, *, #272, .T. ) ;
#52 = DATE_AND_TIME ( #121, #184 ) ;
#53 = FACE_OUTER_BOUND ( 'NONE', #5, .T. ) ;
#54 = FACE_OUTER_BOUND ( 'NONE', #159, .T. ) ;
#55 = PERSON_AND_ORGANIZATION_ROLE ( 'creator' ) ;
#56 = AXIS2_PLACEMENT_3D ( 'NONE', #279, #143, #304 ) ;
#57 = EDGE_LOOP ( 'NONE', ( #223, #140 ) ) ;
#58 = CYLINDRICAL_SURFACE ( 'NONE', #301, 10.00000000000000400 ) ;
#59 = DIRECTION ( 'NONE',  ( -1.084202172485504400E-016, 1.000000000000000000, 0.0000000000000000000 ) ) ;
#60 = AXIS2_PLACEMENT_3D ( 'NONE', #96, #262, #128 ) ;
#61 = DIRECTION ( 'NONE',  ( 1.000000000000000000, 1.178106878818098000E-016, -0.0000000000000000000 ) ) ;
#62 = PERSON_AND_ORGANIZATION ( #141, #285 ) ;
#63 = DIRECTION ( 'NONE',  ( 0.7071067811865660000, -0.7071067811865291400, 8.659560562354708500E-017 ) ) ;
#64 = EDGE_CURVE ( 'NONE', #202, #65, #235, .T. ) ;
#65 = VERTEX_POINT ( 'NONE', #114 ) ;
#66 = CARTESIAN_POINT ( 'NONE',  ( 43.00000000000000000, 2.983724378680108800E-014, 0.0000000000000000000 ) ) ;
#67 =( NAMED_UNIT ( * ) SI_UNIT ( $, .STERADIAN. ) SOLID_ANGLE_UNIT ( ) );
#68 = CC_DESIGN_DATE_AND_TIME_ASSIGNMENT ( #290, #12, ( #238 ) ) ;
#69 = PERSON_AND_ORGANIZATION_ROLE ( 'creator' ) ;
#70 = AXIS2_PLACEMENT_3D ( 'NONE', #48, #10, #192 ) ;
#71 = CARTESIAN_POINT ( 'NONE',  ( 0.9999999999999981100, 10.00000000000000000, 0.0000000000000000000 ) ) ;
#72 = EDGE_LOOP ( 'NONE', ( #190, #119, #210, #250 ) ) ;
#73 = CARTESIAN_POINT ( 'NONE',  ( 43.00000000000000000, 0.0000000000000000000, 10.00000000000000700 ) ) ;
#74 = ADVANCED_FACE ( 'NONE', ( #174 ), #160, .T. ) ;
#75 = ORIENTED_EDGE ( 'NONE', *, *, #64, .F. ) ;
#76 = SECURITY_CLASSIFICATION_LEVEL ( 'unclassified' ) ;
#77 = EDGE_CURVE ( 'NONE', #65, #196, #227, .T. ) ;
#78 = EDGE_LOOP ( 'NONE', ( #291, #155, #312, #17 ) ) ;
#79 = CARTESIAN_POINT ( 'NONE',  ( 1.000000000000000000, 0.0000000000000000000, 0.0000000000000000000 ) ) ;
#80 =( LENGTH_UNIT ( ) NAMED_UNIT ( * ) SI_UNIT ( .MILLI., .METRE. ) );
#81 = LINE ( 'NONE', #29, #88 ) ;
#82 = PRODUCT_DEFINITION_FORMATION_WITH_SPECIFIED_SOURCE ( 'ANY', '', #297, .NOT_KNOWN. ) ;
#83 = PERSON_AND_ORGANIZATION ( #141, #285 ) ;
#84 = CARTESIAN_POINT ( 'NONE',  ( -56.70000000000000300, -6.797676690780425100E-015, 0.0000000000000000000 ) ) ;
#85 = AXIS2_PLACEMENT_3D ( 'NONE', #303, #168, #11 ) ;
#86 = DIRECTION ( 'NONE',  ( 1.000000000000000000, 1.178106878818098000E-016, -0.0000000000000000000 ) ) ;
#87 = ORIENTED_EDGE ( 'NONE', *, *, #258, .T. ) ;
#88 = VECTOR ( 'NONE', #251, 1000.000000000000000 ) ;
#89 = CARTESIAN_POINT ( 'NONE',  ( 1.000000000000001100, -10.00000000000000000, 1.224646799147353300E-015 ) ) ;
#90 = APPLICATION_PROTOCOL_DEFINITION ( 'international standard', 'config_control_design', 1994, #117 ) ;
#91 = PLANE ( 'NONE',  #1 ) ;
#92 = ORIENTED_EDGE ( 'NONE', *, *, #293, .T. ) ;
#93 = PLANE ( 'NONE',  #40 ) ;
#94 = VERTEX_POINT ( 'NONE', #280 ) ;
#95 = EDGE_CURVE ( 'NONE', #131, #196, #292, .T. ) ;
#96 = CARTESIAN_POINT ( 'NONE',  ( 0.9999999999999983300, -1.933059879411696400E-031, 0.0000000000000000000 ) ) ;
#97 = CIRCLE ( 'NONE', #60, 10.00000000000000000 ) ;
#98 = CALENDAR_DATE ( 2023, 8, 6 ) ;
#99 = ADVANCED_FACE ( 'NONE', ( #295 ), #58, .T. ) ;
#100 = APPROVAL ( #26, 'UNSPECIFIED' ) ;
#101 = COORDINATED_UNIVERSAL_TIME_OFFSET ( 9, 0, .AHEAD. ) ;
#102 = DATE_TIME_ROLE ( 'classification_date' ) ;
#103 = SHAPE_DEFINITION_REPRESENTATION ( #260, #22 ) ;
#104 = AXIS2_PLACEMENT_3D ( 'NONE', #205, #61, #232 ) ;
#105 = FACE_OUTER_BOUND ( 'NONE', #43, .T. ) ;
#106 = DATE_AND_TIME ( #207, #265 ) ;
#107 = DIRECTION ( 'NONE',  ( 1.000000000000000000, 1.178106878818098000E-016, -0.0000000000000000000 ) ) ;
#108 = VERTEX_POINT ( 'NONE', #240 ) ;
#109 = LOCAL_TIME ( 9, 25, 4.000000000000000000, #178 ) ;
#110 = CIRCLE ( 'NONE', #104, 10.00000000000000000 ) ;
#111 = FACE_OUTER_BOUND ( 'NONE', #173, .T. ) ;
#112 = DIRECTION ( 'NONE',  ( -1.000000000000000000, -0.0000000000000000000, -0.0000000000000000000 ) ) ;
#113 = EDGE_CURVE ( 'NONE', #202, #131, #300, .T. ) ;
#114 = CARTESIAN_POINT ( 'NONE',  ( 43.00000000000000000, 1.224646799147354200E-015, -10.00000000000000900 ) ) ;
#115 = DIRECTION ( 'NONE',  ( 1.000000000000000000, 1.178106878818098000E-016, -0.0000000000000000000 ) ) ;
#116 = DIRECTION ( 'NONE',  ( -1.000000000000000000, -0.0000000000000000000, -0.0000000000000000000 ) ) ;
#117 = APPLICATION_CONTEXT ( 'configuration controlled 3d designs of mechanical parts and assemblies' ) ;
#118 = CARTESIAN_POINT ( 'NONE',  ( 0.9999999999999993300, -10.00000000000000000, 1.224646799147353300E-015 ) ) ;
#119 = ORIENTED_EDGE ( 'NONE', *, *, #7, .T. ) ;
#120 = CC_DESIGN_APPROVAL ( #100, ( #82 ) ) ;
#121 = CALENDAR_DATE ( 2023, 8, 6 ) ;
#122 = CONICAL_SURFACE ( 'NONE', #35, 10.00000000000000000, 0.7853981633974223000 ) ;
#123 = VECTOR ( 'NONE', #63, 999.9999999999998900 ) ;
#124 = AXIS2_PLACEMENT_3D ( 'NONE', #79, #107, #59 ) ;
#125 = DIRECTION ( 'NONE',  ( -1.178106878818098000E-016, 1.000000000000000000, 0.0000000000000000000 ) ) ;
#126 = CLOSED_SHELL ( 'NONE', ( #245, #99, #152, #49 ) ) ;
#127 = VERTEX_POINT ( 'NONE', #118 ) ;
#128 = DIRECTION ( 'NONE',  ( -1.084202172485504400E-016, 1.000000000000000000, 0.0000000000000000000 ) ) ;
#129 = APPROVAL_ROLE ( '' ) ;
#130 = DIRECTION ( 'NONE',  ( 0.0000000000000000000, 0.0000000000000000000, 1.000000000000000000 ) ) ;
#131 = VERTEX_POINT ( 'NONE', #146 ) ;
#132 = AXIS2_PLACEMENT_3D ( 'NONE', #254, #86, #162 ) ;
#133 = CC_DESIGN_PERSON_AND_ORGANIZATION_ASSIGNMENT ( #217, #55, ( #82 ) ) ;
#134 = CARTESIAN_POINT ( 'NONE',  ( 43.00000000000000000, 0.0000000000000000000, 0.0000000000000000000 ) ) ;
#135 = DIRECTION ( 'NONE',  ( 1.000000000000000000, 1.178106878818098000E-016, -0.0000000000000000000 ) ) ;
#136 = ORIENTED_EDGE ( 'NONE', *, *, #3, .T. ) ;
#137 =( GEOMETRIC_REPRESENTATION_CONTEXT ( 3 ) GLOBAL_UNCERTAINTY_ASSIGNED_CONTEXT ( ( #32 ) ) GLOBAL_UNIT_ASSIGNED_CONTEXT ( ( #80, #214, #67 ) ) REPRESENTATION_CONTEXT ( 'NONE', 'WORKASPACE' ) );
#138 = CARTESIAN_POINT ( 'NONE',  ( 1.000000000000000000, 0.0000000000000000000, 0.0000000000000000000 ) ) ;
#139 = CARTESIAN_POINT ( 'NONE',  ( 0.9999999999999997800, 0.0000000000000000000, 0.0000000000000000000 ) ) ;
#140 = ORIENTED_EDGE ( 'NONE', *, *, #219, .F. ) ;
#141 = PERSON ( 'UNSPECIFIED', 'UNSPECIFIED', 'UNSPECIFIED', ('UNSPECIFIED'), ('UNSPECIFIED'), ('UNSPECIFIED') ) ;
#142 = DIRECTION ( 'NONE',  ( 1.000000000000000000, 1.178106878818098000E-016, -0.0000000000000000000 ) ) ;
#143 = DIRECTION ( 'NONE',  ( 1.000000000000000000, 1.178106878818098000E-016, -0.0000000000000000000 ) ) ;
#144 = CARTESIAN_POINT ( 'NONE',  ( 0.0000000000000000000, 0.0000000000000000000, 0.0000000000000000000 ) ) ;
#145 = DIRECTION ( 'NONE',  ( 1.000000000000000000, 0.0000000000000000000, 0.0000000000000000000 ) ) ;
#146 = CARTESIAN_POINT ( 'NONE',  ( 0.9999999999999997800, 0.0000000000000000000, 10.00000000000000000 ) ) ;
#147 = CARTESIAN_POINT ( 'NONE',  ( -57.00000000000000700, -6.833019897144968800E-015, 0.0000000000000000000 ) ) ;
#148 = AXIS2_PLACEMENT_3D ( 'NONE', #134, #296, #158 ) ;
#149 = ORIENTED_EDGE ( 'NONE', *, *, #3, .F. ) ;
#150 = FACE_OUTER_BOUND ( 'NONE', #72, .T. ) ;
#151 = PRODUCT_RELATED_PRODUCT_CATEGORY ( 'detail', '', ( #297 ) ) ;
#152 = ADVANCED_FACE ( 'NONE', ( #105 ), #91, .F. ) ;
#153 = PERSON_AND_ORGANIZATION ( #141, #285 ) ;
#154 = CC_DESIGN_PERSON_AND_ORGANIZATION_ASSIGNMENT ( #153, #226, ( #82 ) ) ;
#155 = ORIENTED_EDGE ( 'NONE', *, *, #47, .T. ) ;
#156 = CARTESIAN_POINT ( 'NONE',  ( 0.0000000000000000000, 0.0000000000000000000, 0.0000000000000000000 ) ) ;
#157 = PERSON_AND_ORGANIZATION ( #141, #285 ) ;
#158 = DIRECTION ( 'NONE',  ( 0.0000000000000000000, 0.0000000000000000000, 1.000000000000000000 ) ) ;
#159 = EDGE_LOOP ( 'NONE', ( #263, #136, #225, #28 ) ) ;
#160 = CONICAL_SURFACE ( 'NONE', #244, 10.00000000000000000, 0.7853981633974223000 ) ;
#161 = ORIENTED_EDGE ( 'NONE', *, *, #201, .T. ) ;
#162 = DIRECTION ( 'NONE',  ( 0.0000000000000000000, 1.000000000000000000, 0.0000000000000000000 ) ) ;
#163 = AXIS2_PLACEMENT_3D ( 'NONE', #139, #313, #130 ) ;
#164 = ORIENTED_EDGE ( 'NONE', *, *, #7, .F. ) ;
#165 = FACE_OUTER_BOUND ( 'NONE', #57, .T. ) ;
#166 = LOCAL_TIME ( 9, 25, 4.000000000000000000, #231 ) ;
#167 = DIRECTION ( 'NONE',  ( 1.000000000000000000, 1.178106878818098000E-016, -0.0000000000000000000 ) ) ;
#168 = DIRECTION ( 'NONE',  ( 1.000000000000000000, 1.178106878818098000E-016, -0.0000000000000000000 ) ) ;
#169 = CARTESIAN_POINT ( 'NONE',  ( -57.00000000000001400, -9.700000000000006400, 1.206277097160143000E-015 ) ) ;
#170 = PERSON_AND_ORGANIZATION_ROLE ( 'design_owner' ) ;
#171 = SECURITY_CLASSIFICATION ( '', '', #76 ) ;
#172 = APPROVAL_PERSON_ORGANIZATION ( #234, #100, #200 ) ;
#173 = EDGE_LOOP ( 'NONE', ( #75, #228 ) ) ;
#174 = FACE_OUTER_BOUND ( 'NONE', #284, .T. ) ;
#175 = DIRECTION ( 'NONE',  ( -1.000000000000000000, -1.178106878818098000E-016, 0.0000000000000000000 ) ) ;
#176 = VECTOR ( 'NONE', #37, 1000.000000000000000 ) ;
#177 = ADVANCED_FACE ( 'NONE', ( #38 ), #93, .T. ) ;
#178 = COORDINATED_UNIVERSAL_TIME_OFFSET ( 9, 0, .AHEAD. ) ;
#179 = CIRCLE ( 'NONE', #85, 9.700000000000001100 ) ;
#180 = CYLINDRICAL_SURFACE ( 'NONE', #181, 10.00000000000000000 ) ;
#181 = AXIS2_PLACEMENT_3D ( 'NONE', #138, #209, #237 ) ;
#182 = DIRECTION ( 'NONE',  ( 0.0000000000000000000, 1.000000000000000000, 0.0000000000000000000 ) ) ;
#183 = ORIENTED_EDGE ( 'NONE', *, *, #64, .T. ) ;
#184 = LOCAL_TIME ( 9, 25, 4.000000000000000000, #246 ) ;
#185 = CC_DESIGN_PERSON_AND_ORGANIZATION_ASSIGNMENT ( #83, #248, ( #171 ) ) ;
#186 = LINE ( 'NONE', #273, #123 ) ;
#187 = DIRECTION ( 'NONE',  ( -0.0000000000000000000, 0.0000000000000000000, 1.000000000000000000 ) ) ;
#188 = DESIGN_CONTEXT ( 'detailed design', #15, 'design' ) ;
#189 = MANIFOLD_SOLID_BREP ( 'È¸Àü4', #191 ) ;
#190 = ORIENTED_EDGE ( 'NONE', *, *, #308, .T. ) ;
#191 = CLOSED_SHELL ( 'NONE', ( #264, #289, #198, #177, #25, #74 ) ) ;
#192 = DIRECTION ( 'NONE',  ( 0.0000000000000000000, 0.0000000000000000000, 1.000000000000000000 ) ) ;
#193 = DIRECTION ( 'NONE',  ( -1.000000000000000000, -0.0000000000000000000, -0.0000000000000000000 ) ) ;
#194 = APPLICATION_PROTOCOL_DEFINITION ( 'international standard', 'config_control_design', 1994, #15 ) ;
#195 = DIRECTION ( 'NONE',  ( 0.0000000000000000000, 0.0000000000000000000, -1.000000000000000000 ) ) ;
#196 = VERTEX_POINT ( 'NONE', #221 ) ;
#197 = CARTESIAN_POINT ( 'NONE',  ( 0.9999999999999988900, 10.00000000000000000, 0.0000000000000000000 ) ) ;
#198 = ADVANCED_FACE ( 'NONE', ( #165 ), #309, .T. ) ;
#199 = CC_DESIGN_DATE_AND_TIME_ASSIGNMENT ( #106, #102, ( #171 ) ) ;
#200 = APPROVAL_ROLE ( '' ) ;
#201 = EDGE_CURVE ( 'NONE', #127, #220, #97, .T. ) ;
#202 = VERTEX_POINT ( 'NONE', #73 ) ;
#203 = AXIS2_PLACEMENT_3D ( 'NONE', #156, #282, #145 ) ;
#204 = ORIENTED_EDGE ( 'NONE', *, *, #27, .T. ) ;
#205 = CARTESIAN_POINT ( 'NONE',  ( -56.70000000000000300, -6.797676690780425100E-015, 0.0000000000000000000 ) ) ;
#206 = EDGE_LOOP ( 'NONE', ( #183, #286, #267, #310 ) ) ;
#207 = CALENDAR_DATE ( 2023, 8, 6 ) ;
#208 = DIRECTION ( 'NONE',  ( -1.000000000000000000, -0.0000000000000000000, -0.0000000000000000000 ) ) ;
#209 = DIRECTION ( 'NONE',  ( 1.000000000000000000, 1.178106878818098000E-016, -0.0000000000000000000 ) ) ;
#210 = ORIENTED_EDGE ( 'NONE', *, *, #293, .F. ) ;
#211 = AXIS2_PLACEMENT_3D ( 'NONE', #252, #112, #271 ) ;
#212 = CARTESIAN_POINT ( 'NONE',  ( -56.70000000000000300, -6.797676690780425100E-015, 0.0000000000000000000 ) ) ;
#213 = VECTOR ( 'NONE', #115, 1000.000000000000000 ) ;
#214 =( NAMED_UNIT ( * ) PLANE_ANGLE_UNIT ( ) SI_UNIT ( $, .RADIAN. ) );
#215 = DIRECTION ( 'NONE',  ( 0.0000000000000000000, 0.0000000000000000000, 1.000000000000000000 ) ) ;
#216 = APPROVAL_ROLE ( '' ) ;
#217 = PERSON_AND_ORGANIZATION ( #141, #285 ) ;
#218 = APPROVAL ( #266, 'UNSPECIFIED' ) ;
#219 = EDGE_CURVE ( 'NONE', #259, #108, #30, .T. ) ;
#220 = VERTEX_POINT ( 'NONE', #256 ) ;
#221 = CARTESIAN_POINT ( 'NONE',  ( 0.9999999999999997800, 1.224646799147353500E-015, -10.00000000000000000 ) ) ;
#222 = CC_DESIGN_PERSON_AND_ORGANIZATION_ASSIGNMENT ( #157, #170, ( #297 ) ) ;
#223 = ORIENTED_EDGE ( 'NONE', *, *, #308, .F. ) ;
#224 = VECTOR ( 'NONE', #167, 1000.000000000000000 ) ;
#225 = ORIENTED_EDGE ( 'NONE', *, *, #236, .T. ) ;
#226 = PERSON_AND_ORGANIZATION_ROLE ( 'design_supplier' ) ;
#227 = LINE ( 'NONE', #298, #36 ) ;
#228 = ORIENTED_EDGE ( 'NONE', *, *, #47, .F. ) ;
#229 = AXIS2_PLACEMENT_3D ( 'NONE', #66, #4, #187 ) ;
#230 = LINE ( 'NONE', #197, #224 ) ;
#231 = COORDINATED_UNIVERSAL_TIME_OFFSET ( 9, 0, .AHEAD. ) ;
#232 = DIRECTION ( 'NONE',  ( 0.0000000000000000000, 1.000000000000000000, 0.0000000000000000000 ) ) ;
#233 = CC_DESIGN_APPROVAL ( #218, ( #171 ) ) ;
#234 = PERSON_AND_ORGANIZATION ( #141, #285 ) ;
#235 = CIRCLE ( 'NONE', #211, 10.00000000000000700 ) ;
#236 = EDGE_CURVE ( 'NONE', #94, #220, #230, .T. ) ;
#237 = DIRECTION ( 'NONE',  ( -1.084202172485504400E-016, 1.000000000000000000, 0.0000000000000000000 ) ) ;
#238 = PRODUCT_DEFINITION ( 'UNKNOWN', '', #82, #188 ) ;
#239 = MANIFOLD_SOLID_BREP ( 'È¸Àü3', #126 ) ;
#240 = CARTESIAN_POINT ( 'NONE',  ( -57.00000000000001400, 9.699999999999994000, 0.0000000000000000000 ) ) ;
#241 = PERSON_AND_ORGANIZATION ( #141, #285 ) ;
#242 = CIRCLE ( 'NONE', #163, 10.00000000000000000 ) ;
#243 = CIRCLE ( 'NONE', #132, 10.00000000000000000 ) ;
#244 = AXIS2_PLACEMENT_3D ( 'NONE', #84, #135, #270 ) ;
#245 = ADVANCED_FACE ( 'NONE', ( #277 ), #268, .T. ) ;
#246 = COORDINATED_UNIVERSAL_TIME_OFFSET ( 9, 0, .AHEAD. ) ;
#247 = CC_DESIGN_SECURITY_CLASSIFICATION ( #171, ( #82 ) ) ;
#248 = PERSON_AND_ORGANIZATION_ROLE ( 'classification_officer' ) ;
#249 = EDGE_CURVE ( 'NONE', #220, #127, #23, .T. ) ;
#250 = ORIENTED_EDGE ( 'NONE', *, *, #272, .F. ) ;
#251 = DIRECTION ( 'NONE',  ( 0.7071067811865657800, 0.7071067811865292500, 0.0000000000000000000 ) ) ;
#252 = CARTESIAN_POINT ( 'NONE',  ( 43.00000000000000000, 0.0000000000000000000, 0.0000000000000000000 ) ) ;
#253 = ORIENTED_EDGE ( 'NONE', *, *, #249, .F. ) ;
#254 = CARTESIAN_POINT ( 'NONE',  ( -56.70000000000000300, -6.797676690780425100E-015, 0.0000000000000000000 ) ) ;
#255 = AXIS2_PLACEMENT_3D ( 'NONE', #13, #193, #41 ) ;
#256 = CARTESIAN_POINT ( 'NONE',  ( 0.9999999999999972200, 10.00000000000000000, 0.0000000000000000000 ) ) ;
#257 = DIRECTION ( 'NONE',  ( 1.000000000000000000, 1.178106878818098000E-016, -0.0000000000000000000 ) ) ;
#258 = EDGE_CURVE ( 'NONE', #9, #127, #287, .T. ) ;
#259 = VERTEX_POINT ( 'NONE', #169 ) ;
#260 = PRODUCT_DEFINITION_SHAPE ( 'NONE', 'NONE',  #238 ) ;
#261 = DIRECTION ( 'NONE',  ( 1.000000000000000000, 1.178106878818098000E-016, -0.0000000000000000000 ) ) ;
#262 = DIRECTION ( 'NONE',  ( 1.000000000000000000, 1.178106878818098000E-016, -0.0000000000000000000 ) ) ;
#263 = ORIENTED_EDGE ( 'NONE', *, *, #258, .F. ) ;
#264 = ADVANCED_FACE ( 'NONE', ( #150 ), #122, .T. ) ;
#265 = LOCAL_TIME ( 9, 25, 4.000000000000000000, #18 ) ;
#266 = APPROVAL_STATUS ( 'not_yet_approved' ) ;
#267 = ORIENTED_EDGE ( 'NONE', *, *, #95, .F. ) ;
#268 = CYLINDRICAL_SURFACE ( 'NONE', #70, 10.00000000000000400 ) ;
#269 = APPROVAL_DATE_TIME ( #24, #100 ) ;
#270 = DIRECTION ( 'NONE',  ( 0.0000000000000000000, 1.000000000000000000, 0.0000000000000000000 ) ) ;
#271 = DIRECTION ( 'NONE',  ( 0.0000000000000000000, 0.0000000000000000000, 1.000000000000000000 ) ) ;
#272 = EDGE_CURVE ( 'NONE', #108, #94, #81, .T. ) ;
#273 = CARTESIAN_POINT ( 'NONE',  ( -56.70000000000000300, -10.00000000000000700, 1.224646799147353300E-015 ) ) ;
#274 = ORIENTED_EDGE ( 'NONE', *, *, #95, .T. ) ;
#275 = PLANE ( 'NONE',  #229 ) ;
#276 = CARTESIAN_POINT ( 'NONE',  ( -57.00000000000001400, -6.833019897144970400E-015, 0.0000000000000000000 ) ) ;
#277 = FACE_OUTER_BOUND ( 'NONE', #206, .T. ) ;
#278 = APPROVAL_DATE_TIME ( #31, #218 ) ;
#279 = CARTESIAN_POINT ( 'NONE',  ( 0.9999999999999983300, -1.933059879411696400E-031, 0.0000000000000000000 ) ) ;
#280 = CARTESIAN_POINT ( 'NONE',  ( -56.70000000000000300, 9.999999999999992900, 0.0000000000000000000 ) ) ;
#281 = ORIENTED_EDGE ( 'NONE', *, *, #236, .F. ) ;
#282 = DIRECTION ( 'NONE',  ( 0.0000000000000000000, 0.0000000000000000000, 1.000000000000000000 ) ) ;
#283 = CALENDAR_DATE ( 2023, 8, 6 ) ;
#284 = EDGE_LOOP ( 'NONE', ( #164, #299, #51, #149 ) ) ;
#285 = ORGANIZATION ( 'UNSPECIFIED', 'UNSPECIFIED', '' ) ;
#286 = ORIENTED_EDGE ( 'NONE', *, *, #77, .T. ) ;
#287 = LINE ( 'NONE', #89, #213 ) ;
#288 = APPROVAL_PERSON_ORGANIZATION ( #39, #218, #129 ) ;
#289 = ADVANCED_FACE ( 'NONE', ( #53 ), #45, .T. ) ;
#290 = DATE_AND_TIME ( #44, #109 ) ;
#291 = ORIENTED_EDGE ( 'NONE', *, *, #77, .F. ) ;
#292 = CIRCLE ( 'NONE', #255, 10.00000000000000000 ) ;
#293 = EDGE_CURVE ( 'NONE', #94, #9, #110, .T. ) ;
#294 = APPROVAL_DATE_TIME ( #52, #14 ) ;
#295 = FACE_OUTER_BOUND ( 'NONE', #78, .T. ) ;
#296 = DIRECTION ( 'NONE',  ( -1.000000000000000000, -0.0000000000000000000, -0.0000000000000000000 ) ) ;
#297 = PRODUCT ( '03-3001', '03-3001', '', ( #305 ) ) ;
#298 = CARTESIAN_POINT ( 'NONE',  ( 0.0000000000000000000, 1.224646799147353700E-015, -10.00000000000000400 ) ) ;
#299 = ORIENTED_EDGE ( 'NONE', *, *, #219, .T. ) ;
#300 = LINE ( 'NONE', #6, #176 ) ;
#301 = AXIS2_PLACEMENT_3D ( 'NONE', #144, #116, #215 ) ;
#302 = DIRECTION ( 'NONE',  ( 0.0000000000000000000, 1.000000000000000000, 0.0000000000000000000 ) ) ;
#303 = CARTESIAN_POINT ( 'NONE',  ( -57.00000000000001400, -6.833019897144970400E-015, 0.0000000000000000000 ) ) ;
#304 = DIRECTION ( 'NONE',  ( -1.084202172485504400E-016, 1.000000000000000000, 0.0000000000000000000 ) ) ;
#305 = MECHANICAL_CONTEXT ( 'NONE', #117, 'mechanical' ) ;
#306 = CARTESIAN_POINT ( 'NONE',  ( 1.000000000000000400, 1.084202172485505400E-016, 0.0000000000000000000 ) ) ;
#307 = APPROVAL_PERSON_ORGANIZATION ( #62, #14, #216 ) ;
#308 = EDGE_CURVE ( 'NONE', #108, #259, #179, .T. ) ;
#309 = PLANE ( 'NONE',  #311 ) ;
#310 = ORIENTED_EDGE ( 'NONE', *, *, #113, .F. ) ;
#311 = AXIS2_PLACEMENT_3D ( 'NONE', #147, #175, #20 ) ;
#312 = ORIENTED_EDGE ( 'NONE', *, *, #113, .T. ) ;
#313 = DIRECTION ( 'NONE',  ( -1.000000000000000000, -0.0000000000000000000, -0.0000000000000000000 ) ) ;
ENDSEC;
END-ISO-10303-21;
