ISO-10303-21;
HEADER;
FILE_DESCRIPTION (( 'STEP AP203' ),
    '1' );
FILE_NAME ('03-3003.STEP',
    '2023-06-08T00:25:28',
    ( 'USER' ),
    ( 'Hewlett-Packard Company' ),
    'SwSTEP 2.0',
    'SolidWorks 2014',
    '' );
FILE_SCHEMA (( 'CONFIG_CONTROL_DESIGN' ));
ENDSEC;

DATA;
#1 = EDGE_CURVE ( 'NONE', #305, #191, #339, .T. ) ;
#2 = APPLICATION_CONTEXT ( 'configuration controlled 3d designs of mechanical parts and assemblies' ) ;
#3 = EDGE_CURVE ( 'NONE', #10, #351, #87, .T. ) ;
#4 = CARTESIAN_POINT ( 'NONE',  ( 1.000000000000000000, 0.0000000000000000000, 0.0000000000000000000 ) ) ;
#5 = DIRECTION ( 'NONE',  ( 1.000000000000000000, 9.717949067029079900E-017, -0.0000000000000000000 ) ) ;
#6 = ADVANCED_FACE ( 'NONE', ( #411 ), #398, .T. ) ;
#7 = CARTESIAN_POINT ( 'NONE',  ( -7.469803751377141000E-017, 2.999999999999999100, 3.673940397442058900E-016 ) ) ;
#8 = DIRECTION ( 'NONE',  ( 0.7071067811865474600, 0.7071067811865475700, 0.0000000000000000000 ) ) ;
#9 = ORIENTED_EDGE ( 'NONE', *, *, #316, .F. ) ;
#10 = VERTEX_POINT ( 'NONE', #176 ) ;
#11 = CC_DESIGN_PERSON_AND_ORGANIZATION_ASSIGNMENT ( #296, #399, ( #362 ) ) ;
#12 = DIRECTION ( 'NONE',  ( -8.673617379884034200E-017, 1.000000000000000000, 0.0000000000000000000 ) ) ;
#13 = APPROVAL_DATE_TIME ( #100, #117 ) ;
#14 = ORIENTED_EDGE ( 'NONE', *, *, #3, .F. ) ;
#15 = APPROVAL_PERSON_ORGANIZATION ( #107, #117, #376 ) ;
#16 = DIRECTION ( 'NONE',  ( 1.000000000000000000, 9.717949067029079900E-017, -0.0000000000000000000 ) ) ;
#17 = MANIFOLD_SOLID_BREP ( 'È¸Àü4', #183 ) ;
#18 = AXIS2_PLACEMENT_3D ( 'NONE', #20, #189, #332 ) ;
#19 = APPROVAL_PERSON_ORGANIZATION ( #109, #382, #181 ) ;
#20 = CARTESIAN_POINT ( 'NONE',  ( 2.168404344971008900E-016, -9.717949067029077400E-017, 0.0000000000000000000 ) ) ;
#21 = CARTESIAN_POINT ( 'NONE',  ( 1.000000000000003300, 0.0000000000000000000, 0.0000000000000000000 ) ) ;
#22 = DIRECTION ( 'NONE',  ( -1.000000000000000000, -0.0000000000000000000, -0.0000000000000000000 ) ) ;
#23 = CYLINDRICAL_SURFACE ( 'NONE', #103, 3.000000000000002700 ) ;
#24 = EDGE_CURVE ( 'NONE', #351, #105, #67, .T. ) ;
#25 = DIRECTION ( 'NONE',  ( -1.000000000000000000, -0.0000000000000000000, -0.0000000000000000000 ) ) ;
#26 = ORIENTED_EDGE ( 'NONE', *, *, #402, .T. ) ;
#27 = CC_DESIGN_PERSON_AND_ORGANIZATION_ASSIGNMENT ( #212, #209, ( #362 ) ) ;
#28 = COORDINATED_UNIVERSAL_TIME_OFFSET ( 9, 0, .AHEAD. ) ;
#29 = PRODUCT_DEFINITION_SHAPE ( 'NONE', 'NONE',  #258 ) ;
#30 = DIRECTION ( 'NONE',  ( -1.000000000000000000, -0.0000000000000000000, -0.0000000000000000000 ) ) ;
#31 = COORDINATED_UNIVERSAL_TIME_OFFSET ( 9, 0, .AHEAD. ) ;
#32 = CARTESIAN_POINT ( 'NONE',  ( -46.70000000000001000, -4.635461704972872100E-015, 0.0000000000000000000 ) ) ;
#33 = DIRECTION ( 'NONE',  ( 1.000000000000000000, 0.0000000000000000000, 0.0000000000000000000 ) ) ;
#34 = VECTOR ( 'NONE', #204, 1000.000000000000000 ) ;
#35 = AXIS2_PLACEMENT_3D ( 'NONE', #133, #99, #220 ) ;
#36 = ORIENTED_EDGE ( 'NONE', *, *, #168, .T. ) ;
#37 = CARTESIAN_POINT ( 'NONE',  ( -1.999999999999992200, -2.915384720108716100E-016, 0.0000000000000000000 ) ) ;
#38 = DIRECTION ( 'NONE',  ( -1.000000000000000000, -0.0000000000000000000, -0.0000000000000000000 ) ) ;
#39 = ADVANCED_FACE ( 'NONE', ( #162 ), #319, .T. ) ;
#40 = CARTESIAN_POINT ( 'NONE',  ( 2.168404344971008900E-016, -9.717949067029077400E-017, 0.0000000000000000000 ) ) ;
#41 = CYLINDRICAL_SURFACE ( 'NONE', #182, 3.000000000000002700 ) ;
#42 = ORIENTED_EDGE ( 'NONE', *, *, #394, .T. ) ;
#43 = PERSON ( 'UNSPECIFIED', 'UNSPECIFIED', 'UNSPECIFIED', ('UNSPECIFIED'), ('UNSPECIFIED'), ('UNSPECIFIED') ) ;
#44 = AXIS2_PLACEMENT_3D ( 'NONE', #37, #267, #76 ) ;
#45 = DATE_AND_TIME ( #137, #221 ) ;
#46 = FACE_OUTER_BOUND ( 'NONE', #343, .T. ) ;
#47 = VERTEX_POINT ( 'NONE', #145 ) ;
#48 = EDGE_CURVE ( 'NONE', #147, #105, #248, .T. ) ;
#49 = ORIENTED_EDGE ( 'NONE', *, *, #336, .T. ) ;
#50 = ORIENTED_EDGE ( 'NONE', *, *, #379, .T. ) ;
#51 = ORIENTED_EDGE ( 'NONE', *, *, #112, .T. ) ;
#52 = DATE_AND_TIME ( #150, #231 ) ;
#53 = SECURITY_CLASSIFICATION ( '', '', #324 ) ;
#54 = CARTESIAN_POINT ( 'NONE',  ( 1.000000000000003300, 0.0000000000000000000, 0.0000000000000000000 ) ) ;
#55 = DIRECTION ( 'NONE',  ( 0.0000000000000000000, 0.0000000000000000000, 1.000000000000000000 ) ) ;
#56 = DIRECTION ( 'NONE',  ( 1.000000000000000000, 9.717949067029079900E-017, -0.0000000000000000000 ) ) ;
#57 = FACE_OUTER_BOUND ( 'NONE', #185, .T. ) ;
#58 = CONICAL_SURFACE ( 'NONE', #128, 5.000000000000000000, 0.7853981633974482800 ) ;
#59 = EDGE_LOOP ( 'NONE', ( #193, #141, #225, #144 ) ) ;
#60 = AXIS2_PLACEMENT_3D ( 'NONE', #223, #22, #257 ) ;
#61 = ORIENTED_EDGE ( 'NONE', *, *, #24, .F. ) ;
#62 = AXIS2_PLACEMENT_3D ( 'NONE', #32, #263, #70 ) ;
#63 = FACE_OUTER_BOUND ( 'NONE', #113, .T. ) ;
#64 = EDGE_LOOP ( 'NONE', ( #378, #50, #293, #325 ) ) ;
#65 = PERSON_AND_ORGANIZATION ( #43, #243 ) ;
#66 = DIRECTION ( 'NONE',  ( 1.000000000000000000, 9.717949067029079900E-017, -0.0000000000000000000 ) ) ;
#67 = CIRCLE ( 'NONE', #44, 5.000000000000000900 ) ;
#68 = CARTESIAN_POINT ( 'NONE',  ( -47.00000000000001400, -4.664615552173959900E-015, 0.0000000000000000000 ) ) ;
#69 = AXIS2_PLACEMENT_3D ( 'NONE', #200, #5, #240 ) ;
#70 = DIRECTION ( 'NONE',  ( 0.0000000000000000000, 1.000000000000000000, 0.0000000000000000000 ) ) ;
#71 = PERSON_AND_ORGANIZATION_ROLE ( 'design_owner' ) ;
#72 = CONICAL_SURFACE ( 'NONE', #222, 2.999999999999999100, 0.7853981633974507200 ) ;
#73 = DIRECTION ( 'NONE',  ( 1.000000000000000000, 9.717949067029079900E-017, -0.0000000000000000000 ) ) ;
#74 = EDGE_CURVE ( 'NONE', #214, #10, #314, .T. ) ;
#75 = ADVANCED_FACE ( 'NONE', ( #63 ), #304, .T. ) ;
#76 = DIRECTION ( 'NONE',  ( -8.673617379884034200E-017, 1.000000000000000000, 0.0000000000000000000 ) ) ;
#77 = CARTESIAN_POINT ( 'NONE',  ( -46.70000000000001000, -4.635461704972872100E-015, 0.0000000000000000000 ) ) ;
#78 = DIRECTION ( 'NONE',  ( -9.717949067029079900E-017, 1.000000000000000000, 0.0000000000000000000 ) ) ;
#79 = CC_DESIGN_PERSON_AND_ORGANIZATION_ASSIGNMENT ( #124, #125, ( #53 ) ) ;
#80 = VECTOR ( 'NONE', #320, 1000.000000000000000 ) ;
#81 = APPLICATION_PROTOCOL_DEFINITION ( 'international standard', 'config_control_design', 1994, #273 ) ;
#82 = LINE ( 'NONE', #165, #323 ) ;
#83 = AXIS2_PLACEMENT_3D ( 'NONE', #90, #321, #121 ) ;
#84 = AXIS2_PLACEMENT_3D ( 'NONE', #355, #174, #386 ) ;
#85 = ORIENTED_EDGE ( 'NONE', *, *, #143, .T. ) ;
#86 = CARTESIAN_POINT ( 'NONE',  ( -46.70000000000001000, -5.000000000000005300, 6.123233995736770200E-016 ) ) ;
#87 = LINE ( 'NONE', #405, #80 ) ;
#88 = DIRECTION ( 'NONE',  ( 0.0000000000000000000, 0.0000000000000000000, 1.000000000000000000 ) ) ;
#89 = AXIS2_PLACEMENT_3D ( 'NONE', #77, #116, #318 ) ;
#90 = CARTESIAN_POINT ( 'NONE',  ( 33.00000000000000000, 7.632783294297952500E-014, 0.0000000000000000000 ) ) ;
#91 = CARTESIAN_POINT ( 'NONE',  ( 1.000000000000002200, -7.950815931560375400E-016, 0.0000000000000000000 ) ) ;
#92 = CARTESIAN_POINT ( 'NONE',  ( -46.70000000000001000, -4.635461704972872100E-015, 0.0000000000000000000 ) ) ;
#93 = CARTESIAN_POINT ( 'NONE',  ( -1.999999999999991300, -5.000000000000000900, 0.0000000000000000000 ) ) ;
#94 = EDGE_CURVE ( 'NONE', #10, #147, #380, .T. ) ;
#95 = ORIENTED_EDGE ( 'NONE', *, *, #94, .T. ) ;
#96 = DIRECTION ( 'NONE',  ( 9.717949067029079900E-017, -1.000000000000000000, 0.0000000000000000000 ) ) ;
#97 = CC_DESIGN_DATE_AND_TIME_ASSIGNMENT ( #195, #348, ( #53 ) ) ;
#98 = DIRECTION ( 'NONE',  ( 0.0000000000000000000, 1.000000000000000000, 0.0000000000000000000 ) ) ;
#99 = DIRECTION ( 'NONE',  ( 1.000000000000000000, 9.717949067029079900E-017, -0.0000000000000000000 ) ) ;
#100 = DATE_AND_TIME ( #188, #274 ) ;
#101 = DIRECTION ( 'NONE',  ( 0.0000000000000000000, 1.000000000000000000, 0.0000000000000000000 ) ) ;
#102 = AXIS2_PLACEMENT_3D ( 'NONE', #68, #295, #101 ) ;
#103 = AXIS2_PLACEMENT_3D ( 'NONE', #337, #149, #246 ) ;
#104 = CARTESIAN_POINT ( 'NONE',  ( 1.000000000000000400, -5.000000000000000900, 6.123233995736767300E-016 ) ) ;
#105 = VERTEX_POINT ( 'NONE', #93 ) ;
#106 = ADVANCED_FACE ( 'NONE', ( #146 ), #41, .T. ) ;
#107 = PERSON_AND_ORGANIZATION ( #43, #243 ) ;
#108 = APPROVAL_ROLE ( '' ) ;
#109 = PERSON_AND_ORGANIZATION ( #43, #243 ) ;
#110 = AXIS2_PLACEMENT_3D ( 'NONE', #4, #140, #301 ) ;
#111 = CIRCLE ( 'NONE', #84, 2.999999999999999100 ) ;
#112 = EDGE_CURVE ( 'NONE', #214, #155, #131, .T. ) ;
#113 = EDGE_LOOP ( 'NONE', ( #26, #381, #410, #227 ) ) ;
#114 = FACE_OUTER_BOUND ( 'NONE', #115, .T. ) ;
#115 = EDGE_LOOP ( 'NONE', ( #272, #298, #236, #207 ) ) ;
#116 = DIRECTION ( 'NONE',  ( 1.000000000000000000, 9.717949067029079900E-017, -0.0000000000000000000 ) ) ;
#117 = APPROVAL ( #167, 'UNSPECIFIED' ) ;
#118 = DIRECTION ( 'NONE',  ( -1.000000000000000000, -9.717949067029079900E-017, 0.0000000000000000000 ) ) ;
#119 = PERSON_AND_ORGANIZATION ( #43, #243 ) ;
#120 = CARTESIAN_POINT ( 'NONE',  ( 1.000000000000002900, 2.812008759946452200E-031, 0.0000000000000000000 ) ) ;
#121 = DIRECTION ( 'NONE',  ( -0.0000000000000000000, 0.0000000000000000000, 1.000000000000000000 ) ) ;
#122 = SHAPE_DEFINITION_REPRESENTATION ( #29, #190 ) ;
#123 = DIRECTION ( 'NONE',  ( 1.000000000000000000, 0.0000000000000000000, 0.0000000000000000000 ) ) ;
#124 = PERSON_AND_ORGANIZATION ( #43, #243 ) ;
#125 = PERSON_AND_ORGANIZATION_ROLE ( 'classification_officer' ) ;
#126 = CIRCLE ( 'NONE', #62, 5.000000000000000000 ) ;
#127 = EDGE_LOOP ( 'NONE', ( #261, #49 ) ) ;
#128 = AXIS2_PLACEMENT_3D ( 'NONE', #92, #328, #98 ) ;
#129 =( GEOMETRIC_REPRESENTATION_CONTEXT ( 3 ) GLOBAL_UNCERTAINTY_ASSIGNED_CONTEXT ( ( #245 ) ) GLOBAL_UNIT_ASSIGNED_CONTEXT ( ( #233, #136, #356 ) ) REPRESENTATION_CONTEXT ( 'NONE', 'WORKASPACE' ) );
#130 = CLOSED_SHELL ( 'NONE', ( #106, #395, #359, #244 ) ) ;
#131 = CIRCLE ( 'NONE', #164, 4.699999999999998400 ) ;
#132 = ORIENTED_EDGE ( 'NONE', *, *, #289, .F. ) ;
#133 = CARTESIAN_POINT ( 'NONE',  ( 1.000000000000001100, 2.999999999999999100, 0.0000000000000000000 ) ) ;
#134 = DIRECTION ( 'NONE',  ( 9.717949067029079900E-017, -1.000000000000000000, 0.0000000000000000000 ) ) ;
#135 = AXIS2_PLACEMENT_3D ( 'NONE', #205, #73, #299 ) ;
#136 =( NAMED_UNIT ( * ) PLANE_ANGLE_UNIT ( ) SI_UNIT ( $, .RADIAN. ) );
#137 = CALENDAR_DATE ( 2023, 8, 6 ) ;
#138 = CIRCLE ( 'NONE', #238, 2.999999999999999100 ) ;
#139 = ORIENTED_EDGE ( 'NONE', *, *, #368, .F. ) ;
#140 = DIRECTION ( 'NONE',  ( 1.000000000000000000, 9.717949067029079900E-017, -0.0000000000000000000 ) ) ;
#141 = ORIENTED_EDGE ( 'NONE', *, *, #289, .T. ) ;
#142 = DIRECTION ( 'NONE',  ( 0.0000000000000000000, 0.0000000000000000000, 1.000000000000000000 ) ) ;
#143 = EDGE_CURVE ( 'NONE', #155, #147, #217, .T. ) ;
#144 = ORIENTED_EDGE ( 'NONE', *, *, #1, .F. ) ;
#145 = CARTESIAN_POINT ( 'NONE',  ( 5.083789065079731800E-016, -2.999999999999999100, 3.673940397442058900E-016 ) ) ;
#146 = FACE_OUTER_BOUND ( 'NONE', #59, .T. ) ;
#147 = VERTEX_POINT ( 'NONE', #86 ) ;
#148 = ADVANCED_FACE ( 'NONE', ( #206 ), #171, .T. ) ;
#149 = DIRECTION ( 'NONE',  ( -1.000000000000000000, -0.0000000000000000000, -0.0000000000000000000 ) ) ;
#150 = CALENDAR_DATE ( 2023, 8, 6 ) ;
#151 = CC_DESIGN_APPROVAL ( #117, ( #53 ) ) ;
#152 = DATE_TIME_ROLE ( 'creation_date' ) ;
#153 = LINE ( 'NONE', #412, #400 ) ;
#154 = CIRCLE ( 'NONE', #326, 5.000000000000000900 ) ;
#155 = VERTEX_POINT ( 'NONE', #372 ) ;
#156 = EDGE_LOOP ( 'NONE', ( #132, #338, #290, #315 ) ) ;
#157 = AXIS2_PLACEMENT_3D ( 'NONE', #407, #56, #286 ) ;
#158 = VECTOR ( 'NONE', #239, 1000.000000000000000 ) ;
#159 = EDGE_LOOP ( 'NONE', ( #51, #85, #303, #232 ) ) ;
#160 = PERSON_AND_ORGANIZATION ( #43, #243 ) ;
#161 = CARTESIAN_POINT ( 'NONE',  ( 1.000000000000003300, 0.0000000000000000000, 2.999999999999999100 ) ) ;
#162 = FACE_OUTER_BOUND ( 'NONE', #390, .T. ) ;
#163 = DIRECTION ( 'NONE',  ( -7.228014483236698300E-017, 1.000000000000000000, 0.0000000000000000000 ) ) ;
#164 = AXIS2_PLACEMENT_3D ( 'NONE', #361, #178, #279 ) ;
#165 = CARTESIAN_POINT ( 'NONE',  ( 0.9999999999999997800, 2.999999999999999100, 0.0000000000000000000 ) ) ;
#166 = FACE_OUTER_BOUND ( 'NONE', #247, .T. ) ;
#167 = APPROVAL_STATUS ( 'not_yet_approved' ) ;
#168 = EDGE_CURVE ( 'NONE', #360, #191, #392, .T. ) ;
#169 = PLANE ( 'NONE',  #35 ) ;
#170 = DIRECTION ( 'NONE',  ( -1.000000000000000000, -0.0000000000000000000, -0.0000000000000000000 ) ) ;
#171 = CONICAL_SURFACE ( 'NONE', #89, 5.000000000000000000, 0.7853981633974482800 ) ;
#172 = CC_DESIGN_SECURITY_CLASSIFICATION ( #53, ( #362 ) ) ;
#173 = CARTESIAN_POINT ( 'NONE',  ( 1.000000000000003300, 3.673940397442061300E-016, -2.999999999999999100 ) ) ;
#174 = DIRECTION ( 'NONE',  ( 1.000000000000000000, 9.717949067029079900E-017, -0.0000000000000000000 ) ) ;
#175 = CIRCLE ( 'NONE', #60, 3.000000000000006200 ) ;
#176 = CARTESIAN_POINT ( 'NONE',  ( -46.70000000000001000, 4.999999999999995600, 0.0000000000000000000 ) ) ;
#177 = ADVANCED_FACE ( 'NONE', ( #114 ), #404, .T. ) ;
#178 = DIRECTION ( 'NONE',  ( 1.000000000000000000, 9.717949067029079900E-017, -0.0000000000000000000 ) ) ;
#179 = ORIENTED_EDGE ( 'NONE', *, *, #394, .F. ) ;
#180 = EDGE_LOOP ( 'NONE', ( #235, #139, #369, #42 ) ) ;
#181 = APPROVAL_ROLE ( '' ) ;
#182 = AXIS2_PLACEMENT_3D ( 'NONE', #391, #38, #142 ) ;
#183 = CLOSED_SHELL ( 'NONE', ( #148, #39, #202, #75, #333, #237, #177, #6, #270, #302 ) ) ;
#184 = EDGE_CURVE ( 'NONE', #218, #305, #291, .T. ) ;
#185 = EDGE_LOOP ( 'NONE', ( #241, #9 ) ) ;
#186 = DIRECTION ( 'NONE',  ( -7.228014483236698300E-017, 1.000000000000000000, 0.0000000000000000000 ) ) ;
#187 = PRODUCT_RELATED_PRODUCT_CATEGORY ( 'detail', '', ( #203 ) ) ;
#188 = CALENDAR_DATE ( 2023, 8, 6 ) ;
#189 = DIRECTION ( 'NONE',  ( -1.000000000000000000, -9.717949067029079900E-017, 0.0000000000000000000 ) ) ;
#190 = ADVANCED_BREP_SHAPE_REPRESENTATION ( '03-3003', ( #310, #17, #216 ), #129 ) ;
#191 = VERTEX_POINT ( 'NONE', #161 ) ;
#192 = AXIS2_PLACEMENT_3D ( 'NONE', #120, #345, #163 ) ;
#193 = ORIENTED_EDGE ( 'NONE', *, *, #251, .T. ) ;
#194 = CARTESIAN_POINT ( 'NONE',  ( 33.00000000000000000, 3.673940397442066800E-016, -3.000000000000006200 ) ) ;
#195 = DATE_AND_TIME ( #280, #363 ) ;
#196 = PLANE ( 'NONE',  #215 ) ;
#197 = DATE_AND_TIME ( #282, #365 ) ;
#198 = CARTESIAN_POINT ( 'NONE',  ( 0.0000000000000000000, 0.0000000000000000000, 0.0000000000000000000 ) ) ;
#199 = AXIS2_PLACEMENT_3D ( 'NONE', #54, #281, #88 ) ;
#200 = CARTESIAN_POINT ( 'NONE',  ( -46.70000000000001000, -4.635461704972872100E-015, 0.0000000000000000000 ) ) ;
#201 = EDGE_CURVE ( 'NONE', #47, #349, #341, .T. ) ;
#202 = ADVANCED_FACE ( 'NONE', ( #329 ), #72, .T. ) ;
#203 = PRODUCT ( '03-3003', '03-3003', '', ( #265 ) ) ;
#204 = DIRECTION ( 'NONE',  ( -0.7071067811865459100, 0.7071067811865491300, 8.659560562354953800E-017 ) ) ;
#205 = CARTESIAN_POINT ( 'NONE',  ( 1.000000000000000000, 0.0000000000000000000, 0.0000000000000000000 ) ) ;
#206 = FACE_OUTER_BOUND ( 'NONE', #159, .T. ) ;
#207 = ORIENTED_EDGE ( 'NONE', *, *, #336, .F. ) ;
#208 = DIRECTION ( 'NONE',  ( 1.000000000000000000, 9.717949067029079900E-017, -0.0000000000000000000 ) ) ;
#209 = PERSON_AND_ORGANIZATION_ROLE ( 'design_supplier' ) ;
#210 = APPROVAL_DATE_TIME ( #52, #277 ) ;
#211 = ORIENTED_EDGE ( 'NONE', *, *, #316, .T. ) ;
#212 = PERSON_AND_ORGANIZATION ( #43, #243 ) ;
#213 = CIRCLE ( 'NONE', #275, 2.999999999999999100 ) ;
#214 = VERTEX_POINT ( 'NONE', #383 ) ;
#215 = AXIS2_PLACEMENT_3D ( 'NONE', #353, #330, #134 ) ;
#216 = AXIS2_PLACEMENT_3D ( 'NONE', #198, #234, #33 ) ;
#217 = LINE ( 'NONE', #268, #370 ) ;
#218 = VERTEX_POINT ( 'NONE', #194 ) ;
#219 = DESIGN_CONTEXT ( 'detailed design', #273, 'design' ) ;
#220 = DIRECTION ( 'NONE',  ( -9.717949067029079900E-017, 1.000000000000000000, 0.0000000000000000000 ) ) ;
#221 = LOCAL_TIME ( 9, 25, 28.00000000000000000, #309 ) ;
#222 = AXIS2_PLACEMENT_3D ( 'NONE', #373, #118, #96 ) ;
#223 = CARTESIAN_POINT ( 'NONE',  ( 33.00000000000000000, 0.0000000000000000000, 0.0000000000000000000 ) ) ;
#224 = CIRCLE ( 'NONE', #192, 2.999999999999999100 ) ;
#225 = ORIENTED_EDGE ( 'NONE', *, *, #350, .F. ) ;
#226 = EDGE_CURVE ( 'NONE', #313, #349, #250, .T. ) ;
#227 = ORIENTED_EDGE ( 'NONE', *, *, #269, .F. ) ;
#228 = VECTOR ( 'NONE', #8, 1000.000000000000000 ) ;
#229 = ORIENTED_EDGE ( 'NONE', *, *, #3, .T. ) ;
#230 = CARTESIAN_POINT ( 'NONE',  ( 33.00000000000000000, 0.0000000000000000000, 0.0000000000000000000 ) ) ;
#231 = LOCAL_TIME ( 9, 25, 28.00000000000000000, #317 ) ;
#232 = ORIENTED_EDGE ( 'NONE', *, *, #74, .F. ) ;
#233 =( LENGTH_UNIT ( ) NAMED_UNIT ( * ) SI_UNIT ( .MILLI., .METRE. ) );
#234 = DIRECTION ( 'NONE',  ( 0.0000000000000000000, 0.0000000000000000000, 1.000000000000000000 ) ) ;
#235 = ORIENTED_EDGE ( 'NONE', *, *, #379, .F. ) ;
#236 = ORIENTED_EDGE ( 'NONE', *, *, #269, .T. ) ;
#237 = ADVANCED_FACE ( 'NONE', ( #331 ), #169, .T. ) ;
#238 = AXIS2_PLACEMENT_3D ( 'NONE', #21, #255, #55 ) ;
#239 = DIRECTION ( 'NONE',  ( 1.000000000000000000, 9.717949067029079900E-017, -0.0000000000000000000 ) ) ;
#240 = DIRECTION ( 'NONE',  ( 0.0000000000000000000, 1.000000000000000000, 0.0000000000000000000 ) ) ;
#241 = ORIENTED_EDGE ( 'NONE', *, *, #112, .F. ) ;
#242 = CC_DESIGN_PERSON_AND_ORGANIZATION_ASSIGNMENT ( #160, #71, ( #203 ) ) ;
#243 = ORGANIZATION ( 'UNSPECIFIED', 'UNSPECIFIED', '' ) ;
#244 = ADVANCED_FACE ( 'NONE', ( #166 ), #283, .F. ) ;
#245 = UNCERTAINTY_MEASURE_WITH_UNIT (LENGTH_MEASURE( 1.000000000000000100E-005 ), #233, 'distance_accuracy_value', 'NONE');
#246 = DIRECTION ( 'NONE',  ( 0.0000000000000000000, 0.0000000000000000000, 1.000000000000000000 ) ) ;
#247 = EDGE_LOOP ( 'NONE', ( #371, #401 ) ) ;
#248 = LINE ( 'NONE', #104, #158 ) ;
#249 = AXIS2_PLACEMENT_3D ( 'NONE', #230, #25, #259 ) ;
#250 = CIRCLE ( 'NONE', #285, 2.999999999999999100 ) ;
#251 = EDGE_CURVE ( 'NONE', #305, #218, #175, .T. ) ;
#252 = ORIENTED_EDGE ( 'NONE', *, *, #48, .F. ) ;
#253 = VECTOR ( 'NONE', #170, 1000.000000000000000 ) ;
#254 = CARTESIAN_POINT ( 'NONE',  ( 1.000000000000000000, 0.0000000000000000000, 0.0000000000000000000 ) ) ;
#255 = DIRECTION ( 'NONE',  ( -1.000000000000000000, -0.0000000000000000000, -0.0000000000000000000 ) ) ;
#256 = VECTOR ( 'NONE', #292, 1000.000000000000000 ) ;
#257 = DIRECTION ( 'NONE',  ( 0.0000000000000000000, 0.0000000000000000000, 1.000000000000000000 ) ) ;
#258 = PRODUCT_DEFINITION ( 'UNKNOWN', '', #362, #219 ) ;
#259 = DIRECTION ( 'NONE',  ( 0.0000000000000000000, 0.0000000000000000000, 1.000000000000000000 ) ) ;
#260 = ORIENTED_EDGE ( 'NONE', *, *, #350, .T. ) ;
#261 = ORIENTED_EDGE ( 'NONE', *, *, #226, .T. ) ;
#262 = CARTESIAN_POINT ( 'NONE',  ( 1.000000000000002900, 2.812008759946452200E-031, 0.0000000000000000000 ) ) ;
#263 = DIRECTION ( 'NONE',  ( 1.000000000000000000, 9.717949067029079900E-017, -0.0000000000000000000 ) ) ;
#264 = AXIS2_PLACEMENT_3D ( 'NONE', #254, #16, #186 ) ;
#265 = MECHANICAL_CONTEXT ( 'NONE', #2, 'mechanical' ) ;
#266 = ORIENTED_EDGE ( 'NONE', *, *, #74, .T. ) ;
#267 = DIRECTION ( 'NONE',  ( 1.000000000000000000, 9.717949067029079900E-017, -0.0000000000000000000 ) ) ;
#268 = CARTESIAN_POINT ( 'NONE',  ( -46.70000000000001000, -5.000000000000004400, 6.123233995736766300E-016 ) ) ;
#269 = EDGE_CURVE ( 'NONE', #393, #313, #82, .T. ) ;
#270 = ADVANCED_FACE ( 'NONE', ( #406 ), #388, .T. ) ;
#271 = DIRECTION ( 'NONE',  ( 1.000000000000000000, 9.717949067029079900E-017, -0.0000000000000000000 ) ) ;
#272 = ORIENTED_EDGE ( 'NONE', *, *, #201, .F. ) ;
#273 = APPLICATION_CONTEXT ( 'configuration controlled 3d designs of mechanical parts and assemblies' ) ;
#274 = LOCAL_TIME ( 9, 25, 28.00000000000000000, #352 ) ;
#275 = AXIS2_PLACEMENT_3D ( 'NONE', #40, #271, #78 ) ;
#276 = EDGE_LOOP ( 'NONE', ( #358, #211, #266, #288 ) ) ;
#277 = APPROVAL ( #308, 'UNSPECIFIED' ) ;
#278 = ORIENTED_EDGE ( 'NONE', *, *, #409, .T. ) ;
#279 = DIRECTION ( 'NONE',  ( 0.0000000000000000000, 1.000000000000000000, 0.0000000000000000000 ) ) ;
#280 = CALENDAR_DATE ( 2023, 8, 6 ) ;
#281 = DIRECTION ( 'NONE',  ( -1.000000000000000000, -0.0000000000000000000, -0.0000000000000000000 ) ) ;
#282 = CALENDAR_DATE ( 2023, 8, 6 ) ;
#283 = PLANE ( 'NONE',  #83 ) ;
#284 = DIRECTION ( 'NONE',  ( -0.7071067811865456900, -0.7071067811865493500, 0.0000000000000000000 ) ) ;
#285 = AXIS2_PLACEMENT_3D ( 'NONE', #262, #66, #294 ) ;
#286 = DIRECTION ( 'NONE',  ( -8.673617379884034200E-017, 1.000000000000000000, 0.0000000000000000000 ) ) ;
#287 = CARTESIAN_POINT ( 'NONE',  ( 0.0000000000000000000, 0.0000000000000000000, 3.000000000000002700 ) ) ;
#288 = ORIENTED_EDGE ( 'NONE', *, *, #409, .F. ) ;
#289 = EDGE_CURVE ( 'NONE', #218, #360, #153, .T. ) ;
#290 = ORIENTED_EDGE ( 'NONE', *, *, #1, .T. ) ;
#291 = CIRCLE ( 'NONE', #249, 3.000000000000006200 ) ;
#292 = DIRECTION ( 'NONE',  ( 1.000000000000000000, 9.717949067029079900E-017, -0.0000000000000000000 ) ) ;
#293 = ORIENTED_EDGE ( 'NONE', *, *, #24, .T. ) ;
#294 = DIRECTION ( 'NONE',  ( -7.228014483236698300E-017, 1.000000000000000000, 0.0000000000000000000 ) ) ;
#295 = DIRECTION ( 'NONE',  ( 1.000000000000000000, 9.717949067029079900E-017, -0.0000000000000000000 ) ) ;
#296 = PERSON_AND_ORGANIZATION ( #43, #243 ) ;
#297 = VECTOR ( 'NONE', #284, 1000.000000000000000 ) ;
#298 = ORIENTED_EDGE ( 'NONE', *, *, #368, .T. ) ;
#299 = DIRECTION ( 'NONE',  ( -7.228014483236698300E-017, 1.000000000000000000, 0.0000000000000000000 ) ) ;
#300 = AXIS2_PLACEMENT_3D ( 'NONE', #91, #123, #347 ) ;
#301 = DIRECTION ( 'NONE',  ( -8.673617379884034200E-017, 1.000000000000000000, 0.0000000000000000000 ) ) ;
#302 = ADVANCED_FACE ( 'NONE', ( #311 ), #58, .T. ) ;
#303 = ORIENTED_EDGE ( 'NONE', *, *, #94, .F. ) ;
#304 = CYLINDRICAL_SURFACE ( 'NONE', #135, 2.999999999999999100 ) ;
#305 = VERTEX_POINT ( 'NONE', #384 ) ;
#306 = CC_DESIGN_APPROVAL ( #277, ( #258 ) ) ;
#307 = CARTESIAN_POINT ( 'NONE',  ( -7.469803751377141000E-017, 2.999999999999999100, 0.0000000000000000000 ) ) ;
#308 = APPROVAL_STATUS ( 'not_yet_approved' ) ;
#309 = COORDINATED_UNIVERSAL_TIME_OFFSET ( 9, 0, .AHEAD. ) ;
#310 = MANIFOLD_SOLID_BREP ( 'È¸Àü3', #130 ) ;
#311 = FACE_OUTER_BOUND ( 'NONE', #276, .T. ) ;
#312 = LINE ( 'NONE', #7, #34 ) ;
#313 = VERTEX_POINT ( 'NONE', #413 ) ;
#314 = LINE ( 'NONE', #334, #228 ) ;
#315 = ORIENTED_EDGE ( 'NONE', *, *, #168, .F. ) ;
#316 = EDGE_CURVE ( 'NONE', #155, #214, #389, .T. ) ;
#317 = COORDINATED_UNIVERSAL_TIME_OFFSET ( 9, 0, .AHEAD. ) ;
#318 = DIRECTION ( 'NONE',  ( 0.0000000000000000000, 1.000000000000000000, 0.0000000000000000000 ) ) ;
#319 = CYLINDRICAL_SURFACE ( 'NONE', #110, 5.000000000000000900 ) ;
#320 = DIRECTION ( 'NONE',  ( 1.000000000000000000, 9.717949067029079900E-017, -0.0000000000000000000 ) ) ;
#321 = DIRECTION ( 'NONE',  ( -1.000000000000000000, 0.0000000000000000000, -0.0000000000000000000 ) ) ;
#322 = PLANE ( 'NONE',  #300 ) ;
#323 = VECTOR ( 'NONE', #346, 1000.000000000000000 ) ;
#324 = SECURITY_CLASSIFICATION_LEVEL ( 'unclassified' ) ;
#325 = ORIENTED_EDGE ( 'NONE', *, *, #357, .F. ) ;
#326 = AXIS2_PLACEMENT_3D ( 'NONE', #397, #208, #12 ) ;
#327 = CC_DESIGN_PERSON_AND_ORGANIZATION_ASSIGNMENT ( #119, #340, ( #258 ) ) ;
#328 = DIRECTION ( 'NONE',  ( 1.000000000000000000, 9.717949067029079900E-017, -0.0000000000000000000 ) ) ;
#329 = FACE_OUTER_BOUND ( 'NONE', #64, .T. ) ;
#330 = DIRECTION ( 'NONE',  ( -1.000000000000000000, -9.717949067029079900E-017, 0.0000000000000000000 ) ) ;
#331 = FACE_OUTER_BOUND ( 'NONE', #127, .T. ) ;
#332 = DIRECTION ( 'NONE',  ( 9.717949067029079900E-017, -1.000000000000000000, 0.0000000000000000000 ) ) ;
#333 = ADVANCED_FACE ( 'NONE', ( #57 ), #196, .T. ) ;
#334 = CARTESIAN_POINT ( 'NONE',  ( -46.70000000000001000, 4.999999999999995600, 0.0000000000000000000 ) ) ;
#335 = DIRECTION ( 'NONE',  ( 0.7071067811865477900, -0.7071067811865473500, 8.659560562354932900E-017 ) ) ;
#336 = EDGE_CURVE ( 'NONE', #349, #313, #224, .T. ) ;
#337 = CARTESIAN_POINT ( 'NONE',  ( 0.0000000000000000000, 0.0000000000000000000, 0.0000000000000000000 ) ) ;
#338 = ORIENTED_EDGE ( 'NONE', *, *, #184, .T. ) ;
#339 = LINE ( 'NONE', #287, #253 ) ;
#340 = PERSON_AND_ORGANIZATION_ROLE ( 'creator' ) ;
#341 = LINE ( 'NONE', #408, #256 ) ;
#342 = CC_DESIGN_DATE_AND_TIME_ASSIGNMENT ( #197, #152, ( #258 ) ) ;
#343 = EDGE_LOOP ( 'NONE', ( #260, #36 ) ) ;
#344 = ORIENTED_EDGE ( 'NONE', *, *, #48, .T. ) ;
#345 = DIRECTION ( 'NONE',  ( 1.000000000000000000, 9.717949067029079900E-017, -0.0000000000000000000 ) ) ;
#346 = DIRECTION ( 'NONE',  ( 1.000000000000000000, 9.717949067029079900E-017, -0.0000000000000000000 ) ) ;
#347 = DIRECTION ( 'NONE',  ( 0.0000000000000000000, 0.0000000000000000000, -1.000000000000000000 ) ) ;
#348 = DATE_TIME_ROLE ( 'classification_date' ) ;
#349 = VERTEX_POINT ( 'NONE', #354 ) ;
#350 = EDGE_CURVE ( 'NONE', #191, #360, #138, .T. ) ;
#351 = VERTEX_POINT ( 'NONE', #385 ) ;
#352 = COORDINATED_UNIVERSAL_TIME_OFFSET ( 9, 0, .AHEAD. ) ;
#353 = CARTESIAN_POINT ( 'NONE',  ( -47.00000000000001400, -4.664615552173959100E-015, 0.0000000000000000000 ) ) ;
#354 = CARTESIAN_POINT ( 'NONE',  ( 1.000000000000003100, -2.999999999999999100, 3.673940397442058900E-016 ) ) ;
#355 = CARTESIAN_POINT ( 'NONE',  ( 2.168404344971008900E-016, -9.717949067029077400E-017, 0.0000000000000000000 ) ) ;
#356 =( NAMED_UNIT ( * ) SI_UNIT ( $, .STERADIAN. ) SOLID_ANGLE_UNIT ( ) );
#357 = EDGE_CURVE ( 'NONE', #47, #105, #377, .T. ) ;
#358 = ORIENTED_EDGE ( 'NONE', *, *, #143, .F. ) ;
#359 = ADVANCED_FACE ( 'NONE', ( #46 ), #322, .F. ) ;
#360 = VERTEX_POINT ( 'NONE', #173 ) ;
#361 = CARTESIAN_POINT ( 'NONE',  ( -47.00000000000001400, -4.664615552173959900E-015, 0.0000000000000000000 ) ) ;
#362 = PRODUCT_DEFINITION_FORMATION_WITH_SPECIFIED_SOURCE ( 'ANY', '', #203, .NOT_KNOWN. ) ;
#363 = LOCAL_TIME ( 9, 25, 28.00000000000000000, #28 ) ;
#364 = APPROVAL_STATUS ( 'not_yet_approved' ) ;
#365 = LOCAL_TIME ( 9, 25, 28.00000000000000000, #31 ) ;
#366 = FACE_OUTER_BOUND ( 'NONE', #156, .T. ) ;
#367 = EDGE_LOOP ( 'NONE', ( #252, #278, #229, #179 ) ) ;
#368 = EDGE_CURVE ( 'NONE', #47, #393, #213, .T. ) ;
#369 = ORIENTED_EDGE ( 'NONE', *, *, #357, .T. ) ;
#370 = VECTOR ( 'NONE', #335, 999.9999999999998900 ) ;
#371 = ORIENTED_EDGE ( 'NONE', *, *, #251, .F. ) ;
#372 = CARTESIAN_POINT ( 'NONE',  ( -47.00000000000001400, -4.700000000000002800, 5.939536975864663000E-016 ) ) ;
#373 = CARTESIAN_POINT ( 'NONE',  ( 2.168404344971008900E-016, -9.717949067029077400E-017, 0.0000000000000000000 ) ) ;
#374 = CARTESIAN_POINT ( 'NONE',  ( 5.083789065079731800E-016, -2.999999999999999100, 0.0000000000000000000 ) ) ;
#375 = APPROVAL_DATE_TIME ( #45, #382 ) ;
#376 = APPROVAL_ROLE ( '' ) ;
#377 = LINE ( 'NONE', #374, #297 ) ;
#378 = ORIENTED_EDGE ( 'NONE', *, *, #402, .F. ) ;
#379 = EDGE_CURVE ( 'NONE', #393, #351, #312, .T. ) ;
#380 = CIRCLE ( 'NONE', #69, 5.000000000000000000 ) ;
#381 = ORIENTED_EDGE ( 'NONE', *, *, #201, .T. ) ;
#382 = APPROVAL ( #364, 'UNSPECIFIED' ) ;
#383 = CARTESIAN_POINT ( 'NONE',  ( -47.00000000000001400, 4.699999999999994000, 0.0000000000000000000 ) ) ;
#384 = CARTESIAN_POINT ( 'NONE',  ( 33.00000000000000000, 0.0000000000000000000, 3.000000000000006200 ) ) ;
#385 = CARTESIAN_POINT ( 'NONE',  ( -1.999999999999993100, 5.000000000000001800, 6.123233995736768300E-016 ) ) ;
#386 = DIRECTION ( 'NONE',  ( -9.717949067029079900E-017, 1.000000000000000000, 0.0000000000000000000 ) ) ;
#387 = APPLICATION_PROTOCOL_DEFINITION ( 'international standard', 'config_control_design', 1994, #2 ) ;
#388 = CYLINDRICAL_SURFACE ( 'NONE', #157, 5.000000000000000900 ) ;
#389 = CIRCLE ( 'NONE', #102, 4.699999999999998400 ) ;
#390 = EDGE_LOOP ( 'NONE', ( #95, #344, #61, #14 ) ) ;
#391 = CARTESIAN_POINT ( 'NONE',  ( 0.0000000000000000000, 0.0000000000000000000, 0.0000000000000000000 ) ) ;
#392 = CIRCLE ( 'NONE', #199, 2.999999999999999100 ) ;
#393 = VERTEX_POINT ( 'NONE', #307 ) ;
#394 = EDGE_CURVE ( 'NONE', #105, #351, #154, .T. ) ;
#395 = ADVANCED_FACE ( 'NONE', ( #366 ), #23, .T. ) ;
#396 = APPROVAL_PERSON_ORGANIZATION ( #65, #277, #108 ) ;
#397 = CARTESIAN_POINT ( 'NONE',  ( -1.999999999999992200, -2.915384720108716100E-016, 0.0000000000000000000 ) ) ;
#398 = CONICAL_SURFACE ( 'NONE', #18, 2.999999999999999100, 0.7853981633974507200 ) ;
#399 = PERSON_AND_ORGANIZATION_ROLE ( 'creator' ) ;
#400 = VECTOR ( 'NONE', #30, 1000.000000000000000 ) ;
#401 = ORIENTED_EDGE ( 'NONE', *, *, #184, .F. ) ;
#402 = EDGE_CURVE ( 'NONE', #393, #47, #111, .T. ) ;
#403 = CC_DESIGN_APPROVAL ( #382, ( #362 ) ) ;
#404 = CYLINDRICAL_SURFACE ( 'NONE', #264, 2.999999999999999100 ) ;
#405 = CARTESIAN_POINT ( 'NONE',  ( 0.9999999999999995600, 5.000000000000000900, 0.0000000000000000000 ) ) ;
#406 = FACE_OUTER_BOUND ( 'NONE', #367, .T. ) ;
#407 = CARTESIAN_POINT ( 'NONE',  ( 1.000000000000000000, 0.0000000000000000000, 0.0000000000000000000 ) ) ;
#408 = CARTESIAN_POINT ( 'NONE',  ( 1.000000000000000200, -2.999999999999999100, 3.673940397442058900E-016 ) ) ;
#409 = EDGE_CURVE ( 'NONE', #147, #10, #126, .T. ) ;
#410 = ORIENTED_EDGE ( 'NONE', *, *, #226, .F. ) ;
#411 = FACE_OUTER_BOUND ( 'NONE', #180, .T. ) ;
#412 = CARTESIAN_POINT ( 'NONE',  ( 0.0000000000000000000, 3.673940397442062800E-016, -3.000000000000002700 ) ) ;
#413 = CARTESIAN_POINT ( 'NONE',  ( 1.000000000000002700, 2.999999999999999100, 0.0000000000000000000 ) ) ;
ENDSEC;
END-ISO-10303-21;
