ISO-10303-21;
HEADER;
FILE_DESCRIPTION (( 'STEP AP203' ),
    '1' );
FILE_NAME ('03-3005.STEP',
    '2023-06-08T00:26:02',
    ( 'USER' ),
    ( 'Hewlett-Packard Company' ),
    'SwSTEP 2.0',
    'SolidWorks 2014',
    '' );
FILE_SCHEMA (( 'CONFIG_CONTROL_DESIGN' ));
ENDSEC;

DATA;
#1 = DIRECTION ( 'NONE',  ( 1.000000000000000000, 1.207985649014832000E-016, -0.0000000000000000000 ) ) ;
#2 = AXIS2_PLACEMENT_3D ( 'NONE', #138, #3, #168 ) ;
#3 = DIRECTION ( 'NONE',  ( 1.000000000000000000, 1.207985649014832000E-016, -0.0000000000000000000 ) ) ;
#4 = EDGE_CURVE ( 'NONE', #163, #53, #277, .T. ) ;
#5 = LINE ( 'NONE', #83, #195 ) ;
#6 = DATE_TIME_ROLE ( 'classification_date' ) ;
#7 = DIRECTION ( 'NONE',  ( 0.0000000000000000000, 1.000000000000000000, 0.0000000000000000000 ) ) ;
#8 = CYLINDRICAL_SURFACE ( 'NONE', #309, 5.000000000000003600 ) ;
#9 = DIRECTION ( 'NONE',  ( -0.0000000000000000000, 0.0000000000000000000, 1.000000000000000000 ) ) ;
#10 = CC_DESIGN_PERSON_AND_ORGANIZATION_ASSIGNMENT ( #294, #121, ( #259 ) ) ;
#11 = DIRECTION ( 'NONE',  ( 0.0000000000000000000, 1.000000000000000000, 0.0000000000000000000 ) ) ;
#12 = CARTESIAN_POINT ( 'NONE',  ( 0.0000000000000000000, 0.0000000000000000000, 0.0000000000000000000 ) ) ;
#13 = CARTESIAN_POINT ( 'NONE',  ( 0.9999999999999997800, 0.0000000000000000000, 0.0000000000000000000 ) ) ;
#14 = CIRCLE ( 'NONE', #116, 5.000000000000007100 ) ;
#15 = CARTESIAN_POINT ( 'NONE',  ( 41.00000000000000000, 6.123233995736774200E-016, -5.000000000000007100 ) ) ;
#16 = DIRECTION ( 'NONE',  ( 0.0000000000000000000, 0.0000000000000000000, 1.000000000000000000 ) ) ;
#17 = CLOSED_SHELL ( 'NONE', ( #190, #263, #68, #284, #47, #88 ) ) ;
#18 = AXIS2_PLACEMENT_3D ( 'NONE', #122, #214, #171 ) ;
#19 = APPLICATION_CONTEXT ( 'configuration controlled 3d designs of mechanical parts and assemblies' ) ;
#20 = DIRECTION ( 'NONE',  ( -1.000000000000000000, -0.0000000000000000000, -0.0000000000000000000 ) ) ;
#21 = EDGE_CURVE ( 'NONE', #304, #39, #14, .T. ) ;
#22 = ORIENTED_EDGE ( 'NONE', *, *, #300, .T. ) ;
#23 = CALENDAR_DATE ( 2023, 8, 6 ) ;
#24 = CARTESIAN_POINT ( 'NONE',  ( -42.70000000000000300, 4.999999999999994700, 0.0000000000000000000 ) ) ;
#25 = DATE_TIME_ROLE ( 'creation_date' ) ;
#26 = SECURITY_CLASSIFICATION ( '', '', #291 ) ;
#27 = APPROVAL_ROLE ( '' ) ;
#28 = DATE_AND_TIME ( #86, #153 ) ;
#29 = LOCAL_TIME ( 9, 26, 2.000000000000000000, #87 ) ;
#30 = PERSON ( 'UNSPECIFIED', 'UNSPECIFIED', 'UNSPECIFIED', ('UNSPECIFIED'), ('UNSPECIFIED'), ('UNSPECIFIED') ) ;
#31 = ORIENTED_EDGE ( 'NONE', *, *, #21, .T. ) ;
#32 = CARTESIAN_POINT ( 'NONE',  ( 0.9999999999999993300, -8.420261338789390700E-032, 0.0000000000000000000 ) ) ;
#33 = EDGE_CURVE ( 'NONE', #39, #304, #131, .T. ) ;
#34 = ORIENTED_EDGE ( 'NONE', *, *, #148, .F. ) ;
#35 = APPROVAL_DATE_TIME ( #96, #193 ) ;
#36 = CALENDAR_DATE ( 2023, 8, 6 ) ;
#37 = ORIENTED_EDGE ( 'NONE', *, *, #281, .T. ) ;
#38 = DIRECTION ( 'NONE',  ( 1.000000000000000000, 0.0000000000000000000, 0.0000000000000000000 ) ) ;
#39 = VERTEX_POINT ( 'NONE', #151 ) ;
#40 = DIRECTION ( 'NONE',  ( -1.000000000000000000, -0.0000000000000000000, -0.0000000000000000000 ) ) ;
#41 = CC_DESIGN_PERSON_AND_ORGANIZATION_ASSIGNMENT ( #223, #141, ( #26 ) ) ;
#42 = ORIENTED_EDGE ( 'NONE', *, *, #265, .F. ) ;
#43 = APPROVAL_PERSON_ORGANIZATION ( #108, #193, #114 ) ;
#44 = PERSON_AND_ORGANIZATION ( #30, #183 ) ;
#45 = EDGE_LOOP ( 'NONE', ( #311, #217, #235, #210 ) ) ;
#46 = VERTEX_POINT ( 'NONE', #106 ) ;
#47 = ADVANCED_FACE ( 'NONE', ( #260 ), #188, .T. ) ;
#48 = CYLINDRICAL_SURFACE ( 'NONE', #298, 5.000000000000003600 ) ;
#49 = AXIS2_PLACEMENT_3D ( 'NONE', #105, #271, #129 ) ;
#50 = EDGE_CURVE ( 'NONE', #304, #163, #5, .T. ) ;
#51 = FACE_OUTER_BOUND ( 'NONE', #287, .T. ) ;
#52 = ORIENTED_EDGE ( 'NONE', *, *, #187, .F. ) ;
#53 = VERTEX_POINT ( 'NONE', #229 ) ;
#54 = CONICAL_SURFACE ( 'NONE', #18, 5.000000000000000000, 0.7853981633974352900 ) ;
#55 = CARTESIAN_POINT ( 'NONE',  ( 0.0000000000000000000, 0.0000000000000000000, 0.0000000000000000000 ) ) ;
#56 = CC_DESIGN_DATE_AND_TIME_ASSIGNMENT ( #283, #6, ( #26 ) ) ;
#57 = PLANE ( 'NONE',  #49 ) ;
#58 = DIRECTION ( 'NONE',  ( 1.000000000000000000, 0.0000000000000000000, 0.0000000000000000000 ) ) ;
#59 = VECTOR ( 'NONE', #40, 1000.000000000000000 ) ;
#60 = LINE ( 'NONE', #73, #184 ) ;
#61 = PERSON_AND_ORGANIZATION_ROLE ( 'design_owner' ) ;
#62 =( GEOMETRIC_REPRESENTATION_CONTEXT ( 3 ) GLOBAL_UNCERTAINTY_ASSIGNED_CONTEXT ( ( #197 ) ) GLOBAL_UNIT_ASSIGNED_CONTEXT ( ( #256, #111, #275 ) ) REPRESENTATION_CONTEXT ( 'NONE', 'WORKASPACE' ) );
#63 = DIRECTION ( 'NONE',  ( -1.000000000000000000, -1.207985649014832000E-016, 0.0000000000000000000 ) ) ;
#64 = EDGE_CURVE ( 'NONE', #53, #163, #66, .T. ) ;
#65 = DIRECTION ( 'NONE',  ( 0.0000000000000000000, 1.000000000000000000, 0.0000000000000000000 ) ) ;
#66 = CIRCLE ( 'NONE', #159, 5.000000000000000000 ) ;
#67 = VERTEX_POINT ( 'NONE', #132 ) ;
#68 = ADVANCED_FACE ( 'NONE', ( #310 ), #280, .T. ) ;
#69 = CARTESIAN_POINT ( 'NONE',  ( -42.70000000000000300, 4.999999999999994700, 0.0000000000000000000 ) ) ;
#70 = APPROVAL ( #170, 'UNSPECIFIED' ) ;
#71 = ORIENTED_EDGE ( 'NONE', *, *, #33, .T. ) ;
#72 = CARTESIAN_POINT ( 'NONE',  ( 0.9999999999999993300, -8.420261338789390700E-032, 0.0000000000000000000 ) ) ;
#73 = CARTESIAN_POINT ( 'NONE',  ( 0.9999999999999993300, 4.999999999999999100, 0.0000000000000000000 ) ) ;
#74 = FACE_OUTER_BOUND ( 'NONE', #110, .T. ) ;
#75 = PRODUCT_DEFINITION_SHAPE ( 'NONE', 'NONE',  #176 ) ;
#76 = AXIS2_PLACEMENT_3D ( 'NONE', #180, #58, #267 ) ;
#77 = DIRECTION ( 'NONE',  ( 0.0000000000000000000, 0.0000000000000000000, 1.000000000000000000 ) ) ;
#78 = EDGE_CURVE ( 'NONE', #39, #53, #120, .T. ) ;
#79 = DIRECTION ( 'NONE',  ( 1.000000000000000000, 1.207985649014832000E-016, -0.0000000000000000000 ) ) ;
#80 = DIRECTION ( 'NONE',  ( -1.000000000000000000, -0.0000000000000000000, -0.0000000000000000000 ) ) ;
#81 = LOCAL_TIME ( 9, 26, 2.000000000000000000, #145 ) ;
#82 = APPLICATION_PROTOCOL_DEFINITION ( 'international standard', 'config_control_design', 1994, #227 ) ;
#83 = CARTESIAN_POINT ( 'NONE',  ( 0.0000000000000000000, 6.123233995736771200E-016, -5.000000000000003600 ) ) ;
#84 = CARTESIAN_POINT ( 'NONE',  ( 0.0000000000000000000, 0.0000000000000000000, 5.000000000000003600 ) ) ;
#85 = CC_DESIGN_APPROVAL ( #70, ( #26 ) ) ;
#86 = CALENDAR_DATE ( 2023, 8, 6 ) ;
#87 = COORDINATED_UNIVERSAL_TIME_OFFSET ( 9, 0, .AHEAD. ) ;
#88 = ADVANCED_FACE ( 'NONE', ( #117 ), #89, .T. ) ;
#89 = CONICAL_SURFACE ( 'NONE', #194, 5.000000000000000000, 0.7853981633974352900 ) ;
#90 = CARTESIAN_POINT ( 'NONE',  ( 1.000000000000000000, -5.000000000000000000, 6.123233995736766300E-016 ) ) ;
#91 = AXIS2_PLACEMENT_3D ( 'NONE', #13, #270, #127 ) ;
#92 = APPROVAL_ROLE ( '' ) ;
#93 = ORIENTED_EDGE ( 'NONE', *, *, #64, .F. ) ;
#94 = DIRECTION ( 'NONE',  ( -1.301042606982605300E-016, 1.000000000000000000, 0.0000000000000000000 ) ) ;
#95 = EDGE_LOOP ( 'NONE', ( #225, #52 ) ) ;
#96 = DATE_AND_TIME ( #161, #222 ) ;
#97 = CARTESIAN_POINT ( 'NONE',  ( 1.000000000000000700, -4.999999999999999100, 6.123233995736765300E-016 ) ) ;
#98 = LOCAL_TIME ( 9, 26, 2.000000000000000000, #162 ) ;
#99 = ORIENTED_EDGE ( 'NONE', *, *, #50, .T. ) ;
#100 = ORIENTED_EDGE ( 'NONE', *, *, #198, .F. ) ;
#101 = PLANE ( 'NONE',  #261 ) ;
#102 = DIRECTION ( 'NONE',  ( 1.000000000000000000, 1.207985649014832000E-016, -0.0000000000000000000 ) ) ;
#103 = CARTESIAN_POINT ( 'NONE',  ( 1.000000000000000000, 0.0000000000000000000, 0.0000000000000000000 ) ) ;
#104 = CC_DESIGN_SECURITY_CLASSIFICATION ( #26, ( #259 ) ) ;
#105 = CARTESIAN_POINT ( 'NONE',  ( 0.9999999999999991100, 5.000000000000000000, 0.0000000000000000000 ) ) ;
#106 = CARTESIAN_POINT ( 'NONE',  ( -43.00000000000000700, -4.700000000000004600, 5.939536975864663000E-016 ) ) ;
#107 = EDGE_LOOP ( 'NONE', ( #156, #169, #173, #100 ) ) ;
#108 = PERSON_AND_ORGANIZATION ( #30, #183 ) ;
#109 = APPROVAL_DATE_TIME ( #172, #268 ) ;
#110 = EDGE_LOOP ( 'NONE', ( #234, #118 ) ) ;
#111 =( NAMED_UNIT ( * ) PLANE_ANGLE_UNIT ( ) SI_UNIT ( $, .RADIAN. ) );
#112 = EDGE_LOOP ( 'NONE', ( #37, #22, #42, #224 ) ) ;
#113 = LINE ( 'NONE', #69, #119 ) ;
#114 = APPROVAL_ROLE ( '' ) ;
#115 = DIRECTION ( 'NONE',  ( 1.000000000000000000, 1.207985649014832000E-016, -0.0000000000000000000 ) ) ;
#116 = AXIS2_PLACEMENT_3D ( 'NONE', #221, #80, #253 ) ;
#117 = FACE_OUTER_BOUND ( 'NONE', #245, .T. ) ;
#118 = ORIENTED_EDGE ( 'NONE', *, *, #4, .T. ) ;
#119 = VECTOR ( 'NONE', #288, 1000.000000000000100 ) ;
#120 = LINE ( 'NONE', #84, #59 ) ;
#121 = PERSON_AND_ORGANIZATION_ROLE ( 'design_supplier' ) ;
#122 = CARTESIAN_POINT ( 'NONE',  ( -42.70000000000000300, -5.278897286194816200E-015, 0.0000000000000000000 ) ) ;
#123 = DIRECTION ( 'NONE',  ( 1.000000000000000000, 1.207985649014832000E-016, -0.0000000000000000000 ) ) ;
#124 = CIRCLE ( 'NONE', #272, 4.699999999999999300 ) ;
#125 = CARTESIAN_POINT ( 'NONE',  ( 41.00000000000000000, 0.0000000000000000000, 0.0000000000000000000 ) ) ;
#126 = DIRECTION ( 'NONE',  ( -1.000000000000000000, -0.0000000000000000000, -0.0000000000000000000 ) ) ;
#127 = DIRECTION ( 'NONE',  ( 0.0000000000000000000, 0.0000000000000000000, 1.000000000000000000 ) ) ;
#128 = AXIS2_PLACEMENT_3D ( 'NONE', #302, #152, #16 ) ;
#129 = DIRECTION ( 'NONE',  ( -1.207985649014832000E-016, 1.000000000000000000, 0.0000000000000000000 ) ) ;
#130 = DIRECTION ( 'NONE',  ( 1.000000000000000000, 1.207985649014832000E-016, -0.0000000000000000000 ) ) ;
#131 = CIRCLE ( 'NONE', #128, 5.000000000000007100 ) ;
#132 = CARTESIAN_POINT ( 'NONE',  ( -42.70000000000000300, -5.000000000000005300, 6.123233995736769200E-016 ) ) ;
#133 = ADVANCED_BREP_SHAPE_REPRESENTATION ( '03-3005', ( #237, #249, #139 ), #62 ) ;
#134 = CARTESIAN_POINT ( 'NONE',  ( -42.70000000000000300, -5.278897286194816200E-015, 0.0000000000000000000 ) ) ;
#135 = ORIENTED_EDGE ( 'NONE', *, *, #21, .F. ) ;
#136 = VECTOR ( 'NONE', #213, 1000.000000000000000 ) ;
#137 = ADVANCED_FACE ( 'NONE', ( #243 ), #101, .F. ) ;
#138 = CARTESIAN_POINT ( 'NONE',  ( 1.000000000000000000, 0.0000000000000000000, 0.0000000000000000000 ) ) ;
#139 = AXIS2_PLACEMENT_3D ( 'NONE', #201, #185, #38 ) ;
#140 = VERTEX_POINT ( 'NONE', #299 ) ;
#141 = PERSON_AND_ORGANIZATION_ROLE ( 'classification_officer' ) ;
#142 = DIRECTION ( 'NONE',  ( 1.000000000000000000, 1.207985649014832000E-016, -0.0000000000000000000 ) ) ;
#143 = PRODUCT ( '03-3005', '03-3005', '', ( #202 ) ) ;
#144 = PRODUCT_RELATED_PRODUCT_CATEGORY ( 'detail', '', ( #143 ) ) ;
#145 = COORDINATED_UNIVERSAL_TIME_OFFSET ( 9, 0, .AHEAD. ) ;
#146 = APPROVAL_DATE_TIME ( #209, #70 ) ;
#147 = EDGE_LOOP ( 'NONE', ( #174, #286 ) ) ;
#148 = EDGE_CURVE ( 'NONE', #67, #226, #232, .T. ) ;
#149 = DIRECTION ( 'NONE',  ( -1.000000000000000000, 0.0000000000000000000, -0.0000000000000000000 ) ) ;
#150 = DIRECTION ( 'NONE',  ( 1.000000000000000000, 1.207985649014832000E-016, -0.0000000000000000000 ) ) ;
#151 = CARTESIAN_POINT ( 'NONE',  ( 41.00000000000000000, 0.0000000000000000000, 5.000000000000007100 ) ) ;
#152 = DIRECTION ( 'NONE',  ( -1.000000000000000000, -0.0000000000000000000, -0.0000000000000000000 ) ) ;
#153 = LOCAL_TIME ( 9, 26, 2.000000000000000000, #215 ) ;
#154 = APPROVAL_PERSON_ORGANIZATION ( #216, #70, #27 ) ;
#155 = DESIGN_CONTEXT ( 'detailed design', #227, 'design' ) ;
#156 = ORIENTED_EDGE ( 'NONE', *, *, #265, .T. ) ;
#157 = CARTESIAN_POINT ( 'NONE',  ( 0.9999999999999997800, 0.0000000000000000000, 0.0000000000000000000 ) ) ;
#158 = CC_DESIGN_PERSON_AND_ORGANIZATION_ASSIGNMENT ( #303, #61, ( #143 ) ) ;
#159 = AXIS2_PLACEMENT_3D ( 'NONE', #157, #20, #186 ) ;
#160 = EDGE_LOOP ( 'NONE', ( #71, #99, #93, #295 ) ) ;
#161 = CALENDAR_DATE ( 2023, 8, 6 ) ;
#162 = COORDINATED_UNIVERSAL_TIME_OFFSET ( 9, 0, .AHEAD. ) ;
#163 = VERTEX_POINT ( 'NONE', #177 ) ;
#164 = ADVANCED_FACE ( 'NONE', ( #51 ), #8, .T. ) ;
#165 = ORIENTED_EDGE ( 'NONE', *, *, #4, .F. ) ;
#166 = DIRECTION ( 'NONE',  ( -1.301042606982605300E-016, 1.000000000000000000, 0.0000000000000000000 ) ) ;
#167 = EDGE_CURVE ( 'NONE', #262, #296, #181, .T. ) ;
#168 = DIRECTION ( 'NONE',  ( -1.301042606982605600E-016, 1.000000000000000000, 0.0000000000000000000 ) ) ;
#169 = ORIENTED_EDGE ( 'NONE', *, *, #231, .T. ) ;
#170 = APPROVAL_STATUS ( 'not_yet_approved' ) ;
#171 = DIRECTION ( 'NONE',  ( 0.0000000000000000000, 1.000000000000000000, 0.0000000000000000000 ) ) ;
#172 = DATE_AND_TIME ( #23, #81 ) ;
#173 = ORIENTED_EDGE ( 'NONE', *, *, #212, .F. ) ;
#174 = ORIENTED_EDGE ( 'NONE', *, *, #212, .T. ) ;
#175 = FACE_OUTER_BOUND ( 'NONE', #160, .T. ) ;
#176 = PRODUCT_DEFINITION ( 'UNKNOWN', '', #259, #155 ) ;
#177 = CARTESIAN_POINT ( 'NONE',  ( 0.9999999999999997800, 6.123233995736769200E-016, -5.000000000000000000 ) ) ;
#178 = CARTESIAN_POINT ( 'NONE',  ( 0.9999999999999986700, 5.000000000000000000, 0.0000000000000000000 ) ) ;
#179 = AXIS2_PLACEMENT_3D ( 'NONE', #103, #130, #279 ) ;
#180 = CARTESIAN_POINT ( 'NONE',  ( 1.000000000000000400, 2.168404344971010800E-016, 0.0000000000000000000 ) ) ;
#181 = CIRCLE ( 'NONE', #290, 5.000000000000000000 ) ;
#182 = EDGE_LOOP ( 'NONE', ( #305, #135 ) ) ;
#183 = ORGANIZATION ( 'UNSPECIFIED', 'UNSPECIFIED', '' ) ;
#184 = VECTOR ( 'NONE', #244, 1000.000000000000000 ) ;
#185 = DIRECTION ( 'NONE',  ( 0.0000000000000000000, 0.0000000000000000000, 1.000000000000000000 ) ) ;
#186 = DIRECTION ( 'NONE',  ( 0.0000000000000000000, 0.0000000000000000000, 1.000000000000000000 ) ) ;
#187 = EDGE_CURVE ( 'NONE', #46, #140, #124, .T. ) ;
#188 = CYLINDRICAL_SURFACE ( 'NONE', #179, 4.999999999999999100 ) ;
#189 = FACE_OUTER_BOUND ( 'NONE', #107, .T. ) ;
#190 = ADVANCED_FACE ( 'NONE', ( #255 ), #54, .T. ) ;
#191 = DIRECTION ( 'NONE',  ( -1.000000000000000000, -0.0000000000000000000, -0.0000000000000000000 ) ) ;
#192 = CARTESIAN_POINT ( 'NONE',  ( -42.70000000000000300, -5.000000000000005300, 6.123233995736766300E-016 ) ) ;
#193 = APPROVAL ( #257, 'UNSPECIFIED' ) ;
#194 = AXIS2_PLACEMENT_3D ( 'NONE', #134, #115, #65 ) ;
#195 = VECTOR ( 'NONE', #258, 1000.000000000000000 ) ;
#196 = CLOSED_SHELL ( 'NONE', ( #238, #164, #312, #137 ) ) ;
#197 = UNCERTAINTY_MEASURE_WITH_UNIT (LENGTH_MEASURE( 1.000000000000000100E-005 ), #256, 'distance_accuracy_value', 'NONE');
#198 = EDGE_CURVE ( 'NONE', #226, #296, #60, .T. ) ;
#199 = PLANE ( 'NONE',  #76 ) ;
#200 = LINE ( 'NONE', #192, #136 ) ;
#201 = CARTESIAN_POINT ( 'NONE',  ( 0.0000000000000000000, 0.0000000000000000000, 0.0000000000000000000 ) ) ;
#202 = MECHANICAL_CONTEXT ( 'NONE', #19, 'mechanical' ) ;
#203 = CARTESIAN_POINT ( 'NONE',  ( -43.00000000000000700, -5.315136855665261800E-015, 0.0000000000000000000 ) ) ;
#204 = CC_DESIGN_APPROVAL ( #193, ( #176 ) ) ;
#205 = ORIENTED_EDGE ( 'NONE', *, *, #250, .T. ) ;
#206 = AXIS2_PLACEMENT_3D ( 'NONE', #203, #63, #230 ) ;
#207 = ORIENTED_EDGE ( 'NONE', *, *, #300, .F. ) ;
#208 = APPROVAL_PERSON_ORGANIZATION ( #273, #268, #92 ) ;
#209 = DATE_AND_TIME ( #274, #29 ) ;
#210 = ORIENTED_EDGE ( 'NONE', *, *, #167, .F. ) ;
#211 = DIRECTION ( 'NONE',  ( 0.0000000000000000000, 0.0000000000000000000, 1.000000000000000000 ) ) ;
#212 = EDGE_CURVE ( 'NONE', #296, #262, #313, .T. ) ;
#213 = DIRECTION ( 'NONE',  ( 0.7071067811865569000, -0.7071067811865382500, 8.659560562354820700E-017 ) ) ;
#214 = DIRECTION ( 'NONE',  ( 1.000000000000000000, 1.207985649014832000E-016, -0.0000000000000000000 ) ) ;
#215 = COORDINATED_UNIVERSAL_TIME_OFFSET ( 9, 0, .AHEAD. ) ;
#216 = PERSON_AND_ORGANIZATION ( #30, #183 ) ;
#217 = ORIENTED_EDGE ( 'NONE', *, *, #148, .T. ) ;
#218 = ORIENTED_EDGE ( 'NONE', *, *, #50, .F. ) ;
#219 = CC_DESIGN_PERSON_AND_ORGANIZATION_ASSIGNMENT ( #282, #276, ( #176 ) ) ;
#220 = CARTESIAN_POINT ( 'NONE',  ( -43.00000000000000700, -5.315136855665262600E-015, 0.0000000000000000000 ) ) ;
#221 = CARTESIAN_POINT ( 'NONE',  ( 41.00000000000000000, 0.0000000000000000000, 0.0000000000000000000 ) ) ;
#222 = LOCAL_TIME ( 9, 26, 2.000000000000000000, #293 ) ;
#223 = PERSON_AND_ORGANIZATION ( #30, #183 ) ;
#224 = ORIENTED_EDGE ( 'NONE', *, *, #250, .F. ) ;
#225 = ORIENTED_EDGE ( 'NONE', *, *, #281, .F. ) ;
#226 = VERTEX_POINT ( 'NONE', #24 ) ;
#227 = APPLICATION_CONTEXT ( 'configuration controlled 3d designs of mechanical parts and assemblies' ) ;
#228 = CIRCLE ( 'NONE', #264, 5.000000000000000000 ) ;
#229 = CARTESIAN_POINT ( 'NONE',  ( 0.9999999999999997800, 0.0000000000000000000, 5.000000000000000000 ) ) ;
#230 = DIRECTION ( 'NONE',  ( 1.207985649014832000E-016, -1.000000000000000000, 0.0000000000000000000 ) ) ;
#231 = EDGE_CURVE ( 'NONE', #67, #262, #307, .T. ) ;
#232 = CIRCLE ( 'NONE', #240, 5.000000000000000000 ) ;
#233 = ORIENTED_EDGE ( 'NONE', *, *, #78, .T. ) ;
#234 = ORIENTED_EDGE ( 'NONE', *, *, #64, .T. ) ;
#235 = ORIENTED_EDGE ( 'NONE', *, *, #198, .T. ) ;
#236 = VECTOR ( 'NONE', #123, 1000.000000000000000 ) ;
#237 = MANIFOLD_SOLID_BREP ( 'È¸Àü3', #196 ) ;
#238 = ADVANCED_FACE ( 'NONE', ( #175 ), #48, .T. ) ;
#239 = CC_DESIGN_DATE_AND_TIME_ASSIGNMENT ( #28, #25, ( #176 ) ) ;
#240 = AXIS2_PLACEMENT_3D ( 'NONE', #251, #102, #269 ) ;
#241 = APPROVAL_STATUS ( 'not_yet_approved' ) ;
#242 = DIRECTION ( 'NONE',  ( 1.000000000000000000, 1.207985649014832000E-016, -0.0000000000000000000 ) ) ;
#243 = FACE_OUTER_BOUND ( 'NONE', #182, .T. ) ;
#244 = DIRECTION ( 'NONE',  ( 1.000000000000000000, 1.207985649014832000E-016, -0.0000000000000000000 ) ) ;
#245 = EDGE_LOOP ( 'NONE', ( #207, #285, #205, #34 ) ) ;
#246 = SHAPE_DEFINITION_REPRESENTATION ( #75, #133 ) ;
#247 = FACE_OUTER_BOUND ( 'NONE', #147, .T. ) ;
#248 = AXIS2_PLACEMENT_3D ( 'NONE', #32, #1, #166 ) ;
#249 = MANIFOLD_SOLID_BREP ( 'È¸Àü4', #17 ) ;
#250 = EDGE_CURVE ( 'NONE', #140, #226, #113, .T. ) ;
#251 = CARTESIAN_POINT ( 'NONE',  ( -42.70000000000000300, -5.278897286194816200E-015, 0.0000000000000000000 ) ) ;
#252 = DIRECTION ( 'NONE',  ( 0.0000000000000000000, 1.000000000000000000, 0.0000000000000000000 ) ) ;
#253 = DIRECTION ( 'NONE',  ( 0.0000000000000000000, 0.0000000000000000000, 1.000000000000000000 ) ) ;
#254 = CYLINDRICAL_SURFACE ( 'NONE', #2, 4.999999999999999100 ) ;
#255 = FACE_OUTER_BOUND ( 'NONE', #112, .T. ) ;
#256 =( LENGTH_UNIT ( ) NAMED_UNIT ( * ) SI_UNIT ( .MILLI., .METRE. ) );
#257 = APPROVAL_STATUS ( 'not_yet_approved' ) ;
#258 = DIRECTION ( 'NONE',  ( -1.000000000000000000, -0.0000000000000000000, -0.0000000000000000000 ) ) ;
#259 = PRODUCT_DEFINITION_FORMATION_WITH_SPECIFIED_SOURCE ( 'ANY', '', #143, .NOT_KNOWN. ) ;
#260 = FACE_OUTER_BOUND ( 'NONE', #45, .T. ) ;
#261 = AXIS2_PLACEMENT_3D ( 'NONE', #125, #149, #9 ) ;
#262 = VERTEX_POINT ( 'NONE', #90 ) ;
#263 = ADVANCED_FACE ( 'NONE', ( #189 ), #254, .T. ) ;
#264 = AXIS2_PLACEMENT_3D ( 'NONE', #301, #150, #11 ) ;
#265 = EDGE_CURVE ( 'NONE', #226, #67, #228, .T. ) ;
#266 = PERSON_AND_ORGANIZATION_ROLE ( 'creator' ) ;
#267 = DIRECTION ( 'NONE',  ( 0.0000000000000000000, 0.0000000000000000000, -1.000000000000000000 ) ) ;
#268 = APPROVAL ( #241, 'UNSPECIFIED' ) ;
#269 = DIRECTION ( 'NONE',  ( 0.0000000000000000000, 1.000000000000000000, 0.0000000000000000000 ) ) ;
#270 = DIRECTION ( 'NONE',  ( -1.000000000000000000, -0.0000000000000000000, -0.0000000000000000000 ) ) ;
#271 = DIRECTION ( 'NONE',  ( 1.000000000000000000, 1.207985649014832000E-016, -0.0000000000000000000 ) ) ;
#272 = AXIS2_PLACEMENT_3D ( 'NONE', #292, #142, #7 ) ;
#273 = PERSON_AND_ORGANIZATION ( #30, #183 ) ;
#274 = CALENDAR_DATE ( 2023, 8, 6 ) ;
#275 =( NAMED_UNIT ( * ) SI_UNIT ( $, .STERADIAN. ) SOLID_ANGLE_UNIT ( ) );
#276 = PERSON_AND_ORGANIZATION_ROLE ( 'creator' ) ;
#277 = CIRCLE ( 'NONE', #91, 5.000000000000000000 ) ;
#278 = AXIS2_PLACEMENT_3D ( 'NONE', #220, #79, #252 ) ;
#279 = DIRECTION ( 'NONE',  ( -1.301042606982605600E-016, 1.000000000000000000, 0.0000000000000000000 ) ) ;
#280 = PLANE ( 'NONE',  #206 ) ;
#281 = EDGE_CURVE ( 'NONE', #140, #46, #297, .T. ) ;
#282 = PERSON_AND_ORGANIZATION ( #30, #183 ) ;
#283 = DATE_AND_TIME ( #36, #98 ) ;
#284 = ADVANCED_FACE ( 'NONE', ( #247 ), #57, .T. ) ;
#285 = ORIENTED_EDGE ( 'NONE', *, *, #187, .T. ) ;
#286 = ORIENTED_EDGE ( 'NONE', *, *, #167, .T. ) ;
#287 = EDGE_LOOP ( 'NONE', ( #218, #31, #233, #165 ) ) ;
#288 = DIRECTION ( 'NONE',  ( 0.7071067811865565700, 0.7071067811865383600, 0.0000000000000000000 ) ) ;
#289 = CC_DESIGN_APPROVAL ( #268, ( #259 ) ) ;
#290 = AXIS2_PLACEMENT_3D ( 'NONE', #72, #242, #94 ) ;
#291 = SECURITY_CLASSIFICATION_LEVEL ( 'unclassified' ) ;
#292 = CARTESIAN_POINT ( 'NONE',  ( -43.00000000000000700, -5.315136855665262600E-015, 0.0000000000000000000 ) ) ;
#293 = COORDINATED_UNIVERSAL_TIME_OFFSET ( 9, 0, .AHEAD. ) ;
#294 = PERSON_AND_ORGANIZATION ( #30, #183 ) ;
#295 = ORIENTED_EDGE ( 'NONE', *, *, #78, .F. ) ;
#296 = VERTEX_POINT ( 'NONE', #178 ) ;
#297 = CIRCLE ( 'NONE', #278, 4.699999999999999300 ) ;
#298 = AXIS2_PLACEMENT_3D ( 'NONE', #12, #191, #211 ) ;
#299 = CARTESIAN_POINT ( 'NONE',  ( -43.00000000000000700, 4.699999999999994000, 0.0000000000000000000 ) ) ;
#300 = EDGE_CURVE ( 'NONE', #46, #67, #200, .T. ) ;
#301 = CARTESIAN_POINT ( 'NONE',  ( -42.70000000000000300, -5.278897286194816200E-015, 0.0000000000000000000 ) ) ;
#302 = CARTESIAN_POINT ( 'NONE',  ( 41.00000000000000000, 0.0000000000000000000, 0.0000000000000000000 ) ) ;
#303 = PERSON_AND_ORGANIZATION ( #30, #183 ) ;
#304 = VERTEX_POINT ( 'NONE', #15 ) ;
#305 = ORIENTED_EDGE ( 'NONE', *, *, #33, .F. ) ;
#306 = APPLICATION_PROTOCOL_DEFINITION ( 'international standard', 'config_control_design', 1994, #19 ) ;
#307 = LINE ( 'NONE', #97, #236 ) ;
#308 = CC_DESIGN_PERSON_AND_ORGANIZATION_ASSIGNMENT ( #44, #266, ( #259 ) ) ;
#309 = AXIS2_PLACEMENT_3D ( 'NONE', #55, #126, #77 ) ;
#310 = FACE_OUTER_BOUND ( 'NONE', #95, .T. ) ;
#311 = ORIENTED_EDGE ( 'NONE', *, *, #231, .F. ) ;
#312 = ADVANCED_FACE ( 'NONE', ( #74 ), #199, .F. ) ;
#313 = CIRCLE ( 'NONE', #248, 5.000000000000000000 ) ;
ENDSEC;
END-ISO-10303-21;
